  0
SECTION
  2
HEADER
  9
$ACADVER
  1
AC1012
  9
$DWGCODEPAGE
  3
dos932
  9
$INSBASE
 10
0.0
 20
0.0
 30
0.0
  9
$EXTMIN
 10
-138.399994
 20
-94.800003
 30
0.0
  9
$EXTMAX
 10
138.350006
 20
94.5
 30
0.0
  9
$LIMMIN
 10
-138.399994
 20
-94.800003
  9
$LIMMAX
 10
138.350006
 20
94.5
  9
$ORTHOMODE
 70
     0
  9
$REGENMODE
 70
     1
  9
$FILLMODE
 70
     1
  9
$QTEXTMODE
 70
     0
  9
$MIRRTEXT
 70
     1
  9
$DRAGMODE
 70
     2
  9
$LTSCALE
 40
1.0
  9
$OSMODE
 70
     0
  9
$ATTMODE
 70
     1
  9
$TEXTSIZE
 40
3.2
  9
$TRACEWID
 40
0.05
  9
$TEXTSTYLE
  7
MX_NOTE_STANDARD
  9
$CLAYER
  8
0
  9
$CELTYPE
  6
CONTINUOUS
  9
$CECOLOR
 62
   256
  9
$CELTSCALE
 40
1.0
  9
$DELOBJ
 70
     1
  9
$DISPSILH
 70
     0
  9
$DIMSCALE
 40
1.0
  9
$DIMASZ
 40
2.5
  9
$DIMEXO
 40
1.5
  9
$DIMDLI
 40
3.75
  9
$DIMRND
 40
0.0
  9
$DIMDLE
 40
0.0
  9
$DIMEXE
 40
1.5
  9
$DIMTP
 40
0.0
  9
$DIMTM
 40
0.0
  9
$DIMTXT
 40
3.2
  9
$DIMCEN
 40
2.5
  9
$DIMTSZ
 40
0.0
  9
$DIMTOL
 70
     0
  9
$DIMLIM
 70
     0
  9
$DIMTIH
 70
     0
  9
$DIMTOH
 70
     0
  9
$DIMSE1
 70
     0
  9
$DIMSE2
 70
     0
  9
$DIMTAD
 70
     1
  9
$DIMZIN
 70
     8
  9
$DIMBLK
  1

  9
$DIMASO
 70
     1
  9
$DIMSHO
 70
     1
  9
$DIMPOST
  1

  9
$DIMAPOST
  1

  9
$DIMALT
 70
     0
  9
$DIMALTD
 70
     4
  9
$DIMALTF
 40
0.0394
  9
$DIMLFAC
 40
1.0
  9
$DIMTOFL
 70
     1
  9
$DIMTVP
 40
0.0
  9
$DIMTIX
 70
     0
  9
$DIMSOXD
 70
     0
  9
$DIMSAH
 70
     0
  9
$DIMBLK1
  1

  9
$DIMBLK2
  1

  9
$DIMSTYLE
  2
MXDIMSTYLE
  9
$DIMCLRD
 70
     0
  9
$DIMCLRE
 70
     0
  9
$DIMCLRT
 70
     0
  9
$DIMTFAC
 40
1.0
  9
$DIMGAP
 40
1.0
  9
$DIMJUST
 70
     0
  9
$DIMSD1
 70
     0
  9
$DIMSD2
 70
     0
  9
$DIMTOLJ
 70
     1
  9
$DIMTZIN
 70
     0
  9
$DIMALTZ
 70
     0
  9
$DIMALTTZ
 70
     0
  9
$DIMFIT
 70
     3
  9
$DIMUPT
 70
     1
  9
$DIMUNIT
 70
     2
  9
$DIMDEC
 70
     4
  9
$DIMTDEC
 70
     4
  9
$DIMALTU
 70
     8
  9
$DIMALTTD
 70
     4
  9
$DIMTXSTY
  7
MX_NOTE_STANDARD
  9
$DIMAUNIT
 70
     0
  9
$LUNITS
 70
     2
  9
$LUPREC
 70
     4
  9
$SKETCHINC
 40
0.1
  9
$FILLETRAD
 40
0.0
  9
$AUNITS
 70
     0
  9
$AUPREC
 70
     0
  9
$MENU
  1
acad
  9
$ELEVATION
 40
0.0
  9
$PELEVATION
 40
0.0
  9
$THICKNESS
 40
0.0
  9
$LIMCHECK
 70
     0
  9
$BLIPMODE
 70
     1
  9
$CHAMFERA
 40
0.0
  9
$CHAMFERB
 40
0.0
  9
$CHAMFERC
 40
0.0
  9
$CHAMFERD
 40
0.0
  9
$SKPOLY
 70
     0
  9
$TDCREATE
 40
2452209.493275463
  9
$TDUPDATE
 40
2452209.493275463
  9
$TDINDWG
 40
0.0000000000
  9
$TDUSRTIMER
 40
0.0000000000
  9
$USRTIMER
 70
     1
  9
$ANGBASE
 50
0.0
  9
$ANGDIR
 70
     0
  9
$PDMODE
 70
     0
  9
$PDSIZE
 40
0.0
  9
$PLINEWID
 40
0.0
  9
$COORDS
 70
     1
  9
$SPLFRAME
 70
     0
  9
$SPLINETYPE
 70
     6
  9
$SPLINESEGS
 70
     8
  9
$ATTDIA
 70
     0
  9
$ATTREQ
 70
     1
  9
$HANDLING
 70
     1
  9
$HANDSEED
  5
E4
  9
$SURFTAB1
 70
     6
  9
$SURFTAB2
 70
     6
  9
$SURFTYPE
 70
     6
  9
$SURFU
 70
     6
  9
$SURFV
 70
     6
  9
$UCSNAME
  2

  9
$UCSORG
 10
0.0
 20
0.0
 30
0.0
  9
$UCSXDIR
 10
1.0
 20
0.0
 30
0.0
  9
$UCSYDIR
 10
0.0
 20
1.0
 30
0.0
  9
$PUCSNAME
  2

  9
$PUCSORG
 10
0.0
 20
0.0
 30
0.0
  9
$PUCSXDIR
 10
1.0
 20
0.0
 30
0.0
  9
$PUCSYDIR
 10
0.0
 20
1.0
 30
0.0
  9
$USERI1
 70
     0
  9
$USERI2
 70
     0
  9
$USERI3
 70
     0
  9
$USERI4
 70
     0
  9
$USERI5
 70
     0
  9
$USERR1
 40
0.0
  9
$USERR2
 40
0.0
  9
$USERR3
 40
0.0
  9
$USERR4
 40
0.0
  9
$USERR5
 40
0.0
  9
$WORLDVIEW
 70
     1
  9
$SHADEDGE
 70
     3
  9
$SHADEDIF
 70
    70
  9
$TILEMODE
 70
     1
  9
$MAXACTVP
 70
    16
  9
$PINSBASE
 10
0.0
 20
0.0
 30
0.0
  9
$PLIMCHECK
 70
     0
  9
$PEXTMIN
 10
1.000000E+20
 20
1.000000E+20
 30
1.000000E+20
  9
$PEXTMAX
 10
-1.000000E+20
 20
-1.000000E+20
 30
-1.000000E+20
  9
$PLIMMIN
 10
0.0
 20
0.0
  9
$PLIMMAX
 10
12.0
 20
9.0
  9
$UNITMODE
 70
     0
  9
$VISRETAIN
 70
     0
  9
$PLINEGEN
 70
     1
  9
$PSLTSCALE
 70
     0
  9
$TREEDEPTH
 70
  3020
  9
$PICKSTYLE
 70
     1
  9
$CMLSTYLE
  2
STANDARD
  9
$CMLJUST
 70
     0
  9
$CMLSCALE
 40
1.0
  9
$SAVEIMAGES
 70
     0
  0
ENDSEC
  0
SECTION
  2
CLASSES
  0
CLASS
  1
LWPOLYLINE
  2
AcDbPolyline
  3
"AutoCAD"
 90
        0
280
     0
281
     1
  0
CLASS
  1
IMAGE
  2
AcDbRasterImage
  3
ISM
 90
      127
280
     0
281
     1
  0
CLASS
  1
OLE2FRAME
  2
AcDbOle2Frame
  3
""
 90
        0
280
     0
281
     1
  0
CLASS
  1
HATCH
  2
AcDbHatch
  3
"ACAD_SEDONA"
 90
        0
280
     0
281
     1
  0
CLASS
  1
DICTIONARYVAR
  2
AcDbDictionaryVar
  3
"AutoCAD"
 90
        0
280
     0
281
     0
  0
CLASS
  1
RASTERVARIABLES
  2
AcDbRasterVariables
  3
ISM
 90
        0
280
     0
281
     0
  0
CLASS
  1
IMAGEDEF
  2
AcDbRasterImageDef
  3
ISM
 90
        0
280
     0
281
     0
  0
CLASS
  1
IMAGEDEF_REACTOR
  2
AcDbRasterImageDefReactor
  3
ISM
 90
        1
280
     0
281
     0
  0
CLASS
  1
IDBUFFER
  2
AcDbIdBuffer
  3
"Acad"
 90
        0
280
     0
281
     0
  0
CLASS
  1
SPATIAL_FILTER
  2
AcDbSpatialFilter
  3
"Acad"
 90
        0
280
     0
281
     0
  0
CLASS
  1
XRECORD
  2
AcDbXrecord
  3
"<Built In>"
 90
        0
280
     0
281
     0
  0
CLASS
  1
SORTENTSTABLE
  2
AcDbSortentsTable
  3
"AutoCAD"
 90
        0
280
     0
281
     0
  0
CLASS
  1
LAYER_INDEX
  2
AcDbLayerIndex
  3
"Acad"
 90
        0
280
     0
281
     0
  0
CLASS
  1
SPATIAL_INDEX
  2
AcDbSpatialIndex
  3
"Acad"
 90
        0
280
     0
281
     0
  0
CLASS
  1
OBJECT_PTR
  2
CAseDLPNTableRecord
  3
"ASE-LPNTableRecord"
 90
        1
280
     0
281
     0
  0
CLASS
  1
LAYOUT
  2
AcDbLayout
  3
"AutoCAD 2000"
 90
        1
280
     0
281
     0
  0
CLASS
  1
PLOTSETTINGS
  2
AcDbPlotSettings
  3
"AutoCAD 2000"
 90
        1
280
     0
281
     0
  0
CLASS
  1
ACDBDICTIONARYWDFLT
  2
AcDbDictionaryWithDefault
  3
"AutoCAD 2000"
 90
        1
280
     0
281
     0
  0
CLASS
  1
ACDBPLACEHOLDER
  2
AcDbPlaceHolder
  3
"AutoCAD 2000"
 90
        1
280
     0
281
     0
  0
CLASS
  1
VBA_PROJECT
  2
AcDbVbaProject
  3
"acadvba"
 90
        1
280
     0
281
     0
  0
CLASS
  1
WIPEOUT
  2
AcDbWipeout
  3
WipeOut|AutoCAD Express Tool|expresstools@autodesk.com
 90
      127
280
     0
281
     1
  0
CLASS
  1
WIPEOUTVARIABLES
  2
AcDbWipeoutVariables
  3
WipeOut|AutoCAD Express Tool|expresstools@autodesk.com
 90
        0
280
     0
281
     0
  0
CLASS
  1
RTEXT
  2
RText
  3
RText|AutoCAD Express Tool|expresstools@autodesk.com
 90
        0
280
     0
281
     1
  0
CLASS
  1
ARCALIGNEDTEXT
  2
AcDbArcAlignedText
  3
ATEXT|AutoCAD Express Tool|expresstools@autodesk.com
 90
        0
280
     0
281
     1
  0
ENDSEC
  0
SECTION
  2
TABLES
  0
TABLE
  2
VPORT
  5
7
100
AcDbSymbolTable
 70
     2
  0
VPORT
  5
E3
100
AcDbSymbolTableRecord
100
AcDbViewportTableRecord
  2
*ACTIVE
 70
     0
 10
0.0
 20
0.0
 11
1.0
 21
1.0
 12
29.718553
 22
-0.150002
 13
0.0
 23
0.0
 14
1.0
 24
1.0
 15
0.0
 25
0.0
 16
0.0
 26
0.0
 36
1.0
 17
0.0
 27
0.0
 37
0.0
 40
189.300003
 41
1.776213
 42
50.0
 43
0.0
 44
0.0
 50
0.0
 51
0.0
 71
     0
 72
   100
 73
     1
 74
     1
 75
     0
 76
     0
 77
     0
 78
     0
  0
ENDTAB
  0
TABLE
  2
LTYPE
  5
4
100
AcDbSymbolTable
 70
     3
  0
LTYPE
  5
11
100
AcDbSymbolTableRecord
100
AcDbLinetypeTableRecord
  2
BYBLOCK
 70
    64
  3

 72
    65
 73
     0
 40
0.0
  0
LTYPE
  5
12
100
AcDbSymbolTableRecord
100
AcDbLinetypeTableRecord
  2
BYLAYER
 70
    64
  3

 72
    65
 73
     0
 40
0.0
  0
LTYPE
  5
13
100
AcDbSymbolTableRecord
100
AcDbLinetypeTableRecord
  2
CONTINUOUS
 70
    64
  3
Solid line
 72
    65
 73
     0
 40
0.0
  0
LTYPE
  5
47
100
AcDbSymbolTableRecord
100
AcDbLinetypeTableRecord
  2
CENTER
 70
    64
  3
Center ____ _ ____ _ ____ _ ____ _ ____ _ ____
 72
    65
 73
     4
 40
50.8
 49
31.75
 74
     0
 49
-6.35
 74
     0
 49
6.35
 74
     0
 49
-6.35
 74
     0
  0
LTYPE
  5
5E
100
AcDbSymbolTableRecord
100
AcDbLinetypeTableRecord
  2
PHANTOM
 70
    64
  3
Phantom ______  __  __  ______  __  __  ______
 72
    65
 73
     6
 40
63.5
 49
31.75
 74
     0
 49
-6.35
 74
     0
 49
6.35
 74
     0
 49
-6.35
 74
     0
 49
6.35
 74
     0
 49
-6.35
 74
     0
  0
ENDTAB
  0
TABLE
  2
LAYER
  5
2
100
AcDbSymbolTable
 70
     2
  0
LAYER
  5
14
100
AcDbSymbolTableRecord
100
AcDbLayerTableRecord
  2
0
 70
     0
 62
     7
  6
CONTINUOUS
  0
LAYER
  5
1D
100
AcDbSymbolTableRecord
100
AcDbLayerTableRecord
  2
DEFPOINTS
 70
     0
 62
     7
  6
CONTINUOUS
  0
ENDTAB
  0
TABLE
  2
STYLE
  5
3
100
AcDbSymbolTable
 70
     2
  0
STYLE
  5
17
100
AcDbSymbolTableRecord
100
AcDbTextStyleTableRecord
  2
MX_NOTE_STANDARD
 70
     0
 40
3.2
 41
1.0
 50
0.0
 71
     0
 42
3.2
  3
txt.shx
  4
extfont.shx
  0
STYLE
  5
E0
100
AcDbSymbolTableRecord
100
AcDbTextStyleTableRecord
  2
STANDARD
 70
     0
 40
0.0
 41
1.0
 50
0.0
 71
     0
 42
0.0
  3

  4

  0
ENDTAB
  0
TABLE
  2
VIEW
  5
5
100
AcDbSymbolTable
 70
     0
  0
ENDTAB
  0
TABLE
  2
UCS
  5
6
100
AcDbSymbolTable
 70
     0
  0
ENDTAB
  0
TABLE
  2
APPID
  5
8
100
AcDbSymbolTable
 70
     1
  0
APPID
  5
16
100
AcDbSymbolTableRecord
100
AcDbRegAppTableRecord
  2
ACAD
 70
     0
  0
ENDTAB
  0
TABLE
  2
DIMSTYLE
  5
9
100
AcDbSymbolTable
 70
     1
  0
DIMSTYLE
105
18
100
AcDbSymbolTableRecord
100
AcDbDimStyleTableRecord
  2
MXDIMSTYLE
 70
     0
  3

  4

  5

  6

  7

 40
1.0
 41
2.5
 42
1.5
 43
3.75
 44
1.5
 45
0.0
 46
0.0
 47
0.0
 48
0.0
140
3.2
141
2.5
142
0.0
143
0.0394
144
1.0
145
0.0
146
1.0
147
1.0
 71
     0
 72
     0
 73
     0
 74
     0
 75
     0
 76
     0
 77
     1
 78
     8
170
     0
171
     4
172
     1
173
     0
174
     0
175
     0
176
     0
177
     0
178
     0
270
     2
271
     4
272
     4
273
     8
274
     4
340
17
275
     0
280
     0
281
     0
282
     0
283
     1
284
     0
285
     0
286
     0
287
     3
288
     1
  0
ENDTAB
  0
TABLE
  2
BLOCK_RECORD
  5
1
100
AcDbSymbolTable
 70
     4
  0
BLOCK_RECORD
  5
A
100
AcDbSymbolTableRecord
100
AcDbBlockTableRecord
  2
*MODEL_SPACE
  0
BLOCK_RECORD
  5
B
100
AcDbSymbolTableRecord
100
AcDbBlockTableRecord
  2
*PAPER_SPACE
  0
BLOCK_RECORD
  5
1E
100
AcDbSymbolTableRecord
100
AcDbBlockTableRecord
  2
MS_1
  0
BLOCK_RECORD
  5
1F
100
AcDbSymbolTableRecord
100
AcDbBlockTableRecord
  2
MS_2
  0
BLOCK_RECORD
  5
20
100
AcDbSymbolTableRecord
100
AcDbBlockTableRecord
  2
MS_3
  0
BLOCK_RECORD
  5
87
100
AcDbSymbolTableRecord
100
AcDbBlockTableRecord
  2
*X3
  0
ENDTAB
  0
ENDSEC
  0
SECTION
  2
BLOCKS
  0
BLOCK
  5
D
100
AcDbEntity
  8
0
100
AcDbBlockBegin
  2
*MODEL_SPACE
 70
     0
 10
0.0
 20
0.0
 30
0.0
  3
*MODEL_SPACE
  1

  0
ENDBLK
  5
E
100
AcDbEntity
  8
0
100
AcDbBlockEnd
  0
BLOCK
  5
F
100
AcDbEntity
 67
     1
  8
0
100
AcDbBlockBegin
  2
*PAPER_SPACE
 70
     0
 10
0.0
 20
0.0
 30
0.0
  3
*PAPER_SPACE
  1

  0
ENDBLK
  5
10
100
AcDbEntity
 67
     1
  8
0
100
AcDbBlockEnd
  0
BLOCK
  5
21
100
AcDbEntity
  8
0
100
AcDbBlockBegin
  2
MS_1
 70
     0
 10
0.0
 20
0.0
 30
0.0
  3
MS_1
  1

  0
SPLINE
  5
22
100
AcDbEntity
  8
0
  6
CONTINUOUS
 62
     7
100
AcDbSpline
210
0.0
220
0.0
230
-1.0
 70
     8
 71
     3
 72
    11
 73
     7
 74
     5
 42
0.0000001
 43
0.0000001
 44
0.000001
 12
-0.5262037598477772
 22
0.8503585144643775
 32
0.0
 13
0.5262037751704171
 23
0.8503585049826932
 33
0.0
 40
0.0
 40
0.0
 40
0.0
 40
0.0
 40
0.4199190360514369
 40
0.8387827523114896
 40
1.257646392588131
 40
1.677565351539459
 40
1.677565351539459
 40
1.677565351539459
 40
1.677565351539459
 10
-5.354379881916926
 20
-3.175426523880929
 30
0.0
 10
-5.428034207117566
 20
-3.056399281316925
 30
0.0
 10
-5.549463462412203
 20
-2.801468334416915
 30
0.0
 10
-5.625236484014743
 20
-2.381569901485894
 30
0.0
 10
-5.549463435826266
 20
-1.961671502534928
 30
0.0
 10
-5.428034193649217
 20
-1.706740607354795
 30
0.0
 10
-5.354379879827277
 20
-1.587713387972215
 30
0.0
 11
-5.354379881916926
 21
-3.175426523880929
 31
0.0
 11
-5.531848436729169
 21
-2.794852077955796
 31
0.0
 11
-5.599999999999993
 21
-2.3815698774887
 31
0.0
 11
-5.531848416228579
 21
-1.968287757411811
 31
0.0
 11
-5.354379879827277
 21
-1.587713387972215
 31
0.0
  0
SPLINE
  5
23
100
AcDbEntity
  8
0
  6
CONTINUOUS
 62
     7
100
AcDbSpline
210
0.0
220
0.0
230
1.0
 70
     8
 71
     3
 72
    11
 73
     7
 74
     5
 42
0.0000001
 43
0.0000001
 44
0.000001
 12
0.526203759847777
 22
0.8503585144643775
 32
0.0
 13
-0.526203775170417
 23
0.8503585049826934
 33
0.0
 40
0.0
 40
0.0
 40
0.0
 40
0.0
 40
0.4199190360514369
 40
0.8387827523114898
 40
1.257646392588131
 40
1.677565351539459
 40
1.677565351539459
 40
1.677565351539459
 40
1.677565351539459
 10
-2.245620118083067
 20
-3.175426523880929
 30
0.0
 10
-2.171965792882427
 20
-3.056399281316925
 30
0.0
 10
-2.050536537587791
 20
-2.801468334416916
 30
0.0
 10
-1.974763515985249
 20
-2.381569901485893
 30
0.0
 10
-2.050536564173728
 20
-1.961671502534929
 30
0.0
 10
-2.171965806350776
 20
-1.706740607354795
 30
0.0
 10
-2.245620120172716
 20
-1.587713387972215
 30
0.0
 11
-2.245620118083067
 21
-3.175426523880929
 31
0.0
 11
-2.068151563270824
 21
-2.794852077955796
 31
0.0
 11
-2.0
 21
-2.3815698774887
 31
0.0
 11
-2.068151583771415
 21
-1.968287757411811
 31
0.0
 11
-2.245620120172716
 21
-1.587713387972215
 31
0.0
  0
SPLINE
  5
24
100
AcDbEntity
  8
0
  6
CONTINUOUS
 62
     7
100
AcDbSpline
210
0.0
220
0.0
230
-1.0
 70
     8
 71
     3
 72
    11
 73
     7
 74
     5
 42
0.0000001
 43
0.0000001
 44
0.000001
 12
-0.5262037598477772
 22
0.8503585144643775
 32
0.0
 13
0.5262037751704171
 23
0.8503585049826932
 33
0.0
 40
0.0
 40
0.0
 40
0.0
 40
0.0
 40
0.4199190360514369
 40
0.8387827523114896
 40
1.257646392588131
 40
1.677565351539459
 40
1.677565351539459
 40
1.677565351539459
 40
1.677565351539459
 10
-3.554379881916929
 20
-3.175426523880929
 30
0.0
 10
-3.628034207117569
 20
-3.056399281316925
 30
0.0
 10
-3.749463462412205
 20
-2.801468334416916
 30
0.0
 10
-3.825236484014745
 20
-2.381569901485893
 30
0.0
 10
-3.74946343582627
 20
-1.961671502534928
 30
0.0
 10
-3.62803419364922
 20
-1.706740607354795
 30
0.0
 10
-3.55437987982728
 20
-1.587713387972215
 30
0.0
 11
-3.554379881916929
 21
-3.175426523880929
 31
0.0
 11
-3.731848436729172
 21
-2.794852077955796
 31
0.0
 11
-3.799999999999996
 21
-2.3815698774887
 31
0.0
 11
-3.731848416228582
 21
-1.968287757411811
 31
0.0
 11
-3.55437987982728
 21
-1.587713387972215
 31
0.0
  0
SPLINE
  5
25
100
AcDbEntity
  8
0
  6
CONTINUOUS
 62
     7
100
AcDbSpline
210
0.0
220
0.0
230
1.0
 70
     8
 71
     3
 72
    11
 73
     7
 74
     5
 42
0.0000001
 43
0.0000001
 44
0.000001
 12
0.526203759847777
 22
0.8503585144643775
 32
0.0
 13
-0.526203775170417
 23
0.8503585049826934
 33
0.0
 40
0.0
 40
0.0
 40
0.0
 40
0.0
 40
0.4199190360514368
 40
0.8387827523114898
 40
1.257646392588131
 40
1.677565351539459
 40
1.677565351539459
 40
1.677565351539459
 40
1.677565351539459
 10
-4.045620118083064
 20
-3.175426523880929
 30
0.0
 10
-3.971965792882424
 20
-3.056399281316925
 30
0.0
 10
-3.850536537587789
 20
-2.801468334416916
 30
0.0
 10
-3.774763515985246
 20
-2.381569901485894
 30
0.0
 10
-3.850536564173724
 20
-1.961671502534928
 30
0.0
 10
-3.971965806350774
 20
-1.706740607354795
 30
0.0
 10
-4.045620120172713
 20
-1.587713387972215
 30
0.0
 11
-4.045620118083064
 21
-3.175426523880929
 31
0.0
 11
-3.868151563270822
 21
-2.794852077955796
 31
0.0
 11
-3.799999999999996
 21
-2.3815698774887
 31
0.0
 11
-3.868151583771412
 21
-1.968287757411811
 31
0.0
 11
-4.045620120172713
 21
-1.587713387972215
 31
0.0
  0
SPLINE
  5
26
100
AcDbEntity
  8
0
  6
CONTINUOUS
 62
     7
100
AcDbSpline
210
0.0
220
0.0
230
-1.0
 70
     8
 71
     3
 72
    11
 73
     7
 74
     5
 42
0.0000001
 43
0.0000001
 44
0.000001
 12
-0.2955767328958228
 22
-0.955319001679874
 32
0.0
 13
0.2955767328958229
 23
-0.955319001679874
 33
0.0
 40
0.0
 40
0.0
 40
0.0
 40
0.0
 40
0.8048260150852982
 40
1.611101640492014
 40
2.417377265898731
 40
3.222203280984029
 40
3.222203280984029
 40
3.222203280984029
 40
3.222203280984029
 10
-5.354379879827277
 20
1.587713387972215
 30
0.0
 10
-5.433675827856769
 20
1.331424859553122
 30
0.0
 10
-5.556410033283398
 20
0.806400998682297
 30
0.0
 10
-5.621814593687046
 20
0.0
 30
0.0
 10
-5.556410033283401
 20
-0.8064009986822972
 30
0.0
 10
-5.433675827856769
 20
-1.331424859553122
 30
0.0
 10
-5.354379879827277
 20
-1.587713387972215
 30
0.0
 11
-5.354379879827277
 21
1.587713387972215
 31
0.0
 11
-5.53654913138466
 21
0.803775075127956
 31
0.0
 11
-5.599999999999993
 21
0.0
 31
0.0
 11
-5.53654913138466
 21
-0.803775075127956
 31
0.0
 11
-5.354379879827277
 21
-1.587713387972215
 31
0.0
  0
SPLINE
  5
27
100
AcDbEntity
  8
0
  6
CONTINUOUS
 62
     7
100
AcDbSpline
210
0.0
220
0.0
230
1.0
 70
     8
 71
     3
 72
    11
 73
     7
 74
     5
 42
0.0000001
 43
0.0000001
 44
0.000001
 12
0.2955767328958229
 22
-0.955319001679874
 32
0.0
 13
-0.2955767328958228
 23
-0.955319001679874
 33
0.0
 40
0.0
 40
0.0
 40
0.0
 40
0.0
 40
0.8048260150852984
 40
1.611101640492014
 40
2.417377265898731
 40
3.222203280984029
 40
3.222203280984029
 40
3.222203280984029
 40
3.222203280984029
 10
-2.245620120172716
 20
1.587713387972215
 30
0.0
 10
-2.166324172143224
 20
1.331424859553122
 30
0.0
 10
-2.043589966716592
 20
0.8064009986822973
 30
0.0
 10
-1.978185406312946
 20
-0.0000000000000001
 30
0.0
 10
-2.043589966716591
 20
-0.806400998682297
 30
0.0
 10
-2.166324172143224
 20
-1.331424859553122
 30
0.0
 10
-2.245620120172716
 20
-1.587713387972215
 30
0.0
 11
-2.245620120172716
 21
1.587713387972215
 31
0.0
 11
-2.063450868615333
 21
0.803775075127956
 31
0.0
 11
-2.0
 21
0.0
 31
0.0
 11
-2.063450868615333
 21
-0.803775075127956
 31
0.0
 11
-2.245620120172716
 21
-1.587713387972215
 31
0.0
  0
SPLINE
  5
28
100
AcDbEntity
  8
0
  6
CONTINUOUS
 62
     7
100
AcDbSpline
210
0.0
220
0.0
230
1.0
 70
     8
 71
     3
 72
    11
 73
     7
 74
     5
 42
0.0000001
 43
0.0000001
 44
0.000001
 12
0.2955767328958229
 22
-0.955319001679874
 32
0.0
 13
-0.2955767328958228
 23
-0.955319001679874
 33
0.0
 40
0.0
 40
0.0
 40
0.0
 40
0.0
 40
0.8048260150852984
 40
1.611101640492014
 40
2.417377265898731
 40
3.222203280984029
 40
3.222203280984029
 40
3.222203280984029
 40
3.222203280984029
 10
-4.045620120172713
 20
1.587713387972215
 30
0.0
 10
-3.966324172143221
 20
1.331424859553122
 30
0.0
 10
-3.843589966716589
 20
0.8064009986822975
 30
0.0
 10
-3.778185406312942
 20
0.0
 30
0.0
 10
-3.843589966716587
 20
-0.8064009986822972
 30
0.0
 10
-3.966324172143221
 20
-1.331424859553122
 30
0.0
 10
-4.045620120172713
 20
-1.587713387972215
 30
0.0
 11
-4.045620120172713
 21
1.587713387972215
 31
0.0
 11
-3.863450868615329
 21
0.803775075127956
 31
0.0
 11
-3.799999999999996
 21
0.0
 31
0.0
 11
-3.863450868615329
 21
-0.803775075127956
 31
0.0
 11
-4.045620120172713
 21
-1.587713387972215
 31
0.0
  0
SPLINE
  5
29
100
AcDbEntity
  8
0
  6
CONTINUOUS
 62
     7
100
AcDbSpline
210
0.0
220
0.0
230
-1.0
 70
     8
 71
     3
 72
    11
 73
     7
 74
     5
 42
0.0000001
 43
0.0000001
 44
0.000001
 12
-0.2955767328958228
 22
-0.955319001679874
 32
0.0
 13
0.2955767328958229
 23
-0.955319001679874
 33
0.0
 40
0.0
 40
0.0
 40
0.0
 40
0.0
 40
0.8048260150852984
 40
1.611101640492014
 40
2.417377265898731
 40
3.222203280984029
 40
3.222203280984029
 40
3.222203280984029
 40
3.222203280984029
 10
-3.55437987982728
 20
1.587713387972215
 30
0.0
 10
-3.633675827856772
 20
1.331424859553122
 30
0.0
 10
-3.756410033283405
 20
0.8064009986822973
 30
0.0
 10
-3.821814593687049
 20
-0.0000000000000001
 30
0.0
 10
-3.756410033283404
 20
-0.806400998682297
 30
0.0
 10
-3.633675827856772
 20
-1.331424859553122
 30
0.0
 10
-3.55437987982728
 20
-1.587713387972215
 30
0.0
 11
-3.55437987982728
 21
1.587713387972215
 31
0.0
 11
-3.736549131384664
 21
0.803775075127956
 31
0.0
 11
-3.799999999999996
 21
0.0
 31
0.0
 11
-3.736549131384664
 21
-0.803775075127956
 31
0.0
 11
-3.55437987982728
 21
-1.587713387972215
 31
0.0
  0
SPLINE
  5
2A
100
AcDbEntity
  8
0
  6
CONTINUOUS
 62
     7
100
AcDbSpline
210
0.0
220
0.0
230
1.0
 70
     8
 71
     3
 72
    11
 73
     7
 74
     5
 42
0.0000001
 43
0.0000001
 44
0.000001
 12
0.526203759847777
 22
-0.8503585144643775
 32
0.0
 13
-0.526203775170417
 23
-0.8503585049826934
 33
0.0
 40
0.0
 40
0.0
 40
0.0
 40
0.0
 40
0.4199190360514368
 40
0.8387827523114898
 40
1.257646392588131
 40
1.677565351539459
 40
1.677565351539459
 40
1.677565351539459
 40
1.677565351539459
 10
-4.045620118083064
 20
3.175426523880929
 30
0.0
 10
-3.971965792882424
 20
3.056399281316925
 30
0.0
 10
-3.850536537587789
 20
2.801468334416916
 30
0.0
 10
-3.774763515985246
 20
2.381569901485894
 30
0.0
 10
-3.850536564173724
 20
1.961671502534928
 30
0.0
 10
-3.971965806350774
 20
1.706740607354795
 30
0.0
 10
-4.045620120172713
 20
1.587713387972215
 30
0.0
 11
-4.045620118083064
 21
3.175426523880929
 31
0.0
 11
-3.868151563270822
 21
2.794852077955796
 31
0.0
 11
-3.799999999999996
 21
2.3815698774887
 31
0.0
 11
-3.868151583771412
 21
1.968287757411811
 31
0.0
 11
-4.045620120172713
 21
1.587713387972215
 31
0.0
  0
SPLINE
  5
2B
100
AcDbEntity
  8
0
  6
CONTINUOUS
 62
     7
100
AcDbSpline
210
0.0
220
0.0
230
-1.0
 70
     8
 71
     3
 72
    11
 73
     7
 74
     5
 42
0.0000001
 43
0.0000001
 44
0.000001
 12
-0.5262037598477772
 22
-0.8503585144643775
 32
0.0
 13
0.5262037751704171
 23
-0.8503585049826932
 33
0.0
 40
0.0
 40
0.0
 40
0.0
 40
0.0
 40
0.4199190360514369
 40
0.8387827523114896
 40
1.257646392588131
 40
1.677565351539459
 40
1.677565351539459
 40
1.677565351539459
 40
1.677565351539459
 10
-5.354379881916926
 20
3.175426523880929
 30
0.0
 10
-5.428034207117566
 20
3.056399281316925
 30
0.0
 10
-5.549463462412203
 20
2.801468334416915
 30
0.0
 10
-5.625236484014743
 20
2.381569901485894
 30
0.0
 10
-5.549463435826266
 20
1.961671502534928
 30
0.0
 10
-5.428034193649217
 20
1.706740607354795
 30
0.0
 10
-5.354379879827277
 20
1.587713387972215
 30
0.0
 11
-5.354379881916926
 21
3.175426523880929
 31
0.0
 11
-5.531848436729169
 21
2.794852077955796
 31
0.0
 11
-5.599999999999993
 21
2.3815698774887
 31
0.0
 11
-5.531848416228579
 21
1.968287757411811
 31
0.0
 11
-5.354379879827277
 21
1.587713387972215
 31
0.0
  0
SPLINE
  5
2C
100
AcDbEntity
  8
0
  6
CONTINUOUS
 62
     7
100
AcDbSpline
210
0.0
220
0.0
230
1.0
 70
     8
 71
     3
 72
    11
 73
     7
 74
     5
 42
0.0000001
 43
0.0000001
 44
0.000001
 12
0.526203759847777
 22
-0.8503585144643775
 32
0.0
 13
-0.526203775170417
 23
-0.8503585049826934
 33
0.0
 40
0.0
 40
0.0
 40
0.0
 40
0.0
 40
0.4199190360514369
 40
0.8387827523114898
 40
1.257646392588131
 40
1.677565351539459
 40
1.677565351539459
 40
1.677565351539459
 40
1.677565351539459
 10
-2.245620118083067
 20
3.175426523880929
 30
0.0
 10
-2.171965792882427
 20
3.056399281316925
 30
0.0
 10
-2.050536537587791
 20
2.801468334416916
 30
0.0
 10
-1.974763515985249
 20
2.381569901485893
 30
0.0
 10
-2.050536564173728
 20
1.961671502534929
 30
0.0
 10
-2.171965806350776
 20
1.706740607354795
 30
0.0
 10
-2.245620120172716
 20
1.587713387972215
 30
0.0
 11
-2.245620118083067
 21
3.175426523880929
 31
0.0
 11
-2.068151563270824
 21
2.794852077955796
 31
0.0
 11
-2.0
 21
2.3815698774887
 31
0.0
 11
-2.068151583771415
 21
1.968287757411811
 31
0.0
 11
-2.245620120172716
 21
1.587713387972215
 31
0.0
  0
SPLINE
  5
2D
100
AcDbEntity
  8
0
  6
CONTINUOUS
 62
     7
100
AcDbSpline
210
0.0
220
0.0
230
-1.0
 70
     8
 71
     3
 72
    11
 73
     7
 74
     5
 42
0.0000001
 43
0.0000001
 44
0.000001
 12
-0.5262037598477772
 22
-0.8503585144643775
 32
0.0
 13
0.5262037751704171
 23
-0.8503585049826932
 33
0.0
 40
0.0
 40
0.0
 40
0.0
 40
0.0
 40
0.4199190360514369
 40
0.8387827523114896
 40
1.257646392588131
 40
1.677565351539459
 40
1.677565351539459
 40
1.677565351539459
 40
1.677565351539459
 10
-3.554379881916929
 20
3.175426523880929
 30
0.0
 10
-3.628034207117569
 20
3.056399281316925
 30
0.0
 10
-3.749463462412205
 20
2.801468334416916
 30
0.0
 10
-3.825236484014745
 20
2.381569901485893
 30
0.0
 10
-3.74946343582627
 20
1.961671502534928
 30
0.0
 10
-3.62803419364922
 20
1.706740607354795
 30
0.0
 10
-3.55437987982728
 20
1.587713387972215
 30
0.0
 11
-3.554379881916929
 21
3.175426523880929
 31
0.0
 11
-3.731848436729172
 21
2.794852077955796
 31
0.0
 11
-3.799999999999996
 21
2.3815698774887
 31
0.0
 11
-3.731848416228582
 21
1.968287757411811
 31
0.0
 11
-3.55437987982728
 21
1.587713387972215
 31
0.0
  0
CIRCLE
  5
2E
100
AcDbEntity
  8
0
  6
CONTINUOUS
 62
     7
100
AcDbCircle
 10
5.0
 20
-7.5
 30
0.0
 40
2.4
  0
CIRCLE
  5
2F
100
AcDbEntity
  8
0
  6
CONTINUOUS
 62
     7
100
AcDbCircle
 10
5.0
 20
7.5
 30
0.0
 40
2.4
  0
LINE
  5
30
100
AcDbEntity
  8
0
  6
CONTINUOUS
 62
     7
100
AcDbLine
 10
-2.0
 20
-2.75
 30
0.0
 11
-2.24562
 21
-3.175427
 31
0.0
  0
LINE
  5
31
100
AcDbEntity
  8
0
  6
CONTINUOUS
 62
     7
100
AcDbLine
 10
-5.6
 20
-2.75
 30
0.0
 11
-5.35438
 21
-3.175427
 31
0.0
  0
LINE
  5
32
100
AcDbEntity
  8
0
  6
CONTINUOUS
 62
     7
100
AcDbLine
 10
-3.8
 20
-2.75
 30
0.0
 11
-3.55438
 21
-3.175427
 31
0.0
  0
LINE
  5
33
100
AcDbEntity
  8
0
  6
CONTINUOUS
 62
     7
100
AcDbLine
 10
-3.8
 20
-2.75
 30
0.0
 11
-4.04562
 21
-3.175427
 31
0.0
  0
LINE
  5
34
100
AcDbEntity
  8
0
  6
CONTINUOUS
 62
     7
100
AcDbLine
 10
-4.04562
 20
-3.175427
 30
0.0
 11
-5.35438
 21
-3.175427
 31
0.0
  0
LINE
  5
35
100
AcDbEntity
  8
0
  6
CONTINUOUS
 62
     7
100
AcDbLine
 10
-4.04562
 20
-1.587713
 30
0.0
 11
-5.35438
 21
-1.587713
 31
0.0
  0
LINE
  5
36
100
AcDbEntity
  8
0
  6
CONTINUOUS
 62
     7
100
AcDbLine
 10
-3.55438
 20
-1.587713
 30
0.0
 11
-2.24562
 21
-1.587713
 31
0.0
  0
LINE
  5
37
100
AcDbEntity
  8
0
  6
CONTINUOUS
 62
     7
100
AcDbLine
 10
-3.55438
 20
-3.175427
 30
0.0
 11
-2.24562
 21
-3.175427
 31
0.0
  0
LINE
  5
38
100
AcDbEntity
  8
0
  6
CONTINUOUS
 62
     7
100
AcDbLine
 10
-4.04562
 20
1.587713
 30
0.0
 11
-5.35438
 21
1.587713
 31
0.0
  0
LINE
  5
39
100
AcDbEntity
  8
0
  6
CONTINUOUS
 62
     7
100
AcDbLine
 10
-3.55438
 20
1.587713
 30
0.0
 11
-2.24562
 21
1.587713
 31
0.0
  0
LINE
  5
3A
100
AcDbEntity
  8
0
  6
CONTINUOUS
 62
     7
100
AcDbLine
 10
-3.55438
 20
3.175427
 30
0.0
 11
-2.24562
 21
3.175427
 31
0.0
  0
LINE
  5
3B
100
AcDbEntity
  8
0
  6
CONTINUOUS
 62
     7
100
AcDbLine
 10
-3.8
 20
2.75
 30
0.0
 11
-3.55438
 21
3.175427
 31
0.0
  0
LINE
  5
3C
100
AcDbEntity
  8
0
  6
CONTINUOUS
 62
     7
100
AcDbLine
 10
-2.0
 20
2.75
 30
0.0
 11
-2.24562
 21
3.175427
 31
0.0
  0
LINE
  5
3D
100
AcDbEntity
  8
0
  6
CONTINUOUS
 62
     7
100
AcDbLine
 10
-5.6
 20
2.75
 30
0.0
 11
-5.35438
 21
3.175427
 31
0.0
  0
LINE
  5
3E
100
AcDbEntity
  8
0
  6
CONTINUOUS
 62
     7
100
AcDbLine
 10
-3.8
 20
2.75
 30
0.0
 11
-4.04562
 21
3.175427
 31
0.0
  0
LINE
  5
3F
100
AcDbEntity
  8
0
  6
CONTINUOUS
 62
     7
100
AcDbLine
 10
-4.04562
 20
3.175427
 30
0.0
 11
-5.35438
 21
3.175427
 31
0.0
  0
LINE
  5
40
100
AcDbEntity
  8
0
  6
CONTINUOUS
 62
     7
100
AcDbLine
 10
-5.6
 20
-2.75
 30
0.0
 11
-5.6
 21
2.75
 31
0.0
  0
LINE
  5
41
100
AcDbEntity
  8
0
  6
CONTINUOUS
 62
     7
100
AcDbLine
 10
-2.0
 20
-2.75
 30
0.0
 11
-2.0
 21
2.75
 31
0.0
  0
LINE
  5
42
100
AcDbEntity
  8
0
  6
CONTINUOUS
 62
     7
100
AcDbLine
 10
-3.8
 20
-2.75
 30
0.0
 11
-3.8
 21
2.75
 31
0.0
  0
LINE
  5
43
100
AcDbEntity
  8
0
  6
CONTINUOUS
 62
     2
100
AcDbLine
 10
-2.0
 20
-1.2
 30
0.0
 11
-1.0
 21
-1.2
 31
0.0
  0
LINE
  5
44
100
AcDbEntity
  8
0
  6
CONTINUOUS
 62
     7
100
AcDbLine
 10
-2.0
 20
-1.5
 30
0.0
 11
0.0
 21
-1.5
 31
0.0
  0
LINE
  5
45
100
AcDbEntity
  8
0
  6
CONTINUOUS
 62
     2
100
AcDbLine
 10
-2.0
 20
1.2
 30
0.0
 11
-1.0
 21
1.2
 31
0.0
  0
LINE
  5
46
100
AcDbEntity
  8
0
  6
CONTINUOUS
 62
     7
100
AcDbLine
 10
-2.0
 20
1.5
 30
0.0
 11
0.0
 21
1.5
 31
0.0
  0
LINE
  5
48
100
AcDbEntity
  8
0
  6
CENTER
 62
     2
100
AcDbLine
 10
1.6
 20
7.5
 30
0.0
 11
8.4
 21
7.5
 31
0.0
  0
CIRCLE
  5
49
100
AcDbEntity
  8
0
  6
CONTINUOUS
 62
     7
100
AcDbCircle
 10
5.0
 20
7.5
 30
0.0
 40
1.35
  0
LINE
  5
4A
100
AcDbEntity
  8
0
  6
CENTER
 62
     2
100
AcDbLine
 10
5.0
 20
10.9
 30
0.0
 11
5.0
 21
4.1
 31
0.0
  0
LINE
  5
4B
100
AcDbEntity
  8
0
  6
CONTINUOUS
 62
     7
100
AcDbLine
 10
0.0
 20
10.5
 30
0.0
 11
22.5
 21
10.5
 31
0.0
  0
LINE
  5
4C
100
AcDbEntity
  8
0
  6
CONTINUOUS
 62
     2
100
AcDbLine
 10
-1.0
 20
1.2
 30
0.0
 11
-0.480385
 21
1.5
 31
0.0
  0
LINE
  5
4D
100
AcDbEntity
  8
0
  6
CONTINUOUS
 62
     2
100
AcDbLine
 10
-8.0
 20
1.2
 30
0.0
 11
-5.6
 21
1.2
 31
0.0
  0
LINE
  5
4E
100
AcDbEntity
  8
0
  6
CONTINUOUS
 62
     7
100
AcDbLine
 10
-7.7
 20
1.5
 30
0.0
 11
-8.0
 21
1.2
 31
0.0
  0
LINE
  5
4F
100
AcDbEntity
  8
0
  6
CONTINUOUS
 62
     7
100
AcDbLine
 10
-7.7
 20
1.5
 30
0.0
 11
-5.6
 21
1.5
 31
0.0
  0
LINE
  5
50
100
AcDbEntity
  8
0
  6
CONTINUOUS
 62
     2
100
AcDbLine
 10
-8.0
 20
-1.2
 30
0.0
 11
-5.6
 21
-1.2
 31
0.0
  0
LINE
  5
51
100
AcDbEntity
  8
0
  6
CONTINUOUS
 62
     7
100
AcDbLine
 10
-7.7
 20
-1.5
 30
0.0
 11
-8.0
 21
-1.2
 31
0.0
  0
LINE
  5
52
100
AcDbEntity
  8
0
  6
CONTINUOUS
 62
     2
100
AcDbLine
 10
-1.0
 20
-1.2
 30
0.0
 11
-0.480385
 21
-1.5
 31
0.0
  0
LINE
  5
53
100
AcDbEntity
  8
0
  6
CONTINUOUS
 62
     7
100
AcDbLine
 10
-7.7
 20
1.5
 30
0.0
 11
-7.7
 21
-1.5
 31
0.0
  0
LINE
  5
54
100
AcDbEntity
  8
0
  6
CONTINUOUS
 62
     7
100
AcDbLine
 10
-1.0
 20
1.5
 30
0.0
 11
-1.0
 21
-1.5
 31
0.0
  0
LINE
  5
55
100
AcDbEntity
  8
0
  6
CONTINUOUS
 62
     7
100
AcDbLine
 10
-8.0
 20
1.2
 30
0.0
 11
-8.0
 21
-1.2
 31
0.0
  0
CIRCLE
  5
56
100
AcDbEntity
  8
0
  6
CONTINUOUS
 62
     7
100
AcDbCircle
 10
5.0
 20
-7.5
 30
0.0
 40
1.35
  0
LINE
  5
57
100
AcDbEntity
  8
0
  6
CENTER
 62
     2
100
AcDbLine
 10
5.0
 20
-10.9
 30
0.0
 11
5.0
 21
-4.1
 31
0.0
  0
LINE
  5
58
100
AcDbEntity
  8
0
  6
CENTER
 62
     2
100
AcDbLine
 10
1.6
 20
-7.5
 30
0.0
 11
8.4
 21
-7.5
 31
0.0
  0
LINE
  5
59
100
AcDbEntity
  8
0
  6
CONTINUOUS
 62
     7
100
AcDbLine
 10
22.5
 20
-10.5
 30
0.0
 11
22.5
 21
10.5
 31
0.0
  0
LINE
  5
5A
100
AcDbEntity
  8
0
  6
CONTINUOUS
 62
     7
100
AcDbLine
 10
-7.7
 20
-1.5
 30
0.0
 11
-5.6
 21
-1.5
 31
0.0
  0
LINE
  5
5B
100
AcDbEntity
  8
0
  6
CONTINUOUS
 62
     7
100
AcDbLine
 10
0.0
 20
-10.5
 30
0.0
 11
0.0
 21
10.5
 31
0.0
  0
LINE
  5
5C
100
AcDbEntity
  8
0
  6
CONTINUOUS
 62
     7
100
AcDbLine
 10
0.0
 20
-10.5
 30
0.0
 11
22.5
 21
-10.5
 31
0.0
  0
LINE
  5
5D
100
AcDbEntity
  8
0
  6
CENTER
 62
     2
100
AcDbLine
 10
-9.096987
 20
0.0
 30
0.0
 11
23.640571
 21
0.0
 31
0.0
  0
LINE
  5
5F
100
AcDbEntity
  8
0
  6
PHANTOM
 62
     3
100
AcDbLine
 10
14.029302
 20
-32.997191
 30
0.0
 11
14.029302
 21
17.266593
 31
0.0
  0
ENDBLK
  5
60
100
AcDbEntity
  8
0
100
AcDbBlockEnd
  0
BLOCK
  5
61
100
AcDbEntity
  8
0
100
AcDbBlockBegin
  2
MS_2
 70
     0
 10
0.0
 20
0.0
 30
0.0
  3
MS_2
  1

  0
LINE
  5
62
100
AcDbEntity
  8
0
  6
CONTINUOUS
 62
     7
100
AcDbLine
 10
0.0
 20
-10.1
 30
0.0
 11
0.0
 21
10.1
 31
0.0
  0
ARC
  5
63
100
AcDbEntity
  8
0
  6
CONTINUOUS
 62
     7
100
AcDbCircle
 10
0.4
 20
-10.1
 30
0.0
 40
0.4
100
AcDbArc
 50
180.0
 51
270.0
  0
ARC
  5
64
100
AcDbEntity
  8
0
  6
CONTINUOUS
 62
     7
100
AcDbCircle
 10
9.6
 20
-10.1
 30
0.0
 40
0.4
100
AcDbArc
 50
270.0
 51
0.0
  0
ARC
  5
65
100
AcDbEntity
  8
0
  6
CONTINUOUS
 62
     7
100
AcDbCircle
 10
9.6
 20
10.1
 30
0.0
 40
0.4
100
AcDbArc
 50
0.0
 51
90.0
  0
ARC
  5
66
100
AcDbEntity
  8
0
  6
CONTINUOUS
 62
     7
100
AcDbCircle
 10
0.4
 20
10.1
 30
0.0
 40
0.4
100
AcDbArc
 50
90.0
 51
180.0
  0
CIRCLE
  5
67
100
AcDbEntity
  8
0
  6
CONTINUOUS
 62
     7
100
AcDbCircle
 10
5.0
 20
-7.5
 30
0.0
 40
1.1
  0
CIRCLE
  5
68
100
AcDbEntity
  8
0
  6
CONTINUOUS
 62
     2
100
AcDbCircle
 10
5.0
 20
-7.5
 30
0.0
 40
1.5
  0
LINE
  5
69
100
AcDbEntity
  8
0
  6
CENTER
 62
     2
100
AcDbLine
 10
2.5
 20
-7.5
 30
0.0
 11
7.5
 21
-7.5
 31
0.0
  0
CIRCLE
  5
6A
100
AcDbEntity
  8
0
  6
CONTINUOUS
 62
     7
100
AcDbCircle
 10
5.0
 20
7.5
 30
0.0
 40
1.1
  0
CIRCLE
  5
6B
100
AcDbEntity
  8
0
  6
CONTINUOUS
 62
     2
100
AcDbCircle
 10
5.0
 20
7.5
 30
0.0
 40
1.5
  0
LINE
  5
6C
100
AcDbEntity
  8
0
  6
CENTER
 62
     2
100
AcDbLine
 10
2.5
 20
7.5
 30
0.0
 11
7.5
 21
7.5
 31
0.0
  0
LINE
  5
6D
100
AcDbEntity
  8
0
  6
CONTINUOUS
 62
     7
100
AcDbLine
 10
7.75
 20
-1.587713
 30
0.0
 11
5.0
 21
-3.175427
 31
0.0
  0
LINE
  5
6E
100
AcDbEntity
  8
0
  6
CONTINUOUS
 62
     7
100
AcDbLine
 10
5.0
 20
3.175427
 30
0.0
 11
7.75
 21
1.587713
 31
0.0
  0
LINE
  5
6F
100
AcDbEntity
  8
0
  6
CONTINUOUS
 62
     7
100
AcDbLine
 10
7.75
 20
1.587713
 30
0.0
 11
7.75
 21
-1.587713
 31
0.0
  0
LINE
  5
70
100
AcDbEntity
  8
0
  6
CONTINUOUS
 62
     7
100
AcDbLine
 10
2.25
 20
1.587713
 30
0.0
 11
5.0
 21
3.175427
 31
0.0
  0
LINE
  5
71
100
AcDbEntity
  8
0
  6
CONTINUOUS
 62
     7
100
AcDbLine
 10
5.0
 20
-3.175427
 30
0.0
 11
2.25
 21
-1.587713
 31
0.0
  0
LINE
  5
72
100
AcDbEntity
  8
0
  6
CONTINUOUS
 62
     7
100
AcDbLine
 10
2.25
 20
-1.587713
 30
0.0
 11
2.25
 21
1.587713
 31
0.0
  0
CIRCLE
  5
73
100
AcDbEntity
  8
0
  6
CONTINUOUS
 62
     7
100
AcDbCircle
 10
5.0
 20
0.0
 30
0.0
 40
2.75
  0
LINE
  5
74
100
AcDbEntity
  8
0
  6
CONTINUOUS
 62
     7
100
AcDbLine
 10
0.4
 20
-10.5
 30
0.0
 11
9.6
 21
-10.5
 31
0.0
  0
LINE
  5
75
100
AcDbEntity
  8
0
  6
CENTER
 62
     2
100
AcDbLine
 10
5.0
 20
-11.28048
 30
0.0
 11
5.0
 21
11.20177
 31
0.0
  0
LINE
  5
76
100
AcDbEntity
  8
0
  6
CENTER
 62
     2
100
AcDbLine
 10
-1.017519
 20
0.0
 30
0.0
 11
11.107275
 21
0.0
 31
0.0
  0
LINE
  5
77
100
AcDbEntity
  8
0
  6
CONTINUOUS
 62
     7
100
AcDbLine
 10
0.4
 20
10.5
 30
0.0
 11
9.6
 21
10.5
 31
0.0
  0
LINE
  5
78
100
AcDbEntity
  8
0
  6
CONTINUOUS
 62
     7
100
AcDbLine
 10
10.0
 20
-10.1
 30
0.0
 11
10.0
 21
10.1
 31
0.0
  0
CIRCLE
  5
79
100
AcDbEntity
  8
0
  6
CONTINUOUS
 62
     7
100
AcDbCircle
 10
5.0
 20
0.0
 30
0.0
 40
4.35
  0
CIRCLE
  5
7A
100
AcDbEntity
  8
0
  6
CONTINUOUS
 62
     7
100
AcDbCircle
 10
5.0
 20
0.0
 30
0.0
 40
4.15
  0
CIRCLE
  5
7B
100
AcDbEntity
  8
0
  6
CONTINUOUS
 62
     7
100
AcDbCircle
 10
5.0
 20
0.0
 30
0.0
 40
1.5
  0
CIRCLE
  5
7C
100
AcDbEntity
  8
0
  6
CONTINUOUS
 62
     2
100
AcDbCircle
 10
5.0
 20
0.0
 30
0.0
 40
1.2
  0
ENDBLK
  5
7D
100
AcDbEntity
  8
0
100
AcDbBlockEnd
  0
BLOCK
  5
7E
100
AcDbEntity
  8
0
100
AcDbBlockBegin
  2
MS_3
 70
     0
 10
0.0
 20
0.0
 30
0.0
  3
MS_3
  1

  0
SPLINE
  5
7F
100
AcDbEntity
  8
0
  6
CONTINUOUS
 62
     7
100
AcDbSpline
210
0.0
220
0.0
230
1.0
 70
     8
 71
     3
 72
    11
 73
     7
 74
     5
 42
0.0000001
 43
0.0000001
 44
0.000001
 12
0.3364389337625613
 22
0.9417052850274924
 32
0.0
 13
-0.3364389335092214
 23
0.941705285118002
 33
0.0
 40
0.0
 40
0.0
 40
0.0
 40
0.0
 40
0.7002580873188259
 40
1.401875446833952
 40
2.103492815739585
 40
2.803750912448023
 40
2.803750912448023
 40
2.803750912448023
 40
2.803750912448023
 10
-2.245620120172716
 20
2.250000018878011
 30
0.0
 10
-2.167088758753997
 20
2.469812266115138
 30
0.0
 10
-2.044432109860099
 20
2.923163422113876
 30
0.0
 10
-1.977762404680381
 20
3.625000003077487
 30
0.0
 10
-2.044432107801047
 20
4.326836587507854
 30
0.0
 10
-2.167088757760122
 20
4.78018774979433
 30
0.0
 10
-2.245620120172716
 20
5.0
 30
0.0
 11
-2.245620120172716
 21
2.250000018878011
 31
0.0
 11
-2.064069268589764
 21
2.92631405624891
 31
0.0
 11
-2.0
 21
3.625
 31
0.0
 11
-2.064069267039858
 21
4.323685953323121
 31
0.0
 11
-2.245620120172716
 21
5.0
 31
0.0
  0
SPLINE
  5
80
100
AcDbEntity
  8
0
  6
CONTINUOUS
 62
     7
100
AcDbSpline
210
0.0
220
0.0
230
-1.0
 70
     8
 71
     3
 72
    11
 73
     7
 74
     5
 42
0.0000001
 43
0.0000001
 44
0.000001
 12
-0.3364389337625614
 22
0.9417052850274924
 32
0.0
 13
0.3364389335092213
 23
0.941705285118002
 33
0.0
 40
0.0
 40
0.0
 40
0.0
 40
0.0
 40
0.700258087318826
 40
1.401875446833952
 40
2.103492815739585
 40
2.803750912448023
 40
2.803750912448023
 40
2.803750912448023
 40
2.803750912448023
 10
-3.55437987982728
 20
2.250000018878011
 30
0.0
 10
-3.632911241245999
 20
2.469812266115138
 30
0.0
 10
-3.755567890139898
 20
2.923163422113876
 30
0.0
 10
-3.822237595319613
 20
3.625000003077485
 30
0.0
 10
-3.75556789219895
 20
4.326836587507854
 30
0.0
 10
-3.632911242239874
 20
4.78018774979433
 30
0.0
 10
-3.55437987982728
 20
5.0
 30
0.0
 11
-3.55437987982728
 21
2.250000018878011
 31
0.0
 11
-3.735930731410233
 21
2.92631405624891
 31
0.0
 11
-3.799999999999996
 21
3.625
 31
0.0
 11
-3.735930732960138
 21
4.323685953323121
 31
0.0
 11
-3.55437987982728
 21
5.0
 31
0.0
  0
SPLINE
  5
81
100
AcDbEntity
  8
0
  6
CONTINUOUS
 62
     7
100
AcDbSpline
210
0.0
220
0.0
230
1.0
 70
     8
 71
     3
 72
    11
 73
     7
 74
     5
 42
0.0000001
 43
0.0000001
 44
0.000001
 12
0.3364389337625613
 22
0.9417052850274924
 32
0.0
 13
-0.3364389335092214
 23
0.941705285118002
 33
0.0
 40
0.0
 40
0.0
 40
0.0
 40
0.0
 40
0.700258087318826
 40
1.401875446833952
 40
2.103492815739585
 40
2.803750912448023
 40
2.803750912448023
 40
2.803750912448023
 40
2.803750912448023
 10
-4.045620120172713
 20
2.250000018878011
 30
0.0
 10
-3.967088758753995
 20
2.469812266115138
 30
0.0
 10
-3.844432109860096
 20
2.923163422113876
 30
0.0
 10
-3.777762404680378
 20
3.625000003077487
 30
0.0
 10
-3.844432107801045
 20
4.326836587507854
 30
0.0
 10
-3.967088757760119
 20
4.78018774979433
 30
0.0
 10
-4.045620120172713
 20
5.0
 30
0.0
 11
-4.045620120172713
 21
2.250000018878011
 31
0.0
 11
-3.86406926858976
 21
2.92631405624891
 31
0.0
 11
-3.799999999999996
 21
3.625
 31
0.0
 11
-3.864069267039856
 21
4.323685953323121
 31
0.0
 11
-4.045620120172713
 21
5.0
 31
0.0
  0
SPLINE
  5
82
100
AcDbEntity
  8
0
  6
CONTINUOUS
 62
     7
100
AcDbSpline
210
0.0
220
0.0
230
-1.0
 70
     8
 71
     3
 72
    11
 73
     7
 74
     5
 42
0.0000001
 43
0.0000001
 44
0.000001
 12
-0.3364389337625614
 22
0.9417052850274924
 32
0.0
 13
0.3364389335092213
 23
0.941705285118002
 33
0.0
 40
0.0
 40
0.0
 40
0.0
 40
0.0
 40
0.7002580873188263
 40
1.401875446833952
 40
2.103492815739585
 40
2.803750912448023
 40
2.803750912448023
 40
2.803750912448023
 40
2.803750912448023
 10
-5.354379879827277
 20
2.250000018878011
 30
0.0
 10
-5.432911241245996
 20
2.469812266115138
 30
0.0
 10
-5.555567890139897
 20
2.923163422113876
 30
0.0
 10
-5.62223759531961
 20
3.625000003077485
 30
0.0
 10
-5.555567892198946
 20
4.326836587507854
 30
0.0
 10
-5.432911242239872
 20
4.78018774979433
 30
0.0
 10
-5.354379879827277
 20
5.0
 30
0.0
 11
-5.354379879827277
 21
2.250000018878011
 31
0.0
 11
-5.535930731410231
 21
2.92631405624891
 31
0.0
 11
-5.599999999999993
 21
3.625
 31
0.0
 11
-5.535930732960135
 21
4.323685953323121
 31
0.0
 11
-5.354379879827277
 21
5.0
 31
0.0
  0
SPLINE
  5
83
100
AcDbEntity
  8
0
  6
CONTINUOUS
 62
     7
100
AcDbSpline
210
0.0
220
0.0
230
1.0
 70
     8
 71
     3
 72
    11
 73
     7
 74
     5
 42
0.0000001
 43
0.0000001
 44
0.000001
 12
0.3364389337625613
 22
-0.9417052850274924
 32
0.0
 13
-0.3364389335092214
 23
-0.941705285118002
 33
0.0
 40
0.0
 40
0.0
 40
0.0
 40
0.0
 40
0.7002580873188247
 40
1.401875446833951
 40
2.103492815739584
 40
2.803750912448022
 40
2.803750912448022
 40
2.803750912448022
 40
2.803750912448022
 10
-4.045620120172713
 20
7.749999981121987
 30
0.0
 10
-3.967088758753995
 20
7.53018773388486
 30
0.0
 10
-3.844432109860096
 20
7.076836577886123
 30
0.0
 10
-3.777762404680377
 20
6.374999996922512
 30
0.0
 10
-3.844432107801045
 20
5.673163412492145
 30
0.0
 10
-3.967088757760119
 20
5.219812250205669
 30
0.0
 10
-4.045620120172713
 20
5.0
 30
0.0
 11
-4.045620120172713
 21
7.749999981121987
 31
0.0
 11
-3.86406926858976
 21
7.073685943751089
 31
0.0
 11
-3.799999999999996
 21
6.375
 31
0.0
 11
-3.864069267039856
 21
5.676314046676878
 31
0.0
 11
-4.045620120172713
 21
5.0
 31
0.0
  0
SPLINE
  5
84
100
AcDbEntity
  8
0
  6
CONTINUOUS
 62
     7
100
AcDbSpline
210
0.0
220
0.0
230
-1.0
 70
     8
 71
     3
 72
    11
 73
     7
 74
     5
 42
0.0000001
 43
0.0000001
 44
0.000001
 12
-0.3364389337625614
 22
-0.9417052850274924
 32
0.0
 13
0.3364389335092213
 23
-0.941705285118002
 33
0.0
 40
0.0
 40
0.0
 40
0.0
 40
0.0
 40
0.7002580873188249
 40
1.401875446833951
 40
2.103492815739584
 40
2.803750912448022
 40
2.803750912448022
 40
2.803750912448022
 40
2.803750912448022
 10
-5.354379879827277
 20
7.749999981121987
 30
0.0
 10
-5.432911241245996
 20
7.53018773388486
 30
0.0
 10
-5.555567890139898
 20
7.076836577886123
 30
0.0
 10
-5.622237595319612
 20
6.374999996922515
 30
0.0
 10
-5.555567892198946
 20
5.673163412492145
 30
0.0
 10
-5.432911242239872
 20
5.219812250205669
 30
0.0
 10
-5.354379879827277
 20
5.0
 30
0.0
 11
-5.354379879827277
 21
7.749999981121987
 31
0.0
 11
-5.535930731410231
 21
7.073685943751089
 31
0.0
 11
-5.599999999999993
 21
6.375
 31
0.0
 11
-5.535930732960135
 21
5.676314046676878
 31
0.0
 11
-5.354379879827277
 21
5.0
 31
0.0
  0
SPLINE
  5
85
100
AcDbEntity
  8
0
  6
CONTINUOUS
 62
     7
100
AcDbSpline
210
0.0
220
0.0
230
1.0
 70
     8
 71
     3
 72
    11
 73
     7
 74
     5
 42
0.0000001
 43
0.0000001
 44
0.000001
 12
0.3364389337625613
 22
-0.9417052850274924
 32
0.0
 13
-0.3364389335092214
 23
-0.941705285118002
 33
0.0
 40
0.0
 40
0.0
 40
0.0
 40
0.0
 40
0.7002580873188246
 40
1.401875446833951
 40
2.103492815739584
 40
2.803750912448022
 40
2.803750912448022
 40
2.803750912448022
 40
2.803750912448022
 10
-2.245620120172716
 20
7.749999981121987
 30
0.0
 10
-2.167088758753997
 20
7.53018773388486
 30
0.0
 10
-2.044432109860099
 20
7.076836577886121
 30
0.0
 10
-1.977762404680381
 20
6.374999996922515
 30
0.0
 10
-2.044432107801047
 20
5.673163412492145
 30
0.0
 10
-2.167088757760122
 20
5.219812250205669
 30
0.0
 10
-2.245620120172716
 20
5.0
 30
0.0
 11
-2.245620120172716
 21
7.749999981121987
 31
0.0
 11
-2.064069268589764
 21
7.073685943751089
 31
0.0
 11
-2.0
 21
6.375
 31
0.0
 11
-2.064069267039858
 21
5.676314046676878
 31
0.0
 11
-2.245620120172716
 21
5.0
 31
0.0
  0
SPLINE
  5
86
100
AcDbEntity
  8
0
  6
CONTINUOUS
 62
     7
100
AcDbSpline
210
0.0
220
0.0
230
-1.0
 70
     8
 71
     3
 72
    11
 73
     7
 74
     5
 42
0.0000001
 43
0.0000001
 44
0.000001
 12
-0.3364389337625614
 22
-0.9417052850274924
 32
0.0
 13
0.3364389335092213
 23
-0.941705285118002
 33
0.0
 40
0.0
 40
0.0
 40
0.0
 40
0.0
 40
0.7002580873188247
 40
1.401875446833951
 40
2.103492815739584
 40
2.803750912448022
 40
2.803750912448022
 40
2.803750912448022
 40
2.803750912448022
 10
-3.55437987982728
 20
7.749999981121987
 30
0.0
 10
-3.632911241245999
 20
7.53018773388486
 30
0.0
 10
-3.755567890139898
 20
7.076836577886123
 30
0.0
 10
-3.822237595319616
 20
6.374999996922515
 30
0.0
 10
-3.755567892198949
 20
5.673163412492146
 30
0.0
 10
-3.632911242239874
 20
5.219812250205669
 30
0.0
 10
-3.55437987982728
 20
5.0
 30
0.0
 11
-3.55437987982728
 21
7.749999981121987
 31
0.0
 11
-3.735930731410233
 21
7.073685943751089
 31
0.0
 11
-3.799999999999996
 21
6.375
 31
0.0
 11
-3.735930732960138
 21
5.676314046676878
 31
0.0
 11
-3.55437987982728
 21
5.0
 31
0.0
  0
INSERT
  5
8E
100
AcDbEntity
  8
0
  6
CONTINUOUS
 62
     7
100
AcDbBlockReference
  2
*X3
 10
0.0
 20
0.0
 30
0.0
  0
LINE
  5
8F
100
AcDbEntity
  8
0
  6
CONTINUOUS
 62
     7
100
AcDbLine
 10
22.5
 20
10.0
 30
0.0
 11
22.5
 21
0.0
 31
0.0
  0
LINE
  5
90
100
AcDbEntity
  8
0
  6
CONTINUOUS
 62
     7
100
AcDbLine
 10
-4.04562
 20
5.0
 30
0.0
 11
-5.35438
 21
5.0
 31
0.0
  0
LINE
  5
91
100
AcDbEntity
  8
0
  6
CONTINUOUS
 62
     7
100
AcDbLine
 10
-3.8
 20
2.25
 30
0.0
 11
-5.6
 21
2.25
 31
0.0
  0
LINE
  5
92
100
AcDbEntity
  8
0
  6
CONTINUOUS
 62
     7
100
AcDbLine
 10
-3.8
 20
2.25
 30
0.0
 11
-2.0
 21
2.25
 31
0.0
  0
LINE
  5
93
100
AcDbEntity
  8
0
  6
CONTINUOUS
 62
     7
100
AcDbLine
 10
-3.55438
 20
5.0
 30
0.0
 11
-2.24562
 21
5.0
 31
0.0
  0
LINE
  5
94
100
AcDbEntity
  8
0
  6
CONTINUOUS
 62
     7
100
AcDbLine
 10
-3.8
 20
7.75
 30
0.0
 11
-2.0
 21
7.75
 31
0.0
  0
LINE
  5
95
100
AcDbEntity
  8
0
  6
CONTINUOUS
 62
     7
100
AcDbLine
 10
-3.8
 20
7.75
 30
0.0
 11
-5.6
 21
7.75
 31
0.0
  0
LINE
  5
96
100
AcDbEntity
  8
0
  6
CONTINUOUS
 62
     7
100
AcDbLine
 10
-3.8
 20
2.25
 30
0.0
 11
-3.8
 21
7.75
 31
0.0
  0
LINE
  5
97
100
AcDbEntity
  8
0
  6
CONTINUOUS
 62
     7
100
AcDbLine
 10
-5.6
 20
2.25
 30
0.0
 11
-5.6
 21
7.75
 31
0.0
  0
LINE
  5
98
100
AcDbEntity
  8
0
  6
CONTINUOUS
 62
     7
100
AcDbLine
 10
-2.0
 20
2.25
 30
0.0
 11
-2.0
 21
7.75
 31
0.0
  0
LINE
  5
99
100
AcDbEntity
  8
0
  6
CONTINUOUS
 62
     7
100
AcDbLine
 10
-2.0
 20
3.5
 30
0.0
 11
0.0
 21
3.5
 31
0.0
  0
LINE
  5
9A
100
AcDbEntity
  8
0
  6
CONTINUOUS
 62
     2
100
AcDbLine
 10
-2.0
 20
3.8
 30
0.0
 11
-1.0
 21
3.8
 31
0.0
  0
LINE
  5
9B
100
AcDbEntity
  8
0
  6
CONTINUOUS
 62
     2
100
AcDbLine
 10
-2.0
 20
6.2
 30
0.0
 11
-1.0
 21
6.2
 31
0.0
  0
LINE
  5
9C
100
AcDbEntity
  8
0
  6
CONTINUOUS
 62
     7
100
AcDbLine
 10
-2.0
 20
6.5
 30
0.0
 11
0.0
 21
6.5
 31
0.0
  0
LINE
  5
9D
100
AcDbEntity
  8
0
  6
CONTINUOUS
 62
     7
100
AcDbLine
 10
0.0
 20
10.0
 30
0.0
 11
22.5
 21
10.0
 31
0.0
  0
CIRCLE
  5
9E
100
AcDbEntity
  8
0
  6
CONTINUOUS
 62
     7
100
AcDbCircle
 10
19.5
 20
5.0
 30
0.0
 40
1.2
  0
CIRCLE
  5
9F
100
AcDbEntity
  8
0
  6
CONTINUOUS
 62
     2
100
AcDbCircle
 10
19.5
 20
5.0
 30
0.0
 40
1.5
  0
LINE
  5
A0
100
AcDbEntity
  8
0
  6
CENTER
 62
     2
100
AcDbLine
 10
19.5
 20
6.954778
 30
0.0
 11
19.5
 21
3.023904
 31
0.0
  0
CIRCLE
  5
A1
100
AcDbEntity
  8
0
  6
CONTINUOUS
 62
     7
100
AcDbCircle
 10
10.0
 20
5.0
 30
0.0
 40
1.2
  0
CIRCLE
  5
A2
100
AcDbEntity
  8
0
  6
CONTINUOUS
 62
     2
100
AcDbCircle
 10
10.0
 20
5.0
 30
0.0
 40
1.5
  0
LINE
  5
A3
100
AcDbEntity
  8
0
  6
CENTER
 62
     2
100
AcDbLine
 10
10.0
 20
6.954778
 30
0.0
 11
10.0
 21
2.835065
 31
0.0
  0
LINE
  5
A4
100
AcDbEntity
  8
0
  6
CONTINUOUS
 62
     7
100
AcDbLine
 10
-7.7
 20
3.5
 30
0.0
 11
-5.6
 21
3.5
 31
0.0
  0
LINE
  5
A5
100
AcDbEntity
  8
0
  6
CONTINUOUS
 62
     7
100
AcDbLine
 10
0.0
 20
0.0
 30
0.0
 11
22.5
 21
0.0
 31
0.0
  0
LINE
  5
A6
100
AcDbEntity
  8
0
  6
CONTINUOUS
 62
     7
100
AcDbLine
 10
-7.7
 20
3.5
 30
0.0
 11
-8.0
 21
3.8
 31
0.0
  0
LINE
  5
A7
100
AcDbEntity
  8
0
  6
CONTINUOUS
 62
     2
100
AcDbLine
 10
-1.0
 20
3.8
 30
0.0
 11
-0.480385
 21
3.5
 31
0.0
  0
LINE
  5
A8
100
AcDbEntity
  8
0
  6
CONTINUOUS
 62
     2
100
AcDbLine
 10
-8.0
 20
3.8
 30
0.0
 11
-5.6
 21
3.8
 31
0.0
  0
LINE
  5
A9
100
AcDbEntity
  8
0
  6
CONTINUOUS
 62
     2
100
AcDbLine
 10
-8.0
 20
6.2
 30
0.0
 11
-5.6
 21
6.2
 31
0.0
  0
LINE
  5
AA
100
AcDbEntity
  8
0
  6
CONTINUOUS
 62
     7
100
AcDbLine
 10
-7.7
 20
6.5
 30
0.0
 11
-8.0
 21
6.2
 31
0.0
  0
LINE
  5
AB
100
AcDbEntity
  8
0
  6
CONTINUOUS
 62
     2
100
AcDbLine
 10
-1.0
 20
6.2
 30
0.0
 11
-0.480385
 21
6.5
 31
0.0
  0
LINE
  5
AC
100
AcDbEntity
  8
0
  6
CONTINUOUS
 62
     7
100
AcDbLine
 10
-7.7
 20
3.5
 30
0.0
 11
-7.7
 21
6.5
 31
0.0
  0
LINE
  5
AD
100
AcDbEntity
  8
0
  6
CONTINUOUS
 62
     7
100
AcDbLine
 10
-1.0
 20
3.5
 30
0.0
 11
-1.0
 21
6.5
 31
0.0
  0
LINE
  5
AE
100
AcDbEntity
  8
0
  6
CONTINUOUS
 62
     7
100
AcDbLine
 10
-8.0
 20
3.8
 30
0.0
 11
-8.0
 21
6.2
 31
0.0
  0
LINE
  5
AF
100
AcDbEntity
  8
0
  6
CONTINUOUS
 62
     7
100
AcDbLine
 10
-7.7
 20
6.5
 30
0.0
 11
-5.6
 21
6.5
 31
0.0
  0
LINE
  5
B0
100
AcDbEntity
  8
0
  6
CONTINUOUS
 62
     7
100
AcDbLine
 10
0.0
 20
10.0
 30
0.0
 11
0.0
 21
0.0
 31
0.0
  0
LINE
  5
B1
100
AcDbEntity
  8
0
  6
CENTER
 62
     2
100
AcDbLine
 10
-9.194907
 20
5.0
 30
0.0
 11
24.355882
 21
5.0
 31
0.0
  0
LINE
  5
B2
100
AcDbEntity
  8
0
  6
CENTER
 62
     2
100
AcDbLine
 10
5.0
 20
-1.5
 30
0.0
 11
5.0
 21
1.5
 31
0.0
  0
LINE
  5
B3
100
AcDbEntity
  8
0
  6
PHANTOM
 62
     3
100
AcDbLine
 10
14.029302
 20
-6.617623
 30
0.0
 11
14.029302
 21
37.502809
 31
0.0
  0
ENDBLK
  5
B4
100
AcDbEntity
  8
0
100
AcDbBlockEnd
  0
BLOCK
  5
88
100
AcDbEntity
  8
0
  6
BYBLOCK
 62
     0
100
AcDbBlockBegin
  2
*X3
 70
     1
 10
0.0
 20
0.0
 30
0.0
  3
*X3
  1

  0
LINE
  5
89
100
AcDbEntity
  8
0
  6
BYBLOCK
 62
     0
100
AcDbLine
 10
9.546036
 20
3.889182
 30
0.0
 11
11.110818
 21
5.453964
 31
0.0
  0
LINE
  5
8A
100
AcDbEntity
  8
0
  6
BYBLOCK
 62
     0
100
AcDbLine
 10
8.861977
 20
4.619337
 30
0.0
 11
10.380663
 21
6.138023
 31
0.0
  0
LINE
  5
8B
100
AcDbEntity
  8
0
  6
BYBLOCK
 62
     0
100
AcDbLine
 10
10.3032
 20
3.838936
 30
0.0
 11
8.838936
 21
5.3032
 31
0.0
  0
LINE
  5
8C
100
AcDbEntity
  8
0
  6
BYBLOCK
 62
     0
100
AcDbLine
 10
11.07981
 20
4.476539
 30
0.0
 11
9.476539
 21
6.07981
 31
0.0
  0
ENDBLK
  5
8D
100
AcDbEntity
  8
0
  6
BYBLOCK
 62
     0
100
AcDbBlockEnd
  0
ENDSEC
  0
SECTION
  2
ENTITIES
  0
INSERT
  5
B5
100
AcDbEntity
  8
0
100
AcDbBlockReference
  2
MS_3
 10
30.0
 20
-35.0
 30
0.0
  0
INSERT
  5
B6
100
AcDbEntity
  8
0
100
AcDbBlockReference
  2
MS_2
 10
-40.0
 20
35.5
 30
0.0
  0
INSERT
  5
B7
100
AcDbEntity
  8
0
100
AcDbBlockReference
  2
MS_1
 10
30.0
 20
35.5
 30
0.0
  0
MTEXT
  5
B8
100
AcDbEntity
  8
0
  6
CONTINUOUS
 62
     3
100
AcDbMText
 10
25.397349
 20
57.766593
 30
0.0
 40
3.2
 41
0.0
 71
     4
 72
     1
  1
\W1.065;\A1;STRETCH LINE
  0
LINE
  5
B9
100
AcDbEntity
  8
0
  6
CONTINUOUS
 62
     7
100
AcDbLine
 10
-133.399994
 20
-89.800003
 30
0.0
 11
-69.399994
 21
-89.800003
 31
0.0
  0
LINE
  5
BA
100
AcDbEntity
  8
0
  6
CONTINUOUS
 62
     7
100
AcDbLine
 10
-133.399994
 20
-77.800003
 30
0.0
 11
-133.399994
 21
-89.800003
 31
0.0
  0
LINE
  5
BB
100
AcDbEntity
  8
0
  6
CONTINUOUS
 62
     7
100
AcDbLine
 10
-133.399994
 20
-83.800003
 30
0.0
 11
-69.399994
 21
-83.800003
 31
0.0
  0
LINE
  5
BC
100
AcDbEntity
  8
0
  6
CONTINUOUS
 62
     7
100
AcDbLine
 10
-133.399994
 20
-77.800003
 30
0.0
 11
-69.399994
 21
-77.800003
 31
0.0
  0
MTEXT
  5
BD
100
AcDbEntity
  8
0
  6
CONTINUOUS
 62
     7
100
AcDbMText
 10
-129.666661
 20
-80.800003
 30
0.0
 40
3.2
 41
0.0
 71
     4
 72
     1
  1
\A1;STROKE
  0
MTEXT
  5
BE
100
AcDbEntity
  8
0
  6
CONTINUOUS
 62
     7
100
AcDbMText
 10
-131.266661
 20
-86.800003
 30
0.0
 40
3.2
 41
0.0
 71
     4
 72
     1
  1
\A1;STRETCH
  0
LINE
  5
BF
100
AcDbEntity
  8
0
  6
CONTINUOUS
 62
     7
100
AcDbLine
 10
-107.799994
 20
-77.800003
 30
0.0
 11
-107.799994
 21
-89.800003
 31
0.0
  0
LINE
  5
C0
100
AcDbEntity
  8
0
  6
CONTINUOUS
 62
     7
100
AcDbLine
 10
-98.199994
 20
-77.800003
 30
0.0
 11
-98.199994
 21
-89.800003
 31
0.0
  0
LINE
  5
C1
100
AcDbEntity
  8
0
  6
CONTINUOUS
 62
     7
100
AcDbLine
 10
-88.599994
 20
-77.800003
 30
0.0
 11
-88.599994
 21
-89.800003
 31
0.0
  0
LINE
  5
C2
100
AcDbEntity
  8
0
  6
CONTINUOUS
 62
     7
100
AcDbLine
 10
-78.999994
 20
-77.800003
 30
0.0
 11
-78.999994
 21
-89.800003
 31
0.0
  0
LINE
  5
C3
100
AcDbEntity
  8
0
  6
CONTINUOUS
 62
     7
100
AcDbLine
 10
-69.399994
 20
-77.800003
 30
0.0
 11
-69.399994
 21
-89.800003
 31
0.0
  0
MTEXT
  5
C4
100
AcDbEntity
  8
0
  6
CONTINUOUS
 62
     7
100
AcDbMText
 10
-104.066661
 20
-80.800003
 30
0.0
 40
3.2
 41
0.0
 71
     4
 72
     1
  1
\A1;4
  0
MTEXT
  5
C5
100
AcDbEntity
  8
0
  6
CONTINUOUS
 62
     7
100
AcDbMText
 10
-94.466661
 20
-80.800003
 30
0.0
 40
3.2
 41
0.0
 71
     4
 72
     1
  1
\A1;6
  0
MTEXT
  5
C6
100
AcDbEntity
  8
0
  6
CONTINUOUS
 62
     7
100
AcDbMText
 10
-84.866661
 20
-80.800003
 30
0.0
 40
3.2
 41
0.0
 71
     4
 72
     1
  1
\A1;8
  0
MTEXT
  5
C7
100
AcDbEntity
  8
0
  6
CONTINUOUS
 62
     7
100
AcDbMText
 10
-76.688883
 20
-80.800003
 30
0.0
 40
3.2
 41
0.0
 71
     4
 72
     1
  1
\W1.333;\A1;10
  0
MTEXT
  5
C8
100
AcDbEntity
  8
0
  6
CONTINUOUS
 62
     7
100
AcDbMText
 10
-75.266661
 20
-86.800003
 30
0.0
 40
3.2
 41
0.0
 71
     4
 72
     1
  1
\A1;6
  0
MTEXT
  5
C9
100
AcDbEntity
  8
0
  6
CONTINUOUS
 62
     7
100
AcDbMText
 10
-84.866661
 20
-86.800003
 30
0.0
 40
3.2
 41
0.0
 71
     4
 72
     1
  1
\A1;4
  0
MTEXT
  5
CA
100
AcDbEntity
  8
0
  6
CONTINUOUS
 62
     7
100
AcDbMText
 10
-94.466661
 20
-86.800003
 30
0.0
 40
3.2
 41
0.0
 71
     4
 72
     1
  1
\A1;2
  0
MTEXT
  5
CB
100
AcDbEntity
  8
0
  6
CONTINUOUS
 62
     7
100
AcDbMText
 10
-103.959994
 20
-86.800003
 30
0.0
 40
3.2
 41
0.0
 71
     4
 72
     1
  1
\W1.200;\A1;0
  0
MTEXT
  5
CC
100
AcDbEntity
  8
0
  6
CONTINUOUS
 62
     7
100
AcDbMText
 10
-120.031947
 20
-74.800003
 30
0.0
 40
3.2
 41
0.0
 71
     4
 72
     1
  1
\W1.065;\A1;STRETCH LIST
  0
MTEXT
  5
CD
100
AcDbEntity
  8
0
  6
CONTINUOUS
 62
     7
100
AcDbMText
 10
-78.423994
 20
-75.800003
 30
0.0
 40
3.2
 41
0.0
 71
     4
 72
     1
  1
\W1.200;\A1;(mm)
  0
MTEXT
  5
CE
100
AcDbEntity
  8
0
  6
CONTINUOUS
 62
     7
100
AcDbMText
 10
-130.901862
 20
91.1
 30
0.0
 40
3.2
 41
0.0
 71
     1
 72
     1
  1
\W1.121;\A1;MINIBIT CYLINDER
  0
MTEXT
  5
CF
100
AcDbEntity
  8
0
  6
CONTINUOUS
 62
     7
100
AcDbMText
 10
-129.42127
 20
74.5
 30
0.0
 40
3.2
 41
0.0
 71
     4
 72
     1
  1
\W1.085;\A1;MODEL:MBSA8*ST(4)
  0
LINE
  5
D0
100
AcDbEntity
  8
0
  6
CONTINUOUS
 62
     7
100
AcDbLine
 10
-138.399994
 20
94.5
 30
0.0
 11
138.350006
 21
94.5
 31
0.0
  0
LINE
  5
D1
100
AcDbEntity
  8
0
  6
CONTINUOUS
 62
     7
100
AcDbLine
 10
138.350006
 20
94.5
 30
0.0
 11
138.350006
 21
-94.800003
 31
0.0
  0
LINE
  5
D2
100
AcDbEntity
  8
0
  6
CONTINUOUS
 62
     7
100
AcDbLine
 10
-138.399994
 20
-94.800003
 30
0.0
 11
138.350006
 21
-94.800003
 31
0.0
  0
LINE
  5
D3
100
AcDbEntity
  8
0
  6
CONTINUOUS
 62
     7
100
AcDbLine
 10
-138.399994
 20
94.5
 30
0.0
 11
-138.399994
 21
-94.800003
 31
0.0
  0
LINE
  5
D4
100
AcDbEntity
  8
0
  6
CONTINUOUS
 62
     7
100
AcDbLine
 10
73.350006
 20
-84.800003
 30
0.0
 11
138.350006
 21
-84.800003
 31
0.0
  0
LINE
  5
D5
100
AcDbEntity
  8
0
  6
CONTINUOUS
 62
     7
100
AcDbLine
 10
-138.399994
 20
84.5
 30
0.0
 11
-73.399994
 21
84.5
 31
0.0
  0
LINE
  5
D6
100
AcDbEntity
  8
0
  6
CONTINUOUS
 62
     7
100
AcDbLine
 10
73.350006
 20
84.5
 30
0.0
 11
138.350006
 21
84.5
 31
0.0
  0
LINE
  5
D7
100
AcDbEntity
  8
0
  6
CONTINUOUS
 62
     7
100
AcDbLine
 10
73.350006
 20
-84.800003
 30
0.0
 11
73.350006
 21
-94.800003
 31
0.0
  0
LINE
  5
D8
100
AcDbEntity
  8
0
  6
CONTINUOUS
 62
     7
100
AcDbLine
 10
73.350006
 20
94.5
 30
0.0
 11
73.350006
 21
84.5
 31
0.0
  0
LINE
  5
D9
100
AcDbEntity
  8
0
  6
CONTINUOUS
 62
     7
100
AcDbLine
 10
-73.399994
 20
94.5
 30
0.0
 11
-73.399994
 21
84.5
 31
0.0
  0
MTEXT
  5
DA
100
AcDbEntity
  8
0
  6
CONTINUOUS
 62
     7
100
AcDbMText
 10
77.440529
 20
-89.800003
 30
0.0
 40
4.5
 41
0.0
 71
     4
 72
     1
  1
\W1.121;\A1;KOGANEI CORP.
  0
MTEXT
  5
DB
100
AcDbEntity
  8
0
  6
CONTINUOUS
 62
     7
100
AcDbMText
 10
93.74946
 20
89.5
 30
0.0
 40
3.2
 41
0.0
 71
     4
 72
     1
  1
\W1.311;\A1;Ver. 1.0
  0
ENDSEC
  0
SECTION
  2
OBJECTS
  0
DICTIONARY
  5
19
100
AcDbDictionary
  3
ACAD_GROUP
350
1A
  3
ACAD_MLINESTYLE
350
1B
  0
DICTIONARY
  5
1A
102
{ACAD_REACTORS
330
19
102
}
100
AcDbDictionary
  0
DICTIONARY
  5
1B
102
{ACAD_REACTORS
330
19
102
}
100
AcDbDictionary
  3
STANDARD
350
1C
  0
MLINESTYLE
  5
1C
102
{ACAD_REACTORS
330
1B
102
}
100
AcDbMlineStyle
  2
STANDARD
 70
     0
  3

 62
     0
 51
90.0
 52
90.0
 71
     2
 49
0.5
 62
   256
  6
BYLAYER
 49
-0.5
 62
   256
  6
BYLAYER
  0
ENDSEC
  0
EOF
