  0
SECTION
  2
HEADER
  9
$ACADVER
  1
AC1012
  9
$DWGCODEPAGE
  3
dos932
  9
$INSBASE
 10
0.0
 20
0.0
 30
0.0
  9
$EXTMIN
 10
-281.25
 20
-195.0
 30
0.0
  9
$EXTMAX
 10
285.59998798370361
 20
195.5
 30
0.0
  9
$LIMMIN
 10
-281.25
 20
-195.0
  9
$LIMMAX
 10
285.59998798370361
 20
195.5
  9
$ORTHOMODE
 70
               0
  9
$REGENMODE
 70
               1
  9
$FILLMODE
 70
               1
  9
$QTEXTMODE
 70
               0
  9
$MIRRTEXT
 70
               1
  9
$DRAGMODE
 70
               2
  9
$LTSCALE
 40
1.0
  9
$OSMODE
 70
               0
  9
$ATTMODE
 70
               1
  9
$TEXTSIZE
 40
3.2000000476837158
  9
$TRACEWID
 40
0.05
  9
$TEXTSTYLE
  7
MX_NOTE_STANDARD
  9
$CLAYER
  8
0
  9
$CELTYPE
  6
CONTINUOUS
  9
$CECOLOR
 62
             256
  9
$CELTSCALE
 40
1.0
  9
$DELOBJ
 70
               1
  9
$DISPSILH
 70
               0
  9
$DIMSCALE
 40
1.0
  9
$DIMASZ
 40
2.5
  9
$DIMEXO
 40
1.5
  9
$DIMDLI
 40
3.75
  9
$DIMRND
 40
0.0
  9
$DIMDLE
 40
0.0
  9
$DIMEXE
 40
1.5
  9
$DIMTP
 40
0.0
  9
$DIMTM
 40
0.0
  9
$DIMTXT
 40
3.2000000476837158
  9
$DIMCEN
 40
2.5
  9
$DIMTSZ
 40
0.0
  9
$DIMTOL
 70
               0
  9
$DIMLIM
 70
               0
  9
$DIMTIH
 70
               0
  9
$DIMTOH
 70
               0
  9
$DIMSE1
 70
               0
  9
$DIMSE2
 70
               0
  9
$DIMTAD
 70
               1
  9
$DIMZIN
 70
               8
  9
$DIMBLK
  1

  9
$DIMASO
 70
               1
  9
$DIMSHO
 70
               1
  9
$DIMPOST
  1

  9
$DIMAPOST
  1

  9
$DIMALT
 70
               0
  9
$DIMALTD
 70
               4
  9
$DIMALTF
 40
0.03937007874016
  9
$DIMLFAC
 40
1.0
  9
$DIMTOFL
 70
               1
  9
$DIMTVP
 40
0.0
  9
$DIMTIX
 70
               0
  9
$DIMSOXD
 70
               0
  9
$DIMSAH
 70
               0
  9
$DIMBLK1
  1

  9
$DIMBLK2
  1

  9
$DIMSTYLE
  2
MXDIMSTYLE
  9
$DIMCLRD
 70
               0
  9
$DIMCLRE
 70
               0
  9
$DIMCLRT
 70
               0
  9
$DIMTFAC
 40
1.0
  9
$DIMGAP
 40
1.0
  9
$DIMJUST
 70
               0
  9
$DIMSD1
 70
               0
  9
$DIMSD2
 70
               0
  9
$DIMTOLJ
 70
               1
  9
$DIMTZIN
 70
               0
  9
$DIMALTZ
 70
               0
  9
$DIMALTTZ
 70
               0
  9
$DIMFIT
 70
               3
  9
$DIMUPT
 70
               1
  9
$DIMUNIT
 70
               2
  9
$DIMDEC
 70
               4
  9
$DIMTDEC
 70
               4
  9
$DIMALTU
 70
               2
  9
$DIMALTTD
 70
               4
  9
$DIMTXSTY
  7
MX_NOTE_STANDARD
  9
$DIMAUNIT
 70
               0
  9
$LUNITS
 70
               2
  9
$LUPREC
 70
               4
  9
$SKETCHINC
 40
0.1
  9
$FILLETRAD
 40
0.0
  9
$AUNITS
 70
               0
  9
$AUPREC
 70
               0
  9
$MENU
  1
acad
  9
$ELEVATION
 40
0.0
  9
$PELEVATION
 40
0.0
  9
$THICKNESS
 40
0.0
  9
$LIMCHECK
 70
               0
  9
$BLIPMODE
 70
               1
  9
$CHAMFERA
 40
0.0
  9
$CHAMFERB
 40
0.0
  9
$CHAMFERC
 40
0.0
  9
$CHAMFERD
 40
0.0
  9
$SKPOLY
 70
               0
  9
$TDCREATE
 40
2453797.695000000
  9
$TDUPDATE
 40
2453797.695000000
  9
$TDINDWG
 40
0.0000000000
  9
$TDUSRTIMER
 40
0.0000000000
  9
$USRTIMER
 70
               1
  9
$ANGBASE
 50
0.0
  9
$ANGDIR
 70
               0
  9
$PDMODE
 70
               0
  9
$PDSIZE
 40
0.0
  9
$PLINEWID
 40
0.0
  9
$COORDS
 70
               1
  9
$SPLFRAME
 70
               0
  9
$SPLINETYPE
 70
               6
  9
$SPLINESEGS
 70
               8
  9
$ATTDIA
 70
               0
  9
$ATTREQ
 70
               1
  9
$HANDLING
 70
               1
  9
$HANDSEED
  5
200
  9
$SURFTAB1
 70
               6
  9
$SURFTAB2
 70
               6
  9
$SURFTYPE
 70
               6
  9
$SURFU
 70
               6
  9
$SURFV
 70
               6
  9
$UCSNAME
  2

  9
$UCSORG
 10
0.0
 20
0.0
 30
0.0
  9
$UCSXDIR
 10
1.0
 20
0.0
 30
0.0
  9
$UCSYDIR
 10
0.0
 20
1.0
 30
0.0
  9
$PUCSNAME
  2

  9
$PUCSORG
 10
0.0
 20
0.0
 30
0.0
  9
$PUCSXDIR
 10
1.0
 20
0.0
 30
0.0
  9
$PUCSYDIR
 10
0.0
 20
1.0
 30
0.0
  9
$USERI1
 70
               0
  9
$USERI2
 70
               0
  9
$USERI3
 70
               0
  9
$USERI4
 70
               0
  9
$USERI5
 70
               0
  9
$USERR1
 40
0.0
  9
$USERR2
 40
0.0
  9
$USERR3
 40
0.0
  9
$USERR4
 40
0.0
  9
$USERR5
 40
0.0
  9
$WORLDVIEW
 70
               1
  9
$SHADEDGE
 70
               3
  9
$SHADEDIF
 70
              70
  9
$TILEMODE
 70
               1
  9
$MAXACTVP
 70
              16
  9
$PINSBASE
 10
0.0
 20
0.0
 30
0.0
  9
$PLIMCHECK
 70
               0
  9
$PEXTMIN
 10
1.0000000000000000E+20
 20
1.0000000000000000E+20
 30
1.0000000000000000E+20
  9
$PEXTMAX
 10
-1.0000000000000000E+20
 20
-1.0000000000000000E+20
 30
-1.0000000000000000E+20
  9
$PLIMMIN
 10
0.0
 20
0.0
  9
$PLIMMAX
 10
12.0
 20
9.0
  9
$UNITMODE
 70
               0
  9
$VISRETAIN
 70
               0
  9
$PLINEGEN
 70
               1
  9
$PSLTSCALE
 70
               0
  9
$TREEDEPTH
 70
            3020
  9
$PICKSTYLE
 70
               1
  9
$CMLSTYLE
  2
Standard
  9
$CMLJUST
 70
               0
  9
$CMLSCALE
 40
1.0
  9
$SAVEIMAGES
 70
               0
  0
ENDSEC
  0
SECTION
  2
CLASSES
  0
CLASS
  1
LWPOLYLINE
  2
AcDbPolyline
  3
"AutoCAD"
 90
        0
280
               0
281
               1
  0
CLASS
  1
IMAGE
  2
AcDbRasterImage
  3
ISM
 90
      127
280
               0
281
               1
  0
CLASS
  1
OLE2FRAME
  2
AcDbOle2Frame
  3
""
 90
        0
280
               0
281
               1
  0
CLASS
  1
HATCH
  2
AcDbHatch
  3
"ACAD_SEDONA"
 90
        0
280
               0
281
               1
  0
CLASS
  1
DICTIONARYVAR
  2
AcDbDictionaryVar
  3
"AutoCAD"
 90
        0
280
               0
281
               0
  0
CLASS
  1
RASTERVARIABLES
  2
AcDbRasterVariables
  3
ISM
 90
        0
280
               0
281
               0
  0
CLASS
  1
IMAGEDEF
  2
AcDbRasterImageDef
  3
ISM
 90
        0
280
               0
281
               0
  0
CLASS
  1
IMAGEDEF_REACTOR
  2
AcDbRasterImageDefReactor
  3
ISM
 90
        1
280
               0
281
               0
  0
CLASS
  1
IDBUFFER
  2
AcDbIdBuffer
  3
"Acad"
 90
        0
280
               0
281
               0
  0
CLASS
  1
SPATIAL_FILTER
  2
AcDbSpatialFilter
  3
"Acad"
 90
        0
280
               0
281
               0
  0
CLASS
  1
XRECORD
  2
AcDbXrecord
  3
"<Built In>"
 90
        0
280
               0
281
               0
  0
CLASS
  1
SORTENTSTABLE
  2
AcDbSortentsTable
  3
"AutoCAD"
 90
        0
280
               0
281
               0
  0
CLASS
  1
LAYER_INDEX
  2
AcDbLayerIndex
  3
"Acad"
 90
        0
280
               0
281
               0
  0
CLASS
  1
SPATIAL_INDEX
  2
AcDbSpatialIndex
  3
"Acad"
 90
        0
280
               0
281
               0
  0
CLASS
  1
OBJECT_PTR
  2
CAseDLPNTableRecord
  3
"ASE-LPNTableRecord"
 90
        1
280
               0
281
               0
  0
CLASS
  1
LAYOUT
  2
AcDbLayout
  3
"AutoCAD 2000"
 90
        1
280
               0
281
               0
  0
CLASS
  1
PLOTSETTINGS
  2
AcDbPlotSettings
  3
"AutoCAD 2000"
 90
        1
280
               0
281
               0
  0
CLASS
  1
ACDBDICTIONARYWDFLT
  2
AcDbDictionaryWithDefault
  3
"AutoCAD 2000"
 90
        1
280
               0
281
               0
  0
CLASS
  1
ACDBPLACEHOLDER
  2
AcDbPlaceHolder
  3
"AutoCAD 2000"
 90
        1
280
               0
281
               0
  0
ENDSEC
  0
SECTION
  2
TABLES
  0
TABLE
  2
VPORT
  5
7
100
AcDbSymbolTable
 70
               1
  0
VPORT
  5
15
100
AcDbSymbolTableRecord
100
AcDbViewportTableRecord
  2
*ACTIVE
 70
               0
 10
0.0
 20
0.0
 11
1.0
 21
1.0
 12
2.1749939918518066
 22
0.25
 13
0.0
 23
0.0
 14
1.0
 24
1.0
 15
0.0
 25
0.0
 16
0.0
 26
0.0
 36
1.0
 17
0.0
 27
0.0
 37
0.0
 40
394.40500000000003
 41
1.7320508075688772
 42
50.0
 43
0.0
 44
0.0
 50
0.0
 51
0.0
 71
               0
 72
             100
 73
               1
 74
               1
 75
               0
 76
               0
 77
               0
 78
               0
  0
ENDTAB
  0
TABLE
  2
LTYPE
  5
4
100
AcDbSymbolTable
 70
               3
  0
LTYPE
  5
11
100
AcDbSymbolTableRecord
100
AcDbLinetypeTableRecord
  2
BYBLOCK
 70
              64
  3

 72
              65
 73
               0
 40
0.0
  0
LTYPE
  5
12
100
AcDbSymbolTableRecord
100
AcDbLinetypeTableRecord
  2
BYLAYER
 70
              64
  3

 72
              65
 73
               0
 40
0.0
  0
LTYPE
  5
13
100
AcDbSymbolTableRecord
100
AcDbLinetypeTableRecord
  2
CONTINUOUS
 70
              64
  3
Solid line
 72
              65
 73
               0
 40
0.0
  0
ENDTAB
  0
TABLE
  2
LAYER
  5
2
100
AcDbSymbolTable
 70
               2
  0
LAYER
  5
14
100
AcDbSymbolTableRecord
100
AcDbLayerTableRecord
  2
0
 70
               0
 62
               7
  6
CONTINUOUS
  0
LAYER
  5
1D
100
AcDbSymbolTableRecord
100
AcDbLayerTableRecord
  2
DEFPOINTS
 70
               0
 62
               7
  6
CONTINUOUS
  0
ENDTAB
  0
TABLE
  2
STYLE
  5
3
100
AcDbSymbolTable
 70
               1
  0
STYLE
  5
17
100
AcDbSymbolTableRecord
100
AcDbTextStyleTableRecord
  2
MX_NOTE_STANDARD
 70
               0
 40
0.0
 41
1.0
 50
0.0
 71
               0
 42
3.2000000476837158
  3
txt.shx
  4
extfont.shx
  0
ENDTAB
  0
TABLE
  2
VIEW
  5
5
100
AcDbSymbolTable
 70
               0
  0
ENDTAB
  0
TABLE
  2
UCS
  5
6
100
AcDbSymbolTable
 70
               0
  0
ENDTAB
  0
TABLE
  2
APPID
  5
8
100
AcDbSymbolTable
 70
               1
  0
APPID
  5
16
100
AcDbSymbolTableRecord
100
AcDbRegAppTableRecord
  2
ACAD
 70
               0
  0
ENDTAB
  0
TABLE
  2
DIMSTYLE
  5
9
100
AcDbSymbolTable
 70
               1
  0
DIMSTYLE
105
18
100
AcDbSymbolTableRecord
100
AcDbDimStyleTableRecord
  2
MXDIMSTYLE
 70
               0
  3

  4

  5

  6

  7

 40
1.0
 41
2.5
 42
1.5
 43
3.75
 44
1.5
 45
0.0
 46
0.0
 47
0.0
 48
0.0
 71
               0
 72
               0
 73
               0
 74
               0
 75
               0
 76
               0
 77
               1
 78
               8
140
3.2000000476837158
141
2.5
142
0.0
143
0.03937007874016
144
1.0
145
0.0
146
1.0
147
1.0
170
               0
171
               4
172
               1
173
               0
174
               0
175
               0
176
               0
177
               0
178
               0
270
               2
271
               4
272
               4
273
               2
274
               4
275
               0
280
               0
281
               0
282
               0
283
               1
284
               0
285
               0
286
               0
287
               3
288
               1
340
17
  0
ENDTAB
  0
TABLE
  2
BLOCK_RECORD
  5
1
100
AcDbSymbolTable
 70
               5
  0
BLOCK_RECORD
  5
A
100
AcDbSymbolTableRecord
100
AcDbBlockTableRecord
  2
*MODEL_SPACE
  0
BLOCK_RECORD
  5
B
100
AcDbSymbolTableRecord
100
AcDbBlockTableRecord
  2
*PAPER_SPACE
  0
BLOCK_RECORD
  5
1E
100
AcDbSymbolTableRecord
100
AcDbBlockTableRecord
  2
KFPV050-1
  0
BLOCK_RECORD
  5
1F
100
AcDbSymbolTableRecord
100
AcDbBlockTableRecord
  2
KFPV050-2
  0
BLOCK_RECORD
  5
20
100
AcDbSymbolTableRecord
100
AcDbBlockTableRecord
  2
KFPV050-3
  0
BLOCK_RECORD
  5
21
100
AcDbSymbolTableRecord
100
AcDbBlockTableRecord
  2
KFPV050-4
  0
BLOCK_RECORD
  5
22
100
AcDbSymbolTableRecord
100
AcDbBlockTableRecord
  2
KFPV050-5
  0
ENDTAB
  0
ENDSEC
  0
SECTION
  2
BLOCKS
  0
BLOCK
  5
D
100
AcDbEntity
  8
0
100
AcDbBlockBegin
  2
*MODEL_SPACE
 70
               0
 10
0.0
 20
0.0
 30
0.0
  3
*MODEL_SPACE
  1

  0
ENDBLK
  5
E
100
AcDbEntity
  8
0
100
AcDbBlockEnd
  0
BLOCK
  5
F
100
AcDbEntity
 67
               1
  8
0
100
AcDbBlockBegin
  2
*PAPER_SPACE
 70
               0
 10
0.0
 20
0.0
 30
0.0
  3
*PAPER_SPACE
  1

  0
ENDBLK
  5
10
100
AcDbEntity
 67
               1
  8
0
100
AcDbBlockEnd
  0
BLOCK
  5
23
100
AcDbEntity
  8
0
100
AcDbBlockBegin
  2
KFPV050-1
 70
               0
 10
0.0
 20
0.0
 30
0.0
  3
KFPV050-1
  1

  0
CIRCLE
  5
24
100
AcDbEntity
  8
0
  6
CONTINUOUS
 62
               7
100
AcDbCircle
 10
0.0
 20
11.0
 30
0.0
 40
3.5000000000000431
  0
LINE
  5
25
100
AcDbEntity
  8
0
  6
CONTINUOUS
 62
               7
100
AcDbLine
 10
-12.0
 20
67.600000010812863
 30
0.0
 11
12.0
 21
67.600000010812863
 31
0.0
  0
ARC
  5
26
100
AcDbEntity
  8
0
  6
CONTINUOUS
 62
               7
100
AcDbCircle
 10
18.500000000019782
 20
65.200000010820645
 30
0.0
 40
1.9999999999802398
100
AcDbArc
 50
359.9999999997753
 51
43.220130903543541
  0
ARC
  5
27
100
AcDbEntity
  8
0
  6
CONTINUOUS
 62
               7
100
AcDbCircle
 10
-24.999999999999886
 20
65.200000010812772
 30
0.0
 40
2.0
100
AcDbArc
 50
90.0
 51
179.99999999999937
  0
ARC
  5
28
100
AcDbEntity
  8
0
  6
CONTINUOUS
 62
               7
100
AcDbCircle
 10
18.500000000000114
 20
65.200000010812772
 30
0.0
 40
2.0000000000000004
100
AcDbArc
 50
43.220130903320175
 51
90.0
  0
LINE
  5
29
100
AcDbEntity
  8
0
  6
CONTINUOUS
 62
               7
100
AcDbLine
 10
20.500000000000114
 20
30.000000010812755
 30
0.0
 11
20.500000000000114
 21
65.200000010812801
 31
0.0
  0
LINE
  5
2A
100
AcDbEntity
  8
0
  6
CONTINUOUS
 62
               7
100
AcDbLine
 10
-26.999999999999886
 20
35.700000010812744
 30
0.0
 11
-22.499999999999886
 21
35.700000010812687
 31
0.0
  0
LINE
  5
2B
100
AcDbEntity
  8
0
  6
CONTINUOUS
 62
               7
100
AcDbLine
 10
-26.999999999999886
 20
35.700000010812801
 30
0.0
 11
-26.999999999999886
 21
65.200000010812801
 31
0.0
  0
LINE
  5
2C
100
AcDbEntity
  8
0
  6
CONTINUOUS
 62
               7
100
AcDbLine
 10
-24.999999999999886
 20
67.200000010812772
 30
0.0
 11
18.500000000000114
 21
67.200000010812772
 31
0.0
  0
LINE
  5
2D
100
AcDbEntity
  8
0
  6
CONTINUOUS
 62
               7
100
AcDbLine
 10
-22.500000000000341
 20
30.000000010812755
 30
0.0
 11
20.499999999999659
 21
30.000000010812755
 31
0.0
  0
LINE
  5
2E
100
AcDbEntity
  8
0
  6
CONTINUOUS
 62
               7
100
AcDbLine
 10
-22.500000000000341
 20
30.000000010812755
 30
0.0
 11
-22.499999999999886
 21
35.700000010812687
 31
0.0
  0
LINE
  5
2F
100
AcDbEntity
  8
0
  6
CONTINUOUS
 62
               7
100
AcDbLine
 10
16.000000000000114
 20
26.500000010812755
 30
0.0
 11
16.000000000000114
 21
30.000000010812755
 31
0.0
  0
LINE
  5
30
100
AcDbEntity
  8
0
  6
CONTINUOUS
 62
               7
100
AcDbLine
 10
-15.999999999999886
 20
26.500000010812755
 30
0.0
 11
-15.999999999999886
 21
30.000000010812755
 31
0.0
  0
LINE
  5
31
100
AcDbEntity
  8
0
  6
CONTINUOUS
 62
               7
100
AcDbLine
 10
-5.4999999999998863
 20
71.80000001081271
 30
0.0
 11
5.5000000000001137
 21
71.80000001081271
 31
0.0
  0
LINE
  5
32
100
AcDbEntity
  8
0
  6
CONTINUOUS
 62
               7
100
AcDbLine
 10
6.0
 20
71.300000010812738
 30
0.0
 11
5.5000000000001137
 21
71.80000001081271
 31
0.0
  0
LINE
  5
33
100
AcDbEntity
  8
0
  6
CONTINUOUS
 62
               7
100
AcDbLine
 10
-15.999999999999886
 20
26.500000010812755
 30
0.0
 11
16.000000000000114
 21
26.500000010812755
 31
0.0
  0
CIRCLE
  5
34
100
AcDbEntity
  8
0
  6
CONTINUOUS
 62
               2
100
AcDbCircle
 10
-0.0000039999999899
 20
10.99999200000002
 30
0.0
 40
6.5800000000000045
  0
CIRCLE
  5
35
100
AcDbEntity
  8
0
  6
CONTINUOUS
 62
               7
100
AcDbCircle
 10
-0.0000039999999899
 20
10.99999200000002
 30
0.0
 40
5.7249979999999994
  0
LINE
  5
36
100
AcDbEntity
  8
0
  6
CONTINUOUS
 62
               2
100
AcDbLine
 10
-8.5800039999951316
 20
11.0
 30
0.0
 11
8.5799959999951518
 21
11.0
 31
0.0
  0
LINE
  5
37
100
AcDbEntity
  8
0
  6
CONTINUOUS
 62
               2
100
AcDbLine
 10
-14.631963355715129
 20
63.920427747765643
 30
0.0
 11
-14.631963355720359
 21
32.429243278010063
 31
0.0
  0
LINE
  5
38
100
AcDbEntity
  8
0
  6
CONTINUOUS
 62
               2
100
AcDbLine
 10
-11.211761922458436
 20
63.920427747765075
 30
0.0
 11
-11.211761922463552
 21
32.429243278009494
 31
0.0
  0
LINE
  5
39
100
AcDbEntity
  8
0
  6
CONTINUOUS
 62
               2
100
AcDbLine
 10
-7.656931626166056
 20
63.92042774776445
 30
0.0
 11
-7.656931626171172
 21
32.429243278008926
 31
0.0
  0
LINE
  5
3A
100
AcDbEntity
  8
0
  6
CONTINUOUS
 62
               2
100
AcDbLine
 10
-4.2367301929092491
 20
63.920427747763938
 30
0.0
 11
-4.2367301929144787
 21
32.429243278008357
 31
0.0
  0
LINE
  5
3B
100
AcDbEntity
  8
0
  6
CONTINUOUS
 62
               2
100
AcDbLine
 10
7.6569316261781069
 20
63.920427747761948
 30
0.0
 11
7.6569316261728773
 21
32.429243278006368
 31
0.0
  0
LINE
  5
3C
100
AcDbEntity
  8
0
  6
CONTINUOUS
 62
               2
100
AcDbLine
 10
4.2367301929212999
 20
63.920427747762517
 30
0.0
 11
4.236730192916184
 21
32.429243278006936
 31
0.0
  0
LINE
  5
3D
100
AcDbEntity
  8
0
  6
CONTINUOUS
 62
               2
100
AcDbLine
 10
18.526060429982977
 20
63.280015525564465
 30
0.0
 11
18.526060429977861
 21
32.429243278004606
 31
0.0
  0
LINE
  5
3E
100
AcDbEntity
  8
0
  6
CONTINUOUS
 62
               2
100
AcDbLine
 10
16.341355989807425
 20
65.206928211959507
 30
0.0
 11
-25.096153735447615
 21
65.206928211966328
 31
0.0
  0
LINE
  5
3F
100
AcDbEntity
  8
0
  6
CONTINUOUS
 62
               7
100
AcDbLine
 10
16.0
 20
26.200000010812573
 30
0.0
 11
16.0
 21
0.3000000000000114
 31
0.0
  0
LINE
  5
40
100
AcDbEntity
  8
0
  6
CONTINUOUS
 62
               7
100
AcDbLine
 10
15.700000000000045
 20
26.500000010812755
 30
0.0
 11
16.0
 21
26.200000010812573
 31
0.0
  0
LINE
  5
41
100
AcDbEntity
  8
0
  6
CONTINUOUS
 62
               7
100
AcDbLine
 10
-15.699999999999932
 20
26.500000010812755
 30
0.0
 11
-16.0
 21
26.200000010812573
 31
0.0
  0
LINE
  5
42
100
AcDbEntity
  8
0
  6
CONTINUOUS
 62
               7
100
AcDbLine
 10
-16.0
 20
26.200000010812573
 30
0.0
 11
-16.0
 21
0.3000000000000114
 31
0.0
  0
LINE
  5
43
100
AcDbEntity
  8
0
  6
CONTINUOUS
 62
               7
100
AcDbLine
 10
-15.699999999999932
 20
0.0
 30
0.0
 11
15.700000000000045
 21
0.0
 31
0.0
  0
LINE
  5
44
100
AcDbEntity
  8
0
  6
CONTINUOUS
 62
               7
100
AcDbLine
 10
-16.0
 20
0.3000000000000114
 30
0.0
 11
-15.699999999999932
 21
0.0
 31
0.0
  0
LINE
  5
45
100
AcDbEntity
  8
0
  6
CONTINUOUS
 62
               7
100
AcDbLine
 10
16.0
 20
0.3000000000000114
 30
0.0
 11
15.700000000000045
 21
0.0000000000000568
 31
0.0
  0
LINE
  5
46
100
AcDbEntity
  8
0
  6
CONTINUOUS
 62
               7
100
AcDbLine
 10
0.0
 20
68.359189417447993
 30
0.0
 11
0.0
 21
69.840810604177733
 31
0.0
  0
LINE
  5
47
100
AcDbEntity
  8
0
  6
CONTINUOUS
 62
               7
100
AcDbLine
 10
-8.4999996191139058
 20
69.840810604177733
 30
0.0
 11
-8.4999996191139058
 21
68.359189417447993
 31
0.0
  0
LINE
  5
48
100
AcDbEntity
  8
0
  6
CONTINUOUS
 62
               7
100
AcDbLine
 10
-7.1850449999999988
 20
70.600000010812863
 30
0.0
 11
-8.4999996191139058
 21
69.840810604177733
 31
0.0
  0
LINE
  5
49
100
AcDbEntity
  8
0
  6
CONTINUOUS
 62
               7
100
AcDbLine
 10
7.1850449999999988
 20
70.600000010812863
 30
0.0
 11
-7.1850449999999988
 21
70.600000010812863
 31
0.0
  0
LINE
  5
4A
100
AcDbEntity
  8
0
  6
CONTINUOUS
 62
               7
100
AcDbLine
 10
6.0
 20
71.300000010812738
 30
0.0
 11
6.0
 21
70.600000010812863
 31
0.0
  0
LINE
  5
4B
100
AcDbEntity
  8
0
  6
CONTINUOUS
 62
               7
100
AcDbLine
 10
-6.0
 20
71.300000010812738
 30
0.0
 11
-5.5
 21
71.80000001081271
 31
0.0
  0
LINE
  5
4C
100
AcDbEntity
  8
0
  6
CONTINUOUS
 62
               7
100
AcDbLine
 10
-6.0
 20
71.300000010812738
 30
0.0
 11
-6.0
 21
70.600000010812863
 31
0.0
  0
LINE
  5
4D
100
AcDbEntity
  8
0
  6
CONTINUOUS
 62
               7
100
AcDbLine
 10
-6.0
 20
71.300000010812738
 30
0.0
 11
6.0
 21
71.300000010812738
 31
0.0
  0
LINE
  5
4E
100
AcDbEntity
  8
0
  6
CONTINUOUS
 62
               2
100
AcDbLine
 10
5.5
 20
71.300000010812738
 30
0.0
 11
5.5
 21
70.600000010812863
 31
0.0
  0
LINE
  5
4F
100
AcDbEntity
  8
0
  6
CONTINUOUS
 62
               2
100
AcDbLine
 10
-5.5
 20
71.300000010812738
 30
0.0
 11
-5.5
 21
70.600000010812863
 31
0.0
  0
LINE
  5
50
100
AcDbEntity
  8
0
  6
CONTINUOUS
 62
               7
100
AcDbLine
 10
-42.099999999999909
 20
63.850000010812778
 30
0.0
 11
-26.999999999999886
 21
63.850000010812778
 31
0.0
  0
LINE
  5
51
100
AcDbEntity
  8
0
  6
CONTINUOUS
 62
               7
100
AcDbLine
 10
-43.599999999999909
 20
63.850000010812778
 30
0.0
 11
-45.099999999999909
 21
63.850000010812778
 31
0.0
  0
LINE
  5
52
100
AcDbEntity
  8
0
  6
CONTINUOUS
 62
               7
100
AcDbLine
 10
-49.599999999999909
 20
63.850000010812778
 30
0.0
 11
-46.599999999999909
 21
63.850000010812778
 31
0.0
  0
LINE
  5
53
100
AcDbEntity
  8
0
  6
CONTINUOUS
 62
               7
100
AcDbLine
 10
-52.599999999999909
 20
63.850000010812778
 30
0.0
 11
-51.099999999999909
 21
63.850000010812778
 31
0.0
  0
LINE
  5
54
100
AcDbEntity
  8
0
  6
CONTINUOUS
 62
               7
100
AcDbLine
 10
-57.099999999999909
 20
63.850000010812778
 30
0.0
 11
-54.099999999999909
 21
63.850000010812778
 31
0.0
  0
LINE
  5
55
100
AcDbEntity
  8
0
  6
CONTINUOUS
 62
               7
100
AcDbLine
 10
-61.199999999999932
 20
63.850000010812778
 30
0.0
 11
-58.599999999999909
 21
63.850000010812778
 31
0.0
  0
LINE
  5
56
100
AcDbEntity
  8
0
  6
CONTINUOUS
 62
               7
100
AcDbLine
 10
-57.099999999999909
 20
63.450000010812772
 30
0.0
 11
-58.599999999999909
 21
63.450000010812772
 31
0.0
  0
LINE
  5
57
100
AcDbEntity
  8
0
  6
CONTINUOUS
 62
               7
100
AcDbLine
 10
-54.099999999999909
 20
63.450000010812772
 30
0.0
 11
-52.599999999999909
 21
63.450000010812772
 31
0.0
  0
LINE
  5
58
100
AcDbEntity
  8
0
  6
CONTINUOUS
 62
               7
100
AcDbLine
 10
-51.099999999999909
 20
63.450000010812772
 30
0.0
 11
-49.599999999999909
 21
63.450000010812772
 31
0.0
  0
LINE
  5
59
100
AcDbEntity
  8
0
  6
CONTINUOUS
 62
               7
100
AcDbLine
 10
-46.599999999999909
 20
63.450000010812772
 30
0.0
 11
-45.099999999999909
 21
63.450000010812772
 31
0.0
  0
LINE
  5
5A
100
AcDbEntity
  8
0
  6
CONTINUOUS
 62
               7
100
AcDbLine
 10
-43.599999999999909
 20
63.450000010812772
 30
0.0
 11
-42.099999999999909
 21
63.450000010812772
 31
0.0
  0
LINE
  5
5B
100
AcDbEntity
  8
0
  6
CONTINUOUS
 62
               7
100
AcDbLine
 10
-43.599999999999909
 20
36.750000010812755
 30
0.0
 11
-42.099999999999909
 21
36.750000010812755
 31
0.0
  0
LINE
  5
5C
100
AcDbEntity
  8
0
  6
CONTINUOUS
 62
               7
100
AcDbLine
 10
-43.599999999999909
 20
36.350000010812778
 30
0.0
 11
-45.099999999999909
 21
36.350000010812778
 31
0.0
  0
LINE
  5
5D
100
AcDbEntity
  8
0
  6
CONTINUOUS
 62
               7
100
AcDbLine
 10
-42.099999999999909
 20
36.350000010812778
 30
0.0
 11
-42.099999999999909
 21
63.850000010812778
 31
0.0
  0
LINE
  5
5E
100
AcDbEntity
  8
0
  6
CONTINUOUS
 62
               7
100
AcDbLine
 10
-46.599999999999909
 20
36.350000010812778
 30
0.0
 11
-49.599999999999909
 21
36.350000010812778
 31
0.0
  0
LINE
  5
5F
100
AcDbEntity
  8
0
  6
CONTINUOUS
 62
               7
100
AcDbLine
 10
-46.599999999999909
 20
36.750000010812755
 30
0.0
 11
-45.099999999999909
 21
36.750000010812755
 31
0.0
  0
LINE
  5
60
100
AcDbEntity
  8
0
  6
CONTINUOUS
 62
               7
100
AcDbLine
 10
-51.099999999999909
 20
36.750000010812755
 30
0.0
 11
-49.599999999999909
 21
36.750000010812755
 31
0.0
  0
LINE
  5
61
100
AcDbEntity
  8
0
  6
CONTINUOUS
 62
               7
100
AcDbLine
 10
-51.099999999999909
 20
36.350000010812778
 30
0.0
 11
-52.599999999999909
 21
36.350000010812778
 31
0.0
  0
LINE
  5
62
100
AcDbEntity
  8
0
  6
CONTINUOUS
 62
               7
100
AcDbLine
 10
-54.099999999999909
 20
36.350000010812778
 30
0.0
 11
-57.099999999999909
 21
36.350000010812778
 31
0.0
  0
LINE
  5
63
100
AcDbEntity
  8
0
  6
CONTINUOUS
 62
               7
100
AcDbLine
 10
-54.099999999999909
 20
36.750000010812755
 30
0.0
 11
-52.599999999999909
 21
36.750000010812755
 31
0.0
  0
LINE
  5
64
100
AcDbEntity
  8
0
  6
CONTINUOUS
 62
               7
100
AcDbLine
 10
-58.599999999999909
 20
36.350000010812778
 30
0.0
 11
-61.199999999999932
 21
36.350000010812778
 31
0.0
  0
LINE
  5
65
100
AcDbEntity
  8
0
  6
CONTINUOUS
 62
               7
100
AcDbLine
 10
-57.099999999999909
 20
36.750000010812755
 30
0.0
 11
-58.599999999999909
 21
36.750000010812755
 31
0.0
  0
LINE
  5
66
100
AcDbEntity
  8
0
  6
CONTINUOUS
 62
               7
100
AcDbLine
 10
-43.599999999999909
 20
36.350000010812778
 30
0.0
 11
-43.599999999999909
 21
63.850000010812778
 31
0.0
  0
LINE
  5
67
100
AcDbEntity
  8
0
  6
CONTINUOUS
 62
               7
100
AcDbLine
 10
-45.099999999999909
 20
36.350000010812778
 30
0.0
 11
-45.099999999999909
 21
63.850000010812778
 31
0.0
  0
LINE
  5
68
100
AcDbEntity
  8
0
  6
CONTINUOUS
 62
               7
100
AcDbLine
 10
-46.599999999999909
 20
36.350000010812778
 30
0.0
 11
-46.599999999999909
 21
63.850000010812778
 31
0.0
  0
LINE
  5
69
100
AcDbEntity
  8
0
  6
CONTINUOUS
 62
               7
100
AcDbLine
 10
-49.599999999999909
 20
36.350000010812778
 30
0.0
 11
-49.599999999999909
 21
63.850000010812778
 31
0.0
  0
LINE
  5
6A
100
AcDbEntity
  8
0
  6
CONTINUOUS
 62
               7
100
AcDbLine
 10
-51.099999999999909
 20
36.350000010812778
 30
0.0
 11
-51.099999999999909
 21
63.850000010812778
 31
0.0
  0
LINE
  5
6B
100
AcDbEntity
  8
0
  6
CONTINUOUS
 62
               7
100
AcDbLine
 10
-52.599999999999909
 20
36.350000010812778
 30
0.0
 11
-52.599999999999909
 21
63.850000010812778
 31
0.0
  0
LINE
  5
6C
100
AcDbEntity
  8
0
  6
CONTINUOUS
 62
               7
100
AcDbLine
 10
-54.099999999999909
 20
36.350000010812778
 30
0.0
 11
-54.099999999999909
 21
63.850000010812778
 31
0.0
  0
LINE
  5
6D
100
AcDbEntity
  8
0
  6
CONTINUOUS
 62
               7
100
AcDbLine
 10
-57.099999999999909
 20
36.350000010812778
 30
0.0
 11
-57.099999999999909
 21
63.850000010812778
 31
0.0
  0
LINE
  5
6E
100
AcDbEntity
  8
0
  6
CONTINUOUS
 62
               7
100
AcDbLine
 10
-58.599999999999909
 20
36.350000010812778
 30
0.0
 11
-58.599999999999909
 21
63.850000010812778
 31
0.0
  0
ARC
  5
6F
100
AcDbEntity
  8
0
  6
CONTINUOUS
 62
               7
100
AcDbCircle
 10
-61.199999999999932
 20
38.350000010812778
 30
0.0
 40
2.0
100
AcDbArc
 50
180.0
 51
270.0
  0
LINE
  5
70
100
AcDbEntity
  8
0
  6
CONTINUOUS
 62
               7
100
AcDbLine
 10
-26.999999999999886
 20
36.350000010812778
 30
0.0
 11
-42.099999999999909
 21
36.350000010812778
 31
0.0
  0
LINE
  5
71
100
AcDbEntity
  8
0
  6
CONTINUOUS
 62
               7
100
AcDbLine
 10
-28.999999999999886
 20
36.350000010812778
 30
0.0
 11
-28.999999999999886
 21
63.850000010812778
 31
0.0
  0
LINE
  5
72
100
AcDbEntity
  8
0
  6
CONTINUOUS
 62
               7
100
AcDbLine
 10
-60.199999999999932
 20
14.850000010812778
 30
0.0
 11
-60.199999999999932
 21
20.850000010812778
 31
0.0
  0
LINE
  5
73
100
AcDbEntity
  8
0
  6
CONTINUOUS
 62
               7
100
AcDbLine
 10
-40.699999999999932
 20
20.850000010812778
 30
0.0
 11
-63.199999999999932
 21
20.850000010812778
 31
0.0
  0
LINE
  5
74
100
AcDbEntity
  8
0
  6
CONTINUOUS
 62
               7
100
AcDbLine
 10
-41.199999999999932
 20
10.850000010812778
 30
0.0
 11
-62.699999999999932
 21
10.850000010812778
 31
0.0
  0
LINE
  5
75
100
AcDbEntity
  8
0
  6
CONTINUOUS
 62
               7
100
AcDbLine
 10
-40.699999999999932
 20
20.850000010812778
 30
0.0
 11
-40.699999999999932
 21
36.350000010812778
 31
0.0
  0
LINE
  5
76
100
AcDbEntity
  8
0
  6
CONTINUOUS
 62
               7
100
AcDbLine
 10
-57.449999999999932
 20
10.850000010812778
 30
0.0
 11
-57.449999999999932
 21
14.850000010812778
 31
0.0
  0
LINE
  5
77
100
AcDbEntity
  8
0
  6
CONTINUOUS
 62
               7
100
AcDbLine
 10
-62.699999999999932
 20
10.850000010812778
 30
0.0
 11
-62.699999999999932
 21
14.850000010812778
 31
0.0
  0
LINE
  5
78
100
AcDbEntity
  8
0
  6
CONTINUOUS
 62
               7
100
AcDbLine
 10
-41.199999999999932
 20
10.850000010812778
 30
0.0
 11
-41.199999999999932
 21
14.850000010812778
 31
0.0
  0
LINE
  5
79
100
AcDbEntity
  8
0
  6
CONTINUOUS
 62
               7
100
AcDbLine
 10
-46.449999999999932
 20
10.850000010812778
 30
0.0
 11
-46.449999999999932
 21
14.850000010812778
 31
0.0
  0
LINE
  5
7A
100
AcDbEntity
  8
0
  6
CONTINUOUS
 62
               7
100
AcDbLine
 10
-41.199999999999932
 20
14.850000010812778
 30
0.0
 11
-62.699999999999932
 21
14.850000010812778
 31
0.0
  0
LINE
  5
7B
100
AcDbEntity
  8
0
  6
CONTINUOUS
 62
               7
100
AcDbLine
 10
-43.699999999999932
 20
14.850000010812778
 30
0.0
 11
-43.699999999999932
 21
20.850000010812778
 31
0.0
  0
LINE
  5
7C
100
AcDbEntity
  8
0
  6
CONTINUOUS
 62
               2
100
AcDbLine
 10
-51.949999999999932
 20
9.3343830457665717
 30
0.0
 11
-51.949999999999932
 21
38.05700155943174
 31
0.0
  0
ARC
  5
7D
100
AcDbEntity
  8
0
  6
CONTINUOUS
 62
               7
100
AcDbCircle
 10
-61.199999999999932
 20
61.850000010812778
 30
0.0
 40
2.0
100
AcDbArc
 50
90.0
 51
180.0
  0
LINE
  5
7E
100
AcDbEntity
  8
0
  6
CONTINUOUS
 62
               7
100
AcDbLine
 10
-7.1850449999999988
 20
67.600000010812863
 30
0.0
 11
-8.4999996191139058
 21
68.359189417447993
 31
0.0
  0
LINE
  5
7F
100
AcDbEntity
  8
0
  6
CONTINUOUS
 62
               7
100
AcDbLine
 10
12.0
 20
67.200000010812772
 30
0.0
 11
12.0
 21
67.600000010812863
 31
0.0
  0
LINE
  5
80
100
AcDbEntity
  8
0
  6
CONTINUOUS
 62
               7
100
AcDbLine
 10
-12.0
 20
67.200000010812772
 30
0.0
 11
-12.0
 21
67.600000010812863
 31
0.0
  0
LINE
  5
81
100
AcDbEntity
  8
0
  6
CONTINUOUS
 62
               7
100
AcDbLine
 10
-63.199999999999932
 20
20.850000010812778
 30
0.0
 11
-63.199999999999932
 21
61.85000001909674
 31
0.0
  0
LINE
  5
82
100
AcDbEntity
  8
0
  6
CONTINUOUS
 62
               2
100
AcDbLine
 10
12.000000000000114
 20
-2.5
 30
0.0
 11
12.000000000000114
 21
2.5
 31
0.0
  0
LINE
  5
83
100
AcDbEntity
  8
0
  6
CONTINUOUS
 62
               2
100
AcDbLine
 10
-11.999999999999886
 20
-2.5
 30
0.0
 11
-11.999999999999886
 21
2.5
 31
0.0
  0
LINE
  5
84
100
AcDbEntity
  8
0
  6
CONTINUOUS
 62
               7
100
AcDbLine
 10
7.1850449999999988
 20
70.600000010812863
 30
0.0
 11
8.4999996191139076
 21
69.840810604177733
 31
0.0
  0
LINE
  5
85
100
AcDbEntity
  8
0
  6
CONTINUOUS
 62
               7
100
AcDbLine
 10
7.1850449999999988
 20
67.600000010812863
 30
0.0
 11
8.4999996191139076
 21
68.359189417447993
 31
0.0
  0
LINE
  5
86
100
AcDbEntity
  8
0
  6
CONTINUOUS
 62
               7
100
AcDbLine
 10
8.4999996191139076
 20
69.840810604177733
 30
0.0
 11
8.4999996191139076
 21
68.359189417447993
 31
0.0
  0
ARC
  5
87
100
AcDbEntity
  8
0
  6
CONTINUOUS
 62
               7
100
AcDbCircle
 10
4.25
 20
58.32449379836585
 30
0.0
 40
12.275506212447011
100
AcDbArc
 50
69.74384091051634
 51
110.25615873412474
  0
ARC
  5
88
100
AcDbEntity
  8
0
  6
CONTINUOUS
 62
               7
100
AcDbCircle
 10
-4.2499998095569502
 20
58.324494864480471
 30
0.0
 40
12.275505146332392
100
AcDbArc
 50
69.743840376984565
 51
110.25615962301545
  0
ARC
  5
89
100
AcDbEntity
  8
0
  6
CONTINUOUS
 62
               7
100
AcDbCircle
 10
-4.2499998095569538
 20
79.875505157145255
 30
0.0
 40
12.275505146332383
100
AcDbArc
 50
249.74384037698454
 51
290.25615962301544
  0
ARC
  5
8A
100
AcDbEntity
  8
0
  6
CONTINUOUS
 62
               7
100
AcDbCircle
 10
4.2499998095569538
 20
79.875505157145255
 30
0.0
 40
12.275505146332389
100
AcDbArc
 50
249.74384037698454
 51
290.25615962301544
  0
LINE
  5
8B
100
AcDbEntity
  8
0
  6
CONTINUOUS
 62
               2
100
AcDbLine
 10
0.0
 20
-4.1999999999998323
 30
0.0
 11
0.0
 21
73.600000010812877
 31
0.0
  0
ENDBLK
  5
8C
100
AcDbEntity
  8
0
100
AcDbBlockEnd
  0
BLOCK
  5
8D
100
AcDbEntity
  8
0
100
AcDbBlockBegin
  2
KFPV050-2
 70
               0
 10
0.0
 20
0.0
 30
0.0
  3
KFPV050-2
  1

  0
LINE
  5
8E
100
AcDbEntity
  8
0
  6
CONTINUOUS
 62
               7
100
AcDbLine
 10
11.25
 20
35.70000001081246
 30
0.0
 11
14.000000000000227
 21
35.700000010812403
 31
0.0
  0
LINE
  5
8F
100
AcDbEntity
  8
0
  6
CONTINUOUS
 62
               7
100
AcDbLine
 10
11.25
 20
30.000000010812755
 30
0.0
 11
14.0
 21
30.000000010812755
 31
0.0
  0
LINE
  5
90
100
AcDbEntity
  8
0
  6
CONTINUOUS
 62
               7
100
AcDbLine
 10
11.25
 20
26.500000010812755
 30
0.0
 11
22.699999999999932
 21
26.500000010812755
 31
0.0
  0
LINE
  5
91
100
AcDbEntity
  8
0
  6
CONTINUOUS
 62
               7
100
AcDbLine
 10
8.25
 20
17.750000005406378
 30
0.0
 11
12.0
 21
17.750000005406378
 31
0.0
  0
ARC
  5
92
100
AcDbEntity
  8
0
  6
CONTINUOUS
 62
               7
100
AcDbCircle
 10
-11.25
 20
38.850000010812778
 30
0.0
 40
2.5
100
AcDbArc
 50
180.0
 51
270.0
  0
ARC
  5
93
100
AcDbEntity
  8
0
  6
CONTINUOUS
 62
               7
100
AcDbCircle
 10
11.25
 20
38.850000010812778
 30
0.0
 40
2.5
100
AcDbArc
 50
270.0
 51
0.0
  0
ARC
  5
94
100
AcDbEntity
  8
0
  6
CONTINUOUS
 62
               7
100
AcDbCircle
 10
11.25
 20
61.350000010812778
 30
0.0
 40
2.5
100
AcDbArc
 50
0.0
 51
90.0
  0
ARC
  5
95
100
AcDbEntity
  8
0
  6
CONTINUOUS
 62
               7
100
AcDbCircle
 10
-11.25
 20
61.350000010812778
 30
0.0
 40
2.5
100
AcDbArc
 50
90.0
 51
180.0
  0
LINE
  5
96
100
AcDbEntity
  8
0
  6
CONTINUOUS
 62
               7
100
AcDbLine
 10
-13.75
 20
38.850000010812778
 30
0.0
 11
-13.75
 21
61.350000010812778
 31
0.0
  0
LINE
  5
97
100
AcDbEntity
  8
0
  6
CONTINUOUS
 62
               7
100
AcDbLine
 10
13.75
 20
38.850000010812778
 30
0.0
 11
13.75
 21
61.350000010812778
 31
0.0
  0
LINE
  5
98
100
AcDbEntity
  8
0
  6
CONTINUOUS
 62
               7
100
AcDbLine
 10
-11.25
 20
36.350000010812778
 30
0.0
 11
11.25
 21
36.350000010812778
 31
0.0
  0
LINE
  5
99
100
AcDbEntity
  8
0
  6
CONTINUOUS
 62
               7
100
AcDbLine
 10
-9.0932664999999986
 20
10.850000010812778
 30
0.0
 11
9.0932664999999986
 21
10.850000010812778
 31
0.0
  0
LINE
  5
9A
100
AcDbEntity
  8
0
  6
CONTINUOUS
 62
               7
100
AcDbLine
 10
-8.25
 20
14.850000010812778
 30
0.0
 11
-8.25
 21
20.850000010812778
 31
0.0
  0
LINE
  5
9B
100
AcDbEntity
  8
0
  6
CONTINUOUS
 62
               7
100
AcDbLine
 10
-9.0932664999999986
 20
14.850000010812778
 30
0.0
 11
9.0932664999999986
 21
14.850000010812778
 31
0.0
  0
LINE
  5
9C
100
AcDbEntity
  8
0
  6
CONTINUOUS
 62
               7
100
AcDbLine
 10
-9.0932664999999986
 20
10.850000010812778
 30
0.0
 11
-9.0932664999999986
 21
14.850000010812778
 31
0.0
  0
LINE
  5
9D
100
AcDbEntity
  8
0
  6
CONTINUOUS
 62
               7
100
AcDbLine
 10
9.0932664999999986
 20
10.850000010812778
 30
0.0
 11
9.0932664999999986
 21
14.850000010812778
 31
0.0
  0
LINE
  5
9E
100
AcDbEntity
  8
0
  6
CONTINUOUS
 62
               7
100
AcDbLine
 10
-11.25
 20
20.850000010812778
 30
0.0
 11
11.25
 21
20.850000010812778
 31
0.0
  0
LINE
  5
9F
100
AcDbEntity
  8
0
  6
CONTINUOUS
 62
               7
100
AcDbLine
 10
8.25
 20
14.850000010812778
 30
0.0
 11
8.25
 21
20.850000010812778
 31
0.0
  0
LINE
  5
A0
100
AcDbEntity
  8
0
  6
CONTINUOUS
 62
               7
100
AcDbLine
 10
-11.25
 20
20.850000010812778
 30
0.0
 11
-11.25
 21
36.350000010812778
 31
0.0
  0
LINE
  5
A1
100
AcDbEntity
  8
0
  6
CONTINUOUS
 62
               7
100
AcDbLine
 10
11.25
 20
20.850000010812778
 30
0.0
 11
11.25
 21
36.350000010812778
 31
0.0
  0
LINE
  5
A2
100
AcDbEntity
  8
0
  6
CONTINUOUS
 62
               7
100
AcDbLine
 10
-11.25
 20
63.850000010812778
 30
0.0
 11
11.25
 21
63.850000010812778
 31
0.0
  0
LINE
  5
A3
100
AcDbEntity
  8
0
  6
CONTINUOUS
 62
               2
100
AcDbLine
 10
-18.5
 20
50.100000010812778
 30
0.0
 11
18.5
 21
50.100000010812778
 31
0.0
  0
LINE
  5
A4
100
AcDbEntity
  8
0
  6
CONTINUOUS
 62
               7
100
AcDbLine
 10
-1.1667266793981526
 20
48.933273683082064
 30
0.0
 11
1.1667259901473699
 21
51.266726155932247
 31
0.0
  0
LINE
  5
A5
100
AcDbEntity
  8
0
  6
CONTINUOUS
 62
               7
100
AcDbLine
 10
-1.1667265735999308
 20
51.26672668276035
 30
0.0
 11
1.1667258992501957
 21
48.933274013214827
 31
0.0
  0
CIRCLE
  5
A6
100
AcDbEntity
  8
0
  6
CONTINUOUS
 62
               7
100
AcDbCircle
 10
0.0000001192092896
 20
50.100000130022067
 30
0.0
 40
2.75
  0
CIRCLE
  5
A7
100
AcDbEntity
  8
0
  6
CONTINUOUS
 62
               7
100
AcDbCircle
 10
0.0
 20
50.100000010812778
 30
0.0
 40
3.5
  0
LINE
  5
A8
100
AcDbEntity
  8
0
  6
CONTINUOUS
 62
               7
100
AcDbLine
 10
22.699999999999932
 20
0.0
 30
0.0
 11
-22.700000000000045
 21
0.0
 31
0.0
  0
LINE
  5
A9
100
AcDbEntity
  8
0
  6
CONTINUOUS
 62
               7
100
AcDbLine
 10
-22.700000000000045
 20
26.500000010812755
 30
0.0
 11
-11.25
 21
26.500000010812755
 31
0.0
  0
LINE
  5
AA
100
AcDbEntity
  8
0
  6
CONTINUOUS
 62
               7
100
AcDbLine
 10
-5.5
 20
71.80000001081271
 30
0.0
 11
5.5
 21
71.80000001081271
 31
0.0
  0
LINE
  5
AB
100
AcDbEntity
  8
0
  6
CONTINUOUS
 62
               7
100
AcDbLine
 10
6.0
 20
71.30000001081271
 30
0.0
 11
5.5
 21
71.80000001081271
 31
0.0
  0
LINE
  5
AC
100
AcDbEntity
  8
0
  6
CONTINUOUS
 62
               7
100
AcDbLine
 10
16.0
 20
26.500000010812755
 30
0.0
 11
16.0
 21
30.000000010812755
 31
0.0
  0
LINE
  5
AD
100
AcDbEntity
  8
0
  6
CONTINUOUS
 62
               7
100
AcDbLine
 10
-16.0
 20
26.500000010812755
 30
0.0
 11
-16.0
 21
30.000000010812755
 31
0.0
  0
LINE
  5
AE
100
AcDbEntity
  8
0
  6
CONTINUOUS
 62
               7
100
AcDbLine
 10
-16.0
 20
30.000000010812755
 30
0.0
 11
-13.999999999999773
 21
30.000000010812755
 31
0.0
  0
LINE
  5
AF
100
AcDbEntity
  8
0
  6
CONTINUOUS
 62
               7
100
AcDbLine
 10
14.0
 20
30.000000010812755
 30
0.0
 11
16.0
 21
30.000000010812755
 31
0.0
  0
LINE
  5
B0
100
AcDbEntity
  8
0
  6
CONTINUOUS
 62
               7
100
AcDbLine
 10
-14.0
 20
35.700000010812801
 30
0.0
 11
-11.25
 21
35.700000010812744
 31
0.0
  0
LINE
  5
B1
100
AcDbEntity
  8
0
  6
CONTINUOUS
 62
               7
100
AcDbLine
 10
14.0
 20
30.000000010812755
 30
0.0
 11
14.000000000000227
 21
67.200000010812772
 31
0.0
  0
LINE
  5
B2
100
AcDbEntity
  8
0
  6
CONTINUOUS
 62
               7
100
AcDbLine
 10
-13.999999999999773
 20
30.000000010812755
 30
0.0
 11
-11.25
 21
30.000000010812755
 31
0.0
  0
LINE
  5
B3
100
AcDbEntity
  8
0
  6
CONTINUOUS
 62
               7
100
AcDbLine
 10
-13.999999999999773
 20
30.000000010812755
 30
0.0
 11
-14.0
 21
67.200000010812772
 31
0.0
  0
LINE
  5
B4
100
AcDbEntity
  8
0
  6
CONTINUOUS
 62
               7
100
AcDbLine
 10
16.5
 20
30.000000010812755
 30
0.0
 11
16.5
 21
65.200000010812801
 31
0.0
  0
LINE
  5
B5
100
AcDbEntity
  8
0
  6
CONTINUOUS
 62
               7
100
AcDbLine
 10
16.0
 20
30.000000010812755
 30
0.0
 11
16.5
 21
30.000000010812755
 31
0.0
  0
LINE
  5
B6
100
AcDbEntity
  8
0
  6
CONTINUOUS
 62
               7
100
AcDbLine
 10
14.017540966287243
 20
67.200000010812772
 30
0.0
 11
14.5
 21
67.200000010812772
 31
0.0
  0
LINE
  5
B7
100
AcDbEntity
  8
0
  6
CONTINUOUS
 62
               7
100
AcDbLine
 10
-14.5
 20
67.200000010812772
 30
0.0
 11
-14.017540966287243
 21
67.200000010812772
 31
0.0
  0
LINE
  5
B8
100
AcDbEntity
  8
0
  6
CONTINUOUS
 62
               7
100
AcDbLine
 10
-16.5
 20
30.000000010812755
 30
0.0
 11
-16.5
 21
65.200000010812801
 31
0.0
  0
LINE
  5
B9
100
AcDbEntity
  8
0
  6
CONTINUOUS
 62
               7
100
AcDbLine
 10
-16.5
 20
30.000000010812755
 30
0.0
 11
-16.0
 21
30.000000010812755
 31
0.0
  0
ARC
  5
BA
100
AcDbEntity
  8
0
  6
CONTINUOUS
 62
               7
100
AcDbCircle
 10
14.5
 20
65.200000010812772
 30
0.0
 40
2.0
100
AcDbArc
 50
0.0000000000006107
 51
90.000000000000014
  0
ARC
  5
BB
100
AcDbEntity
  8
0
  6
CONTINUOUS
 62
               7
100
AcDbCircle
 10
-14.5
 20
65.200000010812772
 30
0.0
 40
2.0
100
AcDbArc
 50
90.0
 51
179.99999999999937
  0
LINE
  5
BC
100
AcDbEntity
  8
0
  6
CONTINUOUS
 62
               7
100
AcDbLine
 10
12.0
 20
67.600000010812863
 30
0.0
 11
-12.0
 21
67.600000010812863
 31
0.0
  0
LINE
  5
BD
100
AcDbEntity
  8
0
  6
CONTINUOUS
 62
               7
100
AcDbLine
 10
-12.0
 20
8.7500000054063776
 30
0.0
 11
12.0
 21
8.7500000054063776
 31
0.0
  0
LINE
  5
BE
100
AcDbEntity
  8
0
  6
CONTINUOUS
 62
               7
100
AcDbLine
 10
-12.5
 20
9.2500000054063776
 30
0.0
 11
-12.5
 21
17.250000005406378
 31
0.0
  0
LINE
  5
BF
100
AcDbEntity
  8
0
  6
CONTINUOUS
 62
               7
100
AcDbLine
 10
12.5
 20
9.2500000054063776
 30
0.0
 11
12.5
 21
17.250000005406378
 31
0.0
  0
LINE
  5
C0
100
AcDbEntity
  8
0
  6
CONTINUOUS
 62
               7
100
AcDbLine
 10
-12.0
 20
17.750000005406378
 30
0.0
 11
-8.25
 21
17.750000005406378
 31
0.0
  0
ARC
  5
C1
100
AcDbEntity
  8
0
  6
CONTINUOUS
 62
               7
100
AcDbCircle
 10
-12.0
 20
9.2500000054063776
 30
0.0
 40
0.5
100
AcDbArc
 50
180.0
 51
270.0
  0
ARC
  5
C2
100
AcDbEntity
  8
0
  6
CONTINUOUS
 62
               7
100
AcDbCircle
 10
12.0
 20
9.2500000054063776
 30
0.0
 40
0.5
100
AcDbArc
 50
270.0
 51
0.0
  0
ARC
  5
C3
100
AcDbEntity
  8
0
  6
CONTINUOUS
 62
               7
100
AcDbCircle
 10
12.0
 20
17.250000005406378
 30
0.0
 40
0.5
100
AcDbArc
 50
0.0
 51
90.0
  0
ARC
  5
C4
100
AcDbEntity
  8
0
  6
CONTINUOUS
 62
               7
100
AcDbCircle
 10
-12.0
 20
17.250000005406378
 30
0.0
 40
0.5
100
AcDbArc
 50
90.0
 51
180.0
  0
LINE
  5
C5
100
AcDbEntity
  8
0
  6
CONTINUOUS
 62
               7
100
AcDbLine
 10
23.0
 20
0.3000000000000114
 30
0.0
 11
23.0
 21
26.200000010812687
 31
0.0
  0
LINE
  5
C6
100
AcDbEntity
  8
0
  6
CONTINUOUS
 62
               7
100
AcDbLine
 10
-23.0
 20
0.3000000000000114
 30
0.0
 11
-23.0
 21
26.200000010812744
 31
0.0
  0
LINE
  5
C7
100
AcDbEntity
  8
0
  6
CONTINUOUS
 62
               7
100
AcDbLine
 10
23.0
 20
0.3000000000000114
 30
0.0
 11
22.699999999999932
 21
0.0
 31
0.0
  0
LINE
  5
C8
100
AcDbEntity
  8
0
  6
CONTINUOUS
 62
               7
100
AcDbLine
 10
22.699999999999932
 20
26.500000010812755
 30
0.0
 11
23.0
 21
26.200000010812687
 31
0.0
  0
LINE
  5
C9
100
AcDbEntity
  8
0
  6
CONTINUOUS
 62
               7
100
AcDbLine
 10
-22.700000000000045
 20
26.500000010812755
 30
0.0
 11
-23.0
 21
26.200000010812744
 31
0.0
  0
LINE
  5
CA
100
AcDbEntity
  8
0
  6
CONTINUOUS
 62
               7
100
AcDbLine
 10
-23.0
 20
0.3000000000000114
 30
0.0
 11
-22.700000000000045
 21
0.0
 31
0.0
  0
LINE
  5
CB
100
AcDbEntity
  8
0
  6
CONTINUOUS
 62
               7
100
AcDbLine
 10
9.8149546191139052
 20
68.359189417447965
 30
0.0
 11
9.8149546191139052
 21
69.840810604177761
 31
0.0
  0
ARC
  5
CC
100
AcDbEntity
  8
0
  6
CONTINUOUS
 62
               7
100
AcDbCircle
 10
7.3612158999999338
 20
66.255101436463008
 30
0.0
 40
4.3448985737996324
100
AcDbArc
 50
64.384242662971346
 51
124.38424782330166
  0
LINE
  5
CD
100
AcDbEntity
  8
0
  6
CONTINUOUS
 62
               7
100
AcDbLine
 10
8.5
 20
70.600000010812892
 30
0.0
 11
-8.5
 21
70.600000010812892
 31
0.0
  0
LINE
  5
CE
100
AcDbEntity
  8
0
  6
CONTINUOUS
 62
               7
100
AcDbLine
 10
9.8149546191139052
 20
69.840810604177761
 30
0.0
 11
8.5
 21
70.600000010812892
 31
0.0
  0
ARC
  5
CF
100
AcDbEntity
  8
0
  6
CONTINUOUS
 62
               7
100
AcDbCircle
 10
0.0
 20
54.35918982336625
 30
0.0
 40
16.240810187446638
100
AcDbArc
 50
72.412045661301235
 51
107.58795433869876
  0
LINE
  5
D0
100
AcDbEntity
  8
0
  6
CONTINUOUS
 62
               7
100
AcDbLine
 10
4.9074773095569526
 20
68.359189374089269
 30
0.0
 11
4.9074773095569526
 21
69.840810604177761
 31
0.0
  0
ARC
  5
D1
100
AcDbEntity
  8
0
  6
CONTINUOUS
 62
               7
100
AcDbCircle
 10
-7.3612159000000474
 20
66.255101436463008
 30
0.0
 40
4.3448985737996324
100
AcDbArc
 50
55.6157521766984
 51
115.61575733702865
  0
LINE
  5
D2
100
AcDbEntity
  8
0
  6
CONTINUOUS
 62
               7
100
AcDbLine
 10
-4.9074773095569526
 20
68.359189403721672
 30
0.0
 11
-4.9074773095569526
 21
69.840810604177761
 31
0.0
  0
LINE
  5
D3
100
AcDbEntity
  8
0
  6
CONTINUOUS
 62
               7
100
AcDbLine
 10
-9.8149546191140189
 20
69.840810604177761
 30
0.0
 11
-9.8149546191140189
 21
68.359189417447965
 31
0.0
  0
LINE
  5
D4
100
AcDbEntity
  8
0
  6
CONTINUOUS
 62
               7
100
AcDbLine
 10
-8.5
 20
70.600000010812892
 30
0.0
 11
-9.8149546191140189
 21
69.840810604177761
 31
0.0
  0
LINE
  5
D5
100
AcDbEntity
  8
0
  6
CONTINUOUS
 62
               7
100
AcDbLine
 10
6.0
 20
71.30000001081271
 30
0.0
 11
6.0
 21
70.600000010812892
 31
0.0
  0
LINE
  5
D6
100
AcDbEntity
  8
0
  6
CONTINUOUS
 62
               7
100
AcDbLine
 10
-6.0
 20
71.30000001081271
 30
0.0
 11
-5.5
 21
71.80000001081271
 31
0.0
  0
LINE
  5
D7
100
AcDbEntity
  8
0
  6
CONTINUOUS
 62
               7
100
AcDbLine
 10
-6.0
 20
71.30000001081271
 30
0.0
 11
-6.0
 21
70.600000010812892
 31
0.0
  0
LINE
  5
D8
100
AcDbEntity
  8
0
  6
CONTINUOUS
 62
               2
100
AcDbLine
 10
5.5
 20
71.30000001081271
 30
0.0
 11
5.5
 21
70.600000010812892
 31
0.0
  0
LINE
  5
D9
100
AcDbEntity
  8
0
  6
CONTINUOUS
 62
               2
100
AcDbLine
 10
-5.5
 20
71.30000001081271
 30
0.0
 11
-5.5
 21
70.600000010812892
 31
0.0
  0
LINE
  5
DA
100
AcDbEntity
  8
0
  6
CONTINUOUS
 62
               7
100
AcDbLine
 10
-6.0
 20
71.30000001081271
 30
0.0
 11
6.0
 21
71.30000001081271
 31
0.0
  0
ARC
  5
DB
100
AcDbEntity
  8
0
  6
CONTINUOUS
 62
               7
100
AcDbCircle
 10
7.3612158999999338
 20
71.944898585162719
 30
0.0
 40
4.3448985737996324
100
AcDbArc
 50
235.61575217669832
 51
295.61575733702864
  0
ARC
  5
DC
100
AcDbEntity
  8
0
  6
CONTINUOUS
 62
               7
100
AcDbCircle
 10
0.0
 20
83.840810198259476
 30
0.0
 40
16.240810187446638
100
AcDbArc
 50
252.41204566130122
 51
287.58795433869875
  0
ARC
  5
DD
100
AcDbEntity
  8
0
  6
CONTINUOUS
 62
               7
100
AcDbCircle
 10
-7.3612159000000474
 20
71.944898585162719
 30
0.0
 40
4.3448985737996324
100
AcDbArc
 50
244.38424266297136
 51
304.38424782330162
  0
LINE
  5
DE
100
AcDbEntity
  8
0
  6
CONTINUOUS
 62
               7
100
AcDbLine
 10
-8.5
 20
67.600000010812835
 30
0.0
 11
-9.8149546191140189
 21
68.359189417447965
 31
0.0
  0
LINE
  5
DF
100
AcDbEntity
  8
0
  6
CONTINUOUS
 62
               7
100
AcDbLine
 10
9.8149546191139052
 20
68.359189417447965
 30
0.0
 11
8.5
 21
67.600000010812835
 31
0.0
  0
LINE
  5
E0
100
AcDbEntity
  8
0
  6
CONTINUOUS
 62
               7
100
AcDbLine
 10
-14.0
 20
67.200000010812772
 30
0.0
 11
14.000000000000227
 21
67.200000010812772
 31
0.0
  0
LINE
  5
E1
100
AcDbEntity
  8
0
  6
CONTINUOUS
 62
               7
100
AcDbLine
 10
12.0
 20
67.200000010812772
 30
0.0
 11
12.0
 21
67.600000010812863
 31
0.0
  0
LINE
  5
E2
100
AcDbEntity
  8
0
  6
CONTINUOUS
 62
               7
100
AcDbLine
 10
-12.0
 20
67.200000010812772
 30
0.0
 11
-12.0
 21
67.600000010812863
 31
0.0
  0
LINE
  5
E3
100
AcDbEntity
  8
0
  6
CONTINUOUS
 62
               7
100
AcDbLine
 10
0.0
 20
10.850000010812778
 30
0.0
 11
0.0
 21
14.850000010812778
 31
0.0
  0
LINE
  5
E4
100
AcDbEntity
  8
0
  6
CONTINUOUS
 62
               2
100
AcDbLine
 10
12.000000000000114
 20
-2.5
 30
0.0
 11
12.000000000000114
 21
2.5
 31
0.0
  0
LINE
  5
E5
100
AcDbEntity
  8
0
  6
CONTINUOUS
 62
               2
100
AcDbLine
 10
-11.999999999999886
 20
-2.5
 30
0.0
 11
-11.999999999999886
 21
2.5
 31
0.0
  0
LINE
  5
E6
100
AcDbEntity
  8
0
  6
CONTINUOUS
 62
               2
100
AcDbLine
 10
0.0
 20
-4.1999999999998323
 30
0.0
 11
0.0
 21
73.600000010812877
 31
0.0
  0
ENDBLK
  5
E7
100
AcDbEntity
  8
0
100
AcDbBlockEnd
  0
BLOCK
  5
E8
100
AcDbEntity
  8
0
100
AcDbBlockBegin
  2
KFPV050-3
 70
               0
 10
0.0
 20
0.0
 30
0.0
  3
KFPV050-3
  1

  0
LINE
  5
E9
100
AcDbEntity
  8
0
  6
CONTINUOUS
 62
               7
100
AcDbLine
 10
-7.5
 20
12.400000005406355
 30
0.0
 11
-7.5
 21
14.1000000054064
 31
0.0
  0
LINE
  5
EA
100
AcDbEntity
  8
0
  6
CONTINUOUS
 62
               7
100
AcDbLine
 10
1.5
 20
11.550000005406389
 30
0.0
 11
1.5
 21
12.400000005406355
 31
0.0
  0
LINE
  5
EB
100
AcDbEntity
  8
0
  6
CONTINUOUS
 62
               7
100
AcDbLine
 10
1.5
 20
12.400000005406355
 30
0.0
 11
-7.5
 21
12.400000005406355
 31
0.0
  0
LINE
  5
EC
100
AcDbEntity
  8
0
  6
CONTINUOUS
 62
               7
100
AcDbLine
 10
1.5
 20
14.1000000054064
 30
0.0
 11
-7.5
 21
14.1000000054064
 31
0.0
  0
LINE
  5
ED
100
AcDbEntity
  8
0
  6
CONTINUOUS
 62
               7
100
AcDbLine
 10
1.5
 20
11.550000005406389
 30
0.0
 11
9.0
 21
13.250000005406378
 31
0.0
  0
LINE
  5
EE
100
AcDbEntity
  8
0
  6
CONTINUOUS
 62
               7
100
AcDbLine
 10
1.5
 20
14.950000005406366
 30
0.0
 11
9.0
 21
13.250000005406378
 31
0.0
  0
LINE
  5
EF
100
AcDbEntity
  8
0
  6
CONTINUOUS
 62
               7
100
AcDbLine
 10
1.5
 20
14.1000000054064
 30
0.0
 11
1.5
 21
14.950000005406366
 31
0.0
  0
LINE
  5
F0
100
AcDbEntity
  8
0
  6
CONTINUOUS
 62
               7
100
AcDbLine
 10
-22.699999999999932
 20
26.500000010812755
 30
0.0
 11
-23.0
 21
26.200000010812687
 31
0.0
  0
LINE
  5
F1
100
AcDbEntity
  8
0
  6
CONTINUOUS
 62
               7
100
AcDbLine
 10
-23.0
 20
0.3000000000000114
 30
0.0
 11
-22.699999999999932
 21
0.0
 31
0.0
  0
LINE
  5
F2
100
AcDbEntity
  8
0
  6
CONTINUOUS
 62
               7
100
AcDbLine
 10
-23.0
 20
0.3000000000000114
 30
0.0
 11
-23.0
 21
26.200000010812687
 31
0.0
  0
LINE
  5
F3
100
AcDbEntity
  8
0
  6
CONTINUOUS
 62
               7
100
AcDbLine
 10
-16.5
 20
30.000000010812755
 30
0.0
 11
-16.5
 21
65.200000010812801
 31
0.0
  0
LINE
  5
F4
100
AcDbEntity
  8
0
  6
CONTINUOUS
 62
               7
100
AcDbLine
 10
-16.0
 20
26.500000010812755
 30
0.0
 11
-16.0
 21
30.000000010812755
 31
0.0
  0
LINE
  5
F5
100
AcDbEntity
  8
0
  6
CONTINUOUS
 62
               7
100
AcDbLine
 10
12.0
 20
67.200000010812772
 30
0.0
 11
12.0
 21
67.600000010812863
 31
0.0
  0
LINE
  5
F6
100
AcDbEntity
  8
0
  6
CONTINUOUS
 62
               7
100
AcDbLine
 10
-12.0
 20
67.200000010812772
 30
0.0
 11
-12.0
 21
67.600000010812863
 31
0.0
  0
LINE
  5
F7
100
AcDbEntity
  8
0
  6
CONTINUOUS
 62
               7
100
AcDbLine
 10
14.017540966287243
 20
67.200000010812772
 30
0.0
 11
-14.017540966287356
 21
67.200000010812772
 31
0.0
  0
LINE
  5
F8
100
AcDbEntity
  8
0
  6
CONTINUOUS
 62
               7
100
AcDbLine
 10
-9.8149546191140189
 20
68.359189417447965
 30
0.0
 11
-8.5
 21
67.600000010812835
 31
0.0
  0
LINE
  5
F9
100
AcDbEntity
  8
0
  6
CONTINUOUS
 62
               7
100
AcDbLine
 10
8.5
 20
67.600000010812835
 30
0.0
 11
9.8149546191139052
 21
68.359189417447965
 31
0.0
  0
ARC
  5
FA
100
AcDbEntity
  8
0
  6
CONTINUOUS
 62
               7
100
AcDbCircle
 10
7.3612158999999338
 20
71.944898585162719
 30
0.0
 40
4.3448985737996324
100
AcDbArc
 50
235.61575217669838
 51
295.61575733702864
  0
ARC
  5
FB
100
AcDbEntity
  8
0
  6
CONTINUOUS
 62
               7
100
AcDbCircle
 10
0.0
 20
83.840810198259476
 30
0.0
 40
16.240810187446638
100
AcDbArc
 50
252.41204566130122
 51
287.58795433869875
  0
ARC
  5
FC
100
AcDbEntity
  8
0
  6
CONTINUOUS
 62
               7
100
AcDbCircle
 10
-7.3612159000000474
 20
71.944898585162719
 30
0.0
 40
4.3448985737996324
100
AcDbArc
 50
244.38424266297136
 51
304.38424782330168
  0
LINE
  5
FD
100
AcDbEntity
  8
0
  6
CONTINUOUS
 62
               7
100
AcDbLine
 10
6.0
 20
71.30000001081271
 30
0.0
 11
-6.0
 21
71.30000001081271
 31
0.0
  0
LINE
  5
FE
100
AcDbEntity
  8
0
  6
CONTINUOUS
 62
               2
100
AcDbLine
 10
5.5
 20
71.30000001081271
 30
0.0
 11
5.5
 21
70.600000010812892
 31
0.0
  0
LINE
  5
FF
100
AcDbEntity
  8
0
  6
CONTINUOUS
 62
               2
100
AcDbLine
 10
-5.5
 20
71.30000001081271
 30
0.0
 11
-5.5
 21
70.600000010812892
 31
0.0
  0
LINE
  5
100
100
AcDbEntity
  8
0
  6
CONTINUOUS
 62
               7
100
AcDbLine
 10
6.0
 20
71.30000001081271
 30
0.0
 11
6.0
 21
70.600000010812892
 31
0.0
  0
LINE
  5
101
100
AcDbEntity
  8
0
  6
CONTINUOUS
 62
               7
100
AcDbLine
 10
6.0
 20
71.30000001081271
 30
0.0
 11
5.5
 21
71.80000001081271
 31
0.0
  0
LINE
  5
102
100
AcDbEntity
  8
0
  6
CONTINUOUS
 62
               7
100
AcDbLine
 10
-6.0
 20
71.30000001081271
 30
0.0
 11
-6.0
 21
70.600000010812892
 31
0.0
  0
LINE
  5
103
100
AcDbEntity
  8
0
  6
CONTINUOUS
 62
               7
100
AcDbLine
 10
8.5
 20
70.600000010812892
 30
0.0
 11
9.8149546191139052
 21
69.840810604177761
 31
0.0
  0
LINE
  5
104
100
AcDbEntity
  8
0
  6
CONTINUOUS
 62
               7
100
AcDbLine
 10
9.8149546191139052
 20
69.840810604177761
 30
0.0
 11
9.8149546191139052
 21
68.359189417447965
 31
0.0
  0
LINE
  5
105
100
AcDbEntity
  8
0
  6
CONTINUOUS
 62
               7
100
AcDbLine
 10
4.9074773095569526
 20
68.359189374089269
 30
0.0
 11
4.9074773095569526
 21
69.840810604177761
 31
0.0
  0
ARC
  5
106
100
AcDbEntity
  8
0
  6
CONTINUOUS
 62
               7
100
AcDbCircle
 10
7.3612158999999338
 20
66.255101436463008
 30
0.0
 40
4.3448985737996324
100
AcDbArc
 50
64.384242662971346
 51
124.38424782330162
  0
LINE
  5
107
100
AcDbEntity
  8
0
  6
CONTINUOUS
 62
               7
100
AcDbLine
 10
-4.9074773095569526
 20
68.359189417447993
 30
0.0
 11
-4.9074773095569526
 21
69.840810604177761
 31
0.0
  0
ARC
  5
108
100
AcDbEntity
  8
0
  6
CONTINUOUS
 62
               7
100
AcDbCircle
 10
0.0
 20
54.35918982336625
 30
0.0
 40
16.240810187446638
100
AcDbArc
 50
72.412045661301235
 51
107.58795433869876
  0
LINE
  5
109
100
AcDbEntity
  8
0
  6
CONTINUOUS
 62
               7
100
AcDbLine
 10
-9.8149546191140189
 20
69.840810604177761
 30
0.0
 11
-8.5
 21
70.600000010812892
 31
0.0
  0
LINE
  5
10A
100
AcDbEntity
  8
0
  6
CONTINUOUS
 62
               7
100
AcDbLine
 10
-8.5
 20
70.600000010812892
 30
0.0
 11
8.5
 21
70.600000010812892
 31
0.0
  0
ARC
  5
10B
100
AcDbEntity
  8
0
  6
CONTINUOUS
 62
               7
100
AcDbCircle
 10
-7.3612159000000474
 20
66.255101436463008
 30
0.0
 40
4.3448985737996324
100
AcDbArc
 50
55.615752176698344
 51
115.61575733702865
  0
LINE
  5
10C
100
AcDbEntity
  8
0
  6
CONTINUOUS
 62
               7
100
AcDbLine
 10
-9.8149546191140189
 20
68.359189417447965
 30
0.0
 11
-9.8149546191140189
 21
69.840810604177761
 31
0.0
  0
LINE
  5
10D
100
AcDbEntity
  8
0
  6
CONTINUOUS
 62
               7
100
AcDbLine
 10
23.0
 20
0.3000000000000114
 30
0.0
 11
22.700000000000045
 21
0.0
 31
0.0
  0
LINE
  5
10E
100
AcDbEntity
  8
0
  6
CONTINUOUS
 62
               7
100
AcDbLine
 10
22.700000000000045
 20
26.500000010812755
 30
0.0
 11
23.0
 21
26.200000010812744
 31
0.0
  0
LINE
  5
10F
100
AcDbEntity
  8
0
  6
CONTINUOUS
 62
               7
100
AcDbLine
 10
23.0
 20
0.3000000000000114
 30
0.0
 11
23.0
 21
26.200000010812744
 31
0.0
  0
ARC
  5
110
100
AcDbEntity
  8
0
  6
CONTINUOUS
 62
               7
100
AcDbCircle
 10
12.0
 20
17.250000005406378
 30
0.0
 40
0.5
100
AcDbArc
 50
0.0
 51
90.0
  0
ARC
  5
111
100
AcDbEntity
  8
0
  6
CONTINUOUS
 62
               7
100
AcDbCircle
 10
-12.0
 20
17.250000005406378
 30
0.0
 40
0.5
100
AcDbArc
 50
90.0
 51
180.0
  0
ARC
  5
112
100
AcDbEntity
  8
0
  6
CONTINUOUS
 62
               7
100
AcDbCircle
 10
-12.0
 20
9.2500000054063776
 30
0.0
 40
0.5
100
AcDbArc
 50
180.0
 51
270.0
  0
ARC
  5
113
100
AcDbEntity
  8
0
  6
CONTINUOUS
 62
               7
100
AcDbCircle
 10
12.0
 20
9.2500000054063776
 30
0.0
 40
0.5
100
AcDbArc
 50
270.0
 51
0.0
  0
LINE
  5
114
100
AcDbEntity
  8
0
  6
CONTINUOUS
 62
               7
100
AcDbLine
 10
12.0
 20
17.750000005406378
 30
0.0
 11
-12.0
 21
17.750000005406378
 31
0.0
  0
LINE
  5
115
100
AcDbEntity
  8
0
  6
CONTINUOUS
 62
               7
100
AcDbLine
 10
-12.5
 20
9.2500000054063776
 30
0.0
 11
-12.5
 21
17.250000005406378
 31
0.0
  0
LINE
  5
116
100
AcDbEntity
  8
0
  6
CONTINUOUS
 62
               7
100
AcDbLine
 10
12.5
 20
9.2500000054063776
 30
0.0
 11
12.5
 21
17.250000005406378
 31
0.0
  0
LINE
  5
117
100
AcDbEntity
  8
0
  6
CONTINUOUS
 62
               7
100
AcDbLine
 10
12.0
 20
8.7500000054063776
 30
0.0
 11
-12.0
 21
8.7500000054063776
 31
0.0
  0
LINE
  5
118
100
AcDbEntity
  8
0
  6
CONTINUOUS
 62
               7
100
AcDbLine
 10
-12.0
 20
67.600000010812863
 30
0.0
 11
12.0
 21
67.600000010812863
 31
0.0
  0
ARC
  5
119
100
AcDbEntity
  8
0
  6
CONTINUOUS
 62
               7
100
AcDbCircle
 10
14.5
 20
65.200000010812772
 30
0.0
 40
2.0
100
AcDbArc
 50
0.0000000000006107
 51
90.0
  0
LINE
  5
11A
100
AcDbEntity
  8
0
  6
CONTINUOUS
 62
               7
100
AcDbLine
 10
16.5
 20
30.000000010812755
 30
0.0
 11
-16.5
 21
30.000000010812755
 31
0.0
  0
LINE
  5
11B
100
AcDbEntity
  8
0
  6
CONTINUOUS
 62
               7
100
AcDbLine
 10
16.5
 20
30.000000010812755
 30
0.0
 11
16.5
 21
65.200000010812801
 31
0.0
  0
LINE
  5
11C
100
AcDbEntity
  8
0
  6
CONTINUOUS
 62
               7
100
AcDbLine
 10
14.5
 20
67.200000010812772
 30
0.0
 11
14.017540966287243
 21
67.200000010812772
 31
0.0
  0
LINE
  5
11D
100
AcDbEntity
  8
0
  6
CONTINUOUS
 62
               7
100
AcDbLine
 10
-14.017540966287356
 20
67.200000010812772
 30
0.0
 11
-14.5
 21
67.200000010812772
 31
0.0
  0
LINE
  5
11E
100
AcDbEntity
  8
0
  6
CONTINUOUS
 62
               7
100
AcDbLine
 10
13.999999999999773
 20
30.000000010812755
 30
0.0
 11
14.0
 21
67.200000010812772
 31
0.0
  0
LINE
  5
11F
100
AcDbEntity
  8
0
  6
CONTINUOUS
 62
               7
100
AcDbLine
 10
-14.0
 20
30.000000010812755
 30
0.0
 11
-14.000000000000341
 21
67.200000010812772
 31
0.0
  0
LINE
  5
120
100
AcDbEntity
  8
0
  6
CONTINUOUS
 62
               7
100
AcDbLine
 10
16.0
 20
26.500000010812755
 30
0.0
 11
16.0
 21
30.000000010812755
 31
0.0
  0
LINE
  5
121
100
AcDbEntity
  8
0
  6
CONTINUOUS
 62
               7
100
AcDbLine
 10
-6.0
 20
71.30000001081271
 30
0.0
 11
-5.5
 21
71.80000001081271
 31
0.0
  0
LINE
  5
122
100
AcDbEntity
  8
0
  6
CONTINUOUS
 62
               7
100
AcDbLine
 10
5.5
 20
71.80000001081271
 30
0.0
 11
-5.5
 21
71.80000001081271
 31
0.0
  0
LINE
  5
123
100
AcDbEntity
  8
0
  6
CONTINUOUS
 62
               7
100
AcDbLine
 10
22.700000000000045
 20
26.500000010812755
 30
0.0
 11
-22.699999999999932
 21
26.500000010812755
 31
0.0
  0
LINE
  5
124
100
AcDbEntity
  8
0
  6
CONTINUOUS
 62
               7
100
AcDbLine
 10
-22.699999999999932
 20
0.0
 30
0.0
 11
22.700000000000045
 21
0.0
 31
0.0
  0
ARC
  5
125
100
AcDbEntity
  8
0
  6
CONTINUOUS
 62
               7
100
AcDbCircle
 10
-14.5
 20
65.200000010812772
 30
0.0
 40
2.0
100
AcDbArc
 50
89.999999999999986
 51
179.99999999999937
  0
LINE
  5
126
100
AcDbEntity
  8
0
  6
CONTINUOUS
 62
               2
100
AcDbLine
 10
12.000000000000114
 20
-2.5
 30
0.0
 11
12.000000000000114
 21
2.5
 31
0.0
  0
LINE
  5
127
100
AcDbEntity
  8
0
  6
CONTINUOUS
 62
               2
100
AcDbLine
 10
-11.999999999999886
 20
-2.5
 30
0.0
 11
-11.999999999999886
 21
2.5
 31
0.0
  0
LINE
  5
128
100
AcDbEntity
  8
0
  6
CONTINUOUS
 62
               2
100
AcDbLine
 10
0.0
 20
-3.0
 30
0.0
 11
0.0
 21
74.80000001081271
 31
0.0
  0
ENDBLK
  5
129
100
AcDbEntity
  8
0
100
AcDbBlockEnd
  0
BLOCK
  5
12A
100
AcDbEntity
  8
0
100
AcDbBlockBegin
  2
KFPV050-4
 70
               0
 10
0.0
 20
0.0
 30
0.0
  3
KFPV050-4
  1

  0
CIRCLE
  5
12B
100
AcDbEntity
  8
0
  6
CONTINUOUS
 62
               7
100
AcDbCircle
 10
0.0
 20
0.0
 30
0.0
 40
5.4584999999999999
  0
CIRCLE
  5
12C
100
AcDbEntity
  8
0
  6
CONTINUOUS
 62
               2
100
AcDbCircle
 10
0.0
 20
0.0
 30
0.0
 40
6.0
  0
CIRCLE
  5
12D
100
AcDbEntity
  8
0
  6
CONTINUOUS
 62
               7
100
AcDbCircle
 10
0.0
 20
0.0
 30
0.0
 40
8.5
  0
LINE
  5
12E
100
AcDbEntity
  8
0
  6
CONTINUOUS
 62
               7
100
AcDbLine
 10
0.0
 20
-9.8149546191139336
 30
0.0
 11
8.5
 21
-4.907477309556981
 31
0.0
  0
LINE
  5
12F
100
AcDbEntity
  8
0
  6
CONTINUOUS
 62
               7
100
AcDbLine
 10
-8.5
 20
-4.907477309556981
 30
0.0
 11
0.0
 21
-9.8149546191139336
 31
0.0
  0
LINE
  5
130
100
AcDbEntity
  8
0
  6
CONTINUOUS
 62
               7
100
AcDbLine
 10
-8.5
 20
4.907477309556981
 30
0.0
 11
-8.5
 21
-4.907477309556981
 31
0.0
  0
LINE
  5
131
100
AcDbEntity
  8
0
  6
CONTINUOUS
 62
               7
100
AcDbLine
 10
0.0
 20
9.8149546191139336
 30
0.0
 11
-8.5
 21
4.907477309556981
 31
0.0
  0
LINE
  5
132
100
AcDbEntity
  8
0
  6
CONTINUOUS
 62
               7
100
AcDbLine
 10
8.5
 20
4.907477309556981
 30
0.0
 11
0.0
 21
9.8149546191139336
 31
0.0
  0
LINE
  5
133
100
AcDbEntity
  8
0
  6
CONTINUOUS
 62
               7
100
AcDbLine
 10
8.5
 20
-4.907477309556981
 30
0.0
 11
8.5
 21
4.907477309556981
 31
0.0
  0
CIRCLE
  5
134
100
AcDbEntity
  8
0
  6
CONTINUOUS
 62
               7
100
AcDbCircle
 10
0.0
 20
0.0
 30
0.0
 40
12.0
  0
LINE
  5
135
100
AcDbEntity
  8
0
  6
CONTINUOUS
 62
               2
100
AcDbLine
 10
-65.199999999999932
 20
0.0
 30
0.0
 11
22.5
 21
0.0
 31
0.0
  0
LINE
  5
136
100
AcDbEntity
  8
0
  6
CONTINUOUS
 62
               2
100
AcDbLine
 10
0.0
 20
-26.000000000000028
 30
0.0
 11
0.0
 21
26.000000000000028
 31
0.0
  0
ARC
  5
137
100
AcDbEntity
  8
0
  6
CONTINUOUS
 62
               7
100
AcDbCircle
 10
-14.631963355721155
 20
-24.0
 30
0.0
 40
10.0
100
AcDbArc
 50
69.999999999999815
 51
89.999999999999943
  0
ARC
  5
138
100
AcDbEntity
  8
0
  6
CONTINUOUS
 62
               7
100
AcDbCircle
 10
-4.2367301929153882
 20
-6.5
 30
0.0
 40
10.0
100
AcDbArc
 50
249.99999999999991
 51
270.0
  0
ARC
  5
139
100
AcDbEntity
  8
0
  6
CONTINUOUS
 62
               7
100
AcDbCircle
 10
4.2367301929152745
 20
-6.5
 30
0.0
 40
10.0
100
AcDbArc
 50
270.0
 51
290.00000000000006
  0
ARC
  5
13A
100
AcDbEntity
  8
0
  6
CONTINUOUS
 62
               7
100
AcDbCircle
 10
17.500000000000909
 20
-9.1218089885120719
 30
0.0
 40
2.9999999999986264
100
AcDbArc
 50
289.99999999999181
 51
325.0000000000079
  0
ARC
  5
13B
100
AcDbEntity
  8
0
  6
CONTINUOUS
 62
               7
100
AcDbCircle
 10
17.500000000002956
 20
-9.1218089885118445
 30
0.0
 40
2.9999999999969944
100
AcDbArc
 50
324.99999999998113
 51
0.0000000000179129
  0
ARC
  5
13C
100
AcDbEntity
  8
0
  6
CONTINUOUS
 62
               7
100
AcDbCircle
 10
17.500000000001251
 20
9.1218089885112761
 30
0.0
 40
2.9999999999987992
100
AcDbArc
 50
359.99999999999295
 51
35.00000000000734
  0
ARC
  5
13D
100
AcDbEntity
  8
0
  6
CONTINUOUS
 62
               7
100
AcDbCircle
 10
17.500000000001933
 20
9.1218089885134361
 30
0.0
 40
2.9999999999969638
100
AcDbArc
 50
34.999999999981846
 51
70.000000000018289
  0
ARC
  5
13E
100
AcDbEntity
  8
0
  6
CONTINUOUS
 62
               7
100
AcDbCircle
 10
4.2367301929152745
 20
6.4999999999999716
 30
0.0
 40
10.000000000000002
100
AcDbArc
 50
70.000000000000028
 51
90.000000000000057
  0
ARC
  5
13F
100
AcDbEntity
  8
0
  6
CONTINUOUS
 62
               7
100
AcDbCircle
 10
-4.2367301929152745
 20
6.4999999999999716
 30
0.0
 40
10.0
100
AcDbArc
 50
90.0
 51
110.00000000000004
  0
ARC
  5
140
100
AcDbEntity
  8
0
  6
CONTINUOUS
 62
               7
100
AcDbCircle
 10
-14.631963355721155
 20
24.0
 30
0.0
 40
10.000000000000007
100
AcDbArc
 50
270.0
 51
290.00000000000017
  0
LINE
  5
141
100
AcDbEntity
  8
0
  6
CONTINUOUS
 62
               7
100
AcDbLine
 10
-22.5
 20
-14.000000000000256
 30
0.0
 11
-27.0
 21
-14.000000000000028
 31
0.0
  0
LINE
  5
142
100
AcDbEntity
  8
0
  6
CONTINUOUS
 62
               7
100
AcDbLine
 10
-26.999999999999886
 20
13.999999999999602
 30
0.0
 11
-14.631963355721155
 21
14.0
 31
0.0
  0
LINE
  5
143
100
AcDbEntity
  8
0
  6
CONTINUOUS
 62
               7
100
AcDbLine
 10
-14.631963355721155
 20
-14.000000000000028
 30
0.0
 11
-22.5
 21
-14.000000000000256
 31
0.0
  0
LINE
  5
144
100
AcDbEntity
  8
0
  6
CONTINUOUS
 62
               7
100
AcDbLine
 10
-7.6569316261720815
 20
-15.896926207859082
 30
0.0
 11
-11.211761922464461
 21
-14.603073792140918
 31
0.0
  0
LINE
  5
145
100
AcDbEntity
  8
0
  6
CONTINUOUS
 62
               7
100
AcDbLine
 10
4.2367301929152745
 20
-16.5
 30
0.0
 11
-4.2367301929153882
 21
-16.5
 31
0.0
  0
LINE
  5
146
100
AcDbEntity
  8
0
  6
CONTINUOUS
 62
               7
100
AcDbLine
 10
18.526060429976951
 20
-11.940886850868623
 30
0.0
 11
7.6569316261719678
 21
-15.896926207859082
 31
0.0
  0
LINE
  5
147
100
AcDbEntity
  8
0
  6
CONTINUOUS
 62
               7
100
AcDbLine
 10
20.5
 20
9.1218089885109066
 30
0.0
 11
20.5
 21
-9.1218089885109066
 31
0.0
  0
LINE
  5
148
100
AcDbEntity
  8
0
  6
CONTINUOUS
 62
               7
100
AcDbLine
 10
7.6569316261719678
 20
15.896926207859082
 30
0.0
 11
18.526060429976951
 21
11.940886850868623
 31
0.0
  0
LINE
  5
149
100
AcDbEntity
  8
0
  6
CONTINUOUS
 62
               7
100
AcDbLine
 10
-4.2367301929152745
 20
16.5
 30
0.0
 11
4.2367301929152745
 21
16.5
 31
0.0
  0
LINE
  5
14A
100
AcDbEntity
  8
0
  6
CONTINUOUS
 62
               7
100
AcDbLine
 10
-11.211761922464461
 20
14.603073792140918
 30
0.0
 11
-7.6569316261719678
 21
15.896926207859082
 31
0.0
  0
ARC
  5
14B
100
AcDbEntity
  8
0
  6
CONTINUOUS
 62
               7
100
AcDbCircle
 10
11.5
 20
-11.5
 30
0.0
 40
4.0
100
AcDbArc
 50
244.77609322822698
 51
335.22390677177327
  0
ARC
  5
14C
100
AcDbEntity
  8
0
  6
CONTINUOUS
 62
               7
100
AcDbCircle
 10
-11.5
 20
-11.5
 30
0.0
 40
4.0
100
AcDbArc
 50
218.6822696970938
 51
295.2239067717731
  0
ARC
  5
14D
100
AcDbEntity
  8
0
  6
CONTINUOUS
 62
               7
100
AcDbCircle
 10
-11.5
 20
11.5
 30
0.0
 40
4.0
100
AcDbArc
 50
64.776093228226685
 51
141.31781254651051
  0
ARC
  5
14E
100
AcDbEntity
  8
0
  6
CONTINUOUS
 62
               7
100
AcDbCircle
 10
11.5
 20
11.5
 30
0.0
 40
4.0
100
AcDbArc
 50
24.776093228226713
 51
115.22390677177316
  0
LINE
  5
14F
100
AcDbEntity
  8
0
  6
CONTINUOUS
 62
               7
100
AcDbLine
 10
-16.0
 20
16.0
 30
0.0
 11
-7.6569316261719678
 21
16.0
 31
0.0
  0
LINE
  5
150
100
AcDbEntity
  8
0
  6
CONTINUOUS
 62
               7
100
AcDbLine
 10
-16.0
 20
-16.0
 30
0.0
 11
-7.3737387097272631
 21
-16.0
 31
0.0
  0
LINE
  5
151
100
AcDbEntity
  8
0
  6
CONTINUOUS
 62
               7
100
AcDbLine
 10
-42.099999999999909
 20
13.75
 30
0.0
 11
-26.999999999999886
 21
13.75
 31
0.0
  0
LINE
  5
152
100
AcDbEntity
  8
0
  6
CONTINUOUS
 62
               7
100
AcDbLine
 10
-45.099999999999909
 20
13.75
 30
0.0
 11
-43.599999999999909
 21
13.75
 31
0.0
  0
LINE
  5
153
100
AcDbEntity
  8
0
  6
CONTINUOUS
 62
               7
100
AcDbLine
 10
-49.599999999999909
 20
13.75
 30
0.0
 11
-46.599999999999909
 21
13.75
 31
0.0
  0
LINE
  5
154
100
AcDbEntity
  8
0
  6
CONTINUOUS
 62
               7
100
AcDbLine
 10
-52.599999999999909
 20
13.75
 30
0.0
 11
-51.099999999999909
 21
13.75
 31
0.0
  0
LINE
  5
155
100
AcDbEntity
  8
0
  6
CONTINUOUS
 62
               7
100
AcDbLine
 10
-57.099999999999909
 20
13.75
 30
0.0
 11
-54.099999999999909
 21
13.75
 31
0.0
  0
LINE
  5
156
100
AcDbEntity
  8
0
  6
CONTINUOUS
 62
               7
100
AcDbLine
 10
-42.099999999999909
 20
-13.75
 30
0.0
 11
-26.999999999999886
 21
-13.75
 31
0.0
  0
LINE
  5
157
100
AcDbEntity
  8
0
  6
CONTINUOUS
 62
               7
100
AcDbLine
 10
-45.099999999999909
 20
-13.75
 30
0.0
 11
-43.599999999999909
 21
-13.75
 31
0.0
  0
LINE
  5
158
100
AcDbEntity
  8
0
  6
CONTINUOUS
 62
               7
100
AcDbLine
 10
-49.599999999999909
 20
-13.75
 30
0.0
 11
-46.599999999999909
 21
-13.75
 31
0.0
  0
LINE
  5
159
100
AcDbEntity
  8
0
  6
CONTINUOUS
 62
               7
100
AcDbLine
 10
-52.599999999999909
 20
-13.75
 30
0.0
 11
-51.099999999999909
 21
-13.75
 31
0.0
  0
LINE
  5
15A
100
AcDbEntity
  8
0
  6
CONTINUOUS
 62
               7
100
AcDbLine
 10
-57.099999999999909
 20
-13.75
 30
0.0
 11
-54.099999999999909
 21
-13.75
 31
0.0
  0
LINE
  5
15B
100
AcDbEntity
  8
0
  6
CONTINUOUS
 62
               7
100
AcDbLine
 10
-43.599999999999909
 20
13.349999999999994
 30
0.0
 11
-42.099999999999909
 21
13.349999999999994
 31
0.0
  0
LINE
  5
15C
100
AcDbEntity
  8
0
  6
CONTINUOUS
 62
               7
100
AcDbLine
 10
-46.599999999999909
 20
13.349999999999994
 30
0.0
 11
-45.099999999999909
 21
13.349999999999994
 31
0.0
  0
LINE
  5
15D
100
AcDbEntity
  8
0
  6
CONTINUOUS
 62
               7
100
AcDbLine
 10
-51.099999999999909
 20
13.349999999999994
 30
0.0
 11
-49.599999999999909
 21
13.349999999999994
 31
0.0
  0
LINE
  5
15E
100
AcDbEntity
  8
0
  6
CONTINUOUS
 62
               7
100
AcDbLine
 10
-54.099999999999909
 20
13.349999999999994
 30
0.0
 11
-52.599999999999909
 21
13.349999999999994
 31
0.0
  0
LINE
  5
15F
100
AcDbEntity
  8
0
  6
CONTINUOUS
 62
               7
100
AcDbLine
 10
-43.599999999999909
 20
-13.349999999999994
 30
0.0
 11
-42.099999999999909
 21
-13.349999999999994
 31
0.0
  0
LINE
  5
160
100
AcDbEntity
  8
0
  6
CONTINUOUS
 62
               7
100
AcDbLine
 10
-46.599999999999909
 20
-13.349999999999994
 30
0.0
 11
-45.099999999999909
 21
-13.349999999999994
 31
0.0
  0
LINE
  5
161
100
AcDbEntity
  8
0
  6
CONTINUOUS
 62
               7
100
AcDbLine
 10
-51.099999999999909
 20
-13.349999999999994
 30
0.0
 11
-49.599999999999909
 21
-13.349999999999994
 31
0.0
  0
LINE
  5
162
100
AcDbEntity
  8
0
  6
CONTINUOUS
 62
               7
100
AcDbLine
 10
-54.099999999999909
 20
-13.349999999999994
 30
0.0
 11
-52.599999999999909
 21
-13.349999999999994
 31
0.0
  0
LINE
  5
163
100
AcDbEntity
  8
0
  6
CONTINUOUS
 62
               7
100
AcDbLine
 10
-42.099999999999909
 20
-13.75
 30
0.0
 11
-42.099999999999909
 21
13.75
 31
0.0
  0
LINE
  5
164
100
AcDbEntity
  8
0
  6
CONTINUOUS
 62
               7
100
AcDbLine
 10
-43.599999999999909
 20
-13.75
 30
0.0
 11
-43.599999999999909
 21
13.75
 31
0.0
  0
LINE
  5
165
100
AcDbEntity
  8
0
  6
CONTINUOUS
 62
               7
100
AcDbLine
 10
-45.099999999999909
 20
-13.75
 30
0.0
 11
-45.099999999999909
 21
13.75
 31
0.0
  0
LINE
  5
166
100
AcDbEntity
  8
0
  6
CONTINUOUS
 62
               7
100
AcDbLine
 10
-46.599999999999909
 20
-13.75
 30
0.0
 11
-46.599999999999909
 21
13.75
 31
0.0
  0
LINE
  5
167
100
AcDbEntity
  8
0
  6
CONTINUOUS
 62
               7
100
AcDbLine
 10
-49.599999999999909
 20
-13.75
 30
0.0
 11
-49.599999999999909
 21
13.75
 31
0.0
  0
LINE
  5
168
100
AcDbEntity
  8
0
  6
CONTINUOUS
 62
               7
100
AcDbLine
 10
-51.099999999999909
 20
-13.75
 30
0.0
 11
-51.099999999999909
 21
13.75
 31
0.0
  0
LINE
  5
169
100
AcDbEntity
  8
0
  6
CONTINUOUS
 62
               7
100
AcDbLine
 10
-52.599999999999909
 20
-13.75
 30
0.0
 11
-52.599999999999909
 21
13.75
 31
0.0
  0
LINE
  5
16A
100
AcDbEntity
  8
0
  6
CONTINUOUS
 62
               7
100
AcDbLine
 10
-54.099999999999909
 20
-13.75
 30
0.0
 11
-54.099999999999909
 21
13.75
 31
0.0
  0
LINE
  5
16B
100
AcDbEntity
  8
0
  6
CONTINUOUS
 62
               7
100
AcDbLine
 10
-57.099999999999909
 20
-13.75
 30
0.0
 11
-57.099999999999909
 21
13.75
 31
0.0
  0
LINE
  5
16C
100
AcDbEntity
  8
0
  6
CONTINUOUS
 62
               7
100
AcDbLine
 10
-58.599999999999909
 20
-13.75
 30
0.0
 11
-58.599999999999909
 21
13.75
 31
0.0
  0
LINE
  5
16D
100
AcDbEntity
  8
0
  6
CONTINUOUS
 62
               7
100
AcDbLine
 10
-58.599999999999909
 20
13.349999999999994
 30
0.0
 11
-57.099999999999909
 21
13.349999999999994
 31
0.0
  0
LINE
  5
16E
100
AcDbEntity
  8
0
  6
CONTINUOUS
 62
               7
100
AcDbLine
 10
-58.599999999999909
 20
-13.349999999999994
 30
0.0
 11
-57.099999999999909
 21
-13.349999999999994
 31
0.0
  0
ARC
  5
16F
100
AcDbEntity
  8
0
  6
CONTINUOUS
 62
               7
100
AcDbCircle
 10
-61.199999999999932
 20
11.75
 30
0.0
 40
2.0
100
AcDbArc
 50
90.0
 51
180.0
  0
ARC
  5
170
100
AcDbEntity
  8
0
  6
CONTINUOUS
 62
               7
100
AcDbCircle
 10
-61.199999999999932
 20
-11.75
 30
0.0
 40
2.0
100
AcDbArc
 50
180.0
 51
270.0
  0
LINE
  5
171
100
AcDbEntity
  8
0
  6
CONTINUOUS
 62
               7
100
AcDbLine
 10
-29.0
 20
-13.75
 30
0.0
 11
-29.0
 21
13.75
 31
0.0
  0
LINE
  5
172
100
AcDbEntity
  8
0
  6
CONTINUOUS
 62
               7
100
AcDbLine
 10
-63.199999999999932
 20
-11.75
 30
0.0
 11
-63.199999999999932
 21
11.75
 31
0.0
  0
LINE
  5
173
100
AcDbEntity
  8
0
  6
CONTINUOUS
 62
               7
100
AcDbLine
 10
-61.199999999999932
 20
13.75
 30
0.0
 11
-58.599999999999909
 21
13.75
 31
0.0
  0
LINE
  5
174
100
AcDbEntity
  8
0
  6
CONTINUOUS
 62
               7
100
AcDbLine
 10
-61.199999999999932
 20
-13.75
 30
0.0
 11
-58.599999999999909
 21
-13.75
 31
0.0
  0
LINE
  5
175
100
AcDbEntity
  8
0
  6
CONTINUOUS
 62
               7
100
AcDbLine
 10
-22.500000000000455
 20
-14.000000000000256
 30
0.0
 11
-22.500000000000455
 21
13.999999999999801
 31
0.0
  0
LINE
  5
176
100
AcDbEntity
  8
0
  6
CONTINUOUS
 62
               7
100
AcDbLine
 10
-26.999999999999886
 20
13.999999999999915
 30
0.0
 11
-26.999999999999886
 21
-14.000000000000369
 31
0.0
  0
LINE
  5
177
100
AcDbEntity
  8
0
  6
CONTINUOUS
 62
               7
100
AcDbLine
 10
-16.0
 20
-22.69999999999996
 30
0.0
 11
-16.0
 21
-14.000000000000256
 31
0.0
  0
LINE
  5
178
100
AcDbEntity
  8
0
  6
CONTINUOUS
 62
               7
100
AcDbLine
 10
-15.700000000000045
 20
-23.000000000000028
 30
0.0
 11
15.700000000000045
 21
-23.000000000000028
 31
0.0
  0
LINE
  5
179
100
AcDbEntity
  8
0
  6
CONTINUOUS
 62
               7
100
AcDbLine
 10
15.699999999999932
 20
23.000000000000028
 30
0.0
 11
-15.700000000000045
 21
23.000000000000028
 31
0.0
  0
LINE
  5
17A
100
AcDbEntity
  8
0
  6
CONTINUOUS
 62
               7
100
AcDbLine
 10
16.0
 20
-22.69999999999996
 30
0.0
 11
16.0
 21
-12.860297657337952
 31
0.0
  0
LINE
  5
17B
100
AcDbEntity
  8
0
  6
CONTINUOUS
 62
               7
100
AcDbLine
 10
7.3737387097272631
 20
16.0
 30
0.0
 11
16.0
 21
16.0
 31
0.0
  0
LINE
  5
17C
100
AcDbEntity
  8
0
  6
CONTINUOUS
 62
               7
100
AcDbLine
 10
7.3737387097272631
 20
-16.0
 30
0.0
 11
16.0
 21
-16.0
 31
0.0
  0
CIRCLE
  5
17D
100
AcDbEntity
  8
0
  6
CONTINUOUS
 62
               7
100
AcDbCircle
 10
0.0
 20
0.0
 30
0.0
 40
2.9999999999999716
  0
LINE
  5
17E
100
AcDbEntity
  8
0
  6
CONTINUOUS
 62
               7
100
AcDbLine
 10
-16.0
 20
13.999999999999801
 30
0.0
 11
-16.0
 21
22.700000000000017
 31
0.0
  0
LINE
  5
17F
100
AcDbEntity
  8
0
  6
CONTINUOUS
 62
               7
100
AcDbLine
 10
16.0
 20
12.860297657337952
 30
0.0
 11
16.0
 21
22.700000000000017
 31
0.0
  0
ARC
  5
180
100
AcDbEntity
  8
0
  6
CONTINUOUS
 62
               7
100
AcDbCircle
 10
11.5
 20
11.5
 30
0.0
 40
3.7999999999999998
100
AcDbArc
 50
27.851537121004526
 51
112.14846287899501
  0
ARC
  5
181
100
AcDbEntity
  8
0
  6
CONTINUOUS
 62
               7
100
AcDbCircle
 10
-11.5
 20
11.5
 30
0.0
 40
3.7999999999999998
100
AcDbArc
 50
67.851537121004625
 51
138.78559893515612
  0
ARC
  5
182
100
AcDbEntity
  8
0
  6
CONTINUOUS
 62
               7
100
AcDbCircle
 10
-11.5
 20
-11.5
 30
0.0
 40
3.7999999999999998
100
AcDbArc
 50
221.21440106484397
 51
292.14846287899513
  0
ARC
  5
183
100
AcDbEntity
  8
0
  6
CONTINUOUS
 62
               7
100
AcDbCircle
 10
11.5
 20
-11.5
 30
0.0
 40
3.7999999999999998
100
AcDbArc
 50
247.85153712100498
 51
332.14846287899547
  0
LINE
  5
184
100
AcDbEntity
  8
0
  6
CONTINUOUS
 62
               7
100
AcDbLine
 10
-16.0
 20
22.700000000000045
 30
0.0
 11
-15.700000000000045
 21
23.000000000000057
 31
0.0
  0
LINE
  5
185
100
AcDbEntity
  8
0
  6
CONTINUOUS
 62
               7
100
AcDbLine
 10
15.700000000000045
 20
23.000000000000028
 30
0.0
 11
16.0
 21
22.700000000000017
 31
0.0
  0
LINE
  5
186
100
AcDbEntity
  8
0
  6
CONTINUOUS
 62
               7
100
AcDbLine
 10
-16.0
 20
-22.700000000000017
 30
0.0
 11
-15.700000000000045
 21
-23.000000000000028
 31
0.0
  0
LINE
  5
187
100
AcDbEntity
  8
0
  6
CONTINUOUS
 62
               7
100
AcDbLine
 10
15.700000000000045
 20
-23.000000000000028
 30
0.0
 11
16.0
 21
-22.700000000000017
 31
0.0
  0
ENDBLK
  5
188
100
AcDbEntity
  8
0
100
AcDbBlockEnd
  0
BLOCK
  5
189
100
AcDbEntity
  8
0
100
AcDbBlockBegin
  2
KFPV050-5
 70
               0
 10
0.0
 20
0.0
 30
0.0
  3
KFPV050-5
  1

  0
LINE
  5
18A
100
AcDbEntity
  8
0
  6
CONTINUOUS
 62
               2
100
AcDbLine
 10
0.0
 20
26.0
 30
0.0
 11
0.0
 21
-26.000000000000057
 31
0.0
  0
LINE
  5
18B
100
AcDbEntity
  8
0
  6
CONTINUOUS
 62
               7
100
AcDbLine
 10
-16.0
 20
22.699999999999932
 30
0.0
 11
-16.0
 21
-22.700000000000045
 31
0.0
  0
LINE
  5
18C
100
AcDbEntity
  8
0
  6
CONTINUOUS
 62
               7
100
AcDbLine
 10
16.0
 20
22.699999999999932
 30
0.0
 11
16.0
 21
-22.700000000000045
 31
0.0
  0
LINE
  5
18D
100
AcDbEntity
  8
0
  6
CONTINUOUS
 62
               7
100
AcDbLine
 10
-15.699999999999932
 20
23.0
 30
0.0
 11
15.700000000000045
 21
23.0
 31
0.0
  0
LINE
  5
18E
100
AcDbEntity
  8
0
  6
CONTINUOUS
 62
               7
100
AcDbLine
 10
-16.0
 20
22.699999999999989
 30
0.0
 11
-15.699999999999932
 21
23.0
 31
0.0
  0
LINE
  5
18F
100
AcDbEntity
  8
0
  6
CONTINUOUS
 62
               7
100
AcDbLine
 10
15.700000000000045
 20
23.0
 30
0.0
 11
16.0
 21
22.699999999999989
 31
0.0
  0
LINE
  5
190
100
AcDbEntity
  8
0
  6
CONTINUOUS
 62
               7
100
AcDbLine
 10
-61.199999999999932
 20
13.75
 30
0.0
 11
-58.599999999999795
 21
13.75
 31
0.0
  0
LINE
  5
191
100
AcDbEntity
  8
0
  6
CONTINUOUS
 62
               7
100
AcDbLine
 10
-61.199999999999932
 20
-13.75
 30
0.0
 11
-58.599999999999795
 21
-13.75
 31
0.0
  0
LINE
  5
192
100
AcDbEntity
  8
0
  6
CONTINUOUS
 62
               7
100
AcDbLine
 10
-63.199999999999932
 20
11.75
 30
0.0
 11
-63.199999999999932
 21
-11.75
 31
0.0
  0
LINE
  5
193
100
AcDbEntity
  8
0
  6
CONTINUOUS
 62
               7
100
AcDbLine
 10
-28.999999999999886
 20
13.75
 30
0.0
 11
-28.999999999999886
 21
-13.75
 31
0.0
  0
CIRCLE
  5
194
100
AcDbEntity
  8
0
  6
CONTINUOUS
 62
               7
100
AcDbCircle
 10
-51.949999999999932
 20
0.0
 30
0.0
 40
11.25
  0
LINE
  5
195
100
AcDbEntity
  8
0
  6
CONTINUOUS
 62
               7
100
AcDbLine
 10
-62.699999999999932
 20
0.0
 30
0.0
 11
-57.449999999999932
 21
-9.0932667397366345
 31
0.0
  0
LINE
  5
196
100
AcDbEntity
  8
0
  6
CONTINUOUS
 62
               7
100
AcDbLine
 10
-62.699999999999932
 20
0.0
 30
0.0
 11
-57.449999999999932
 21
9.0932667397365776
 31
0.0
  0
LINE
  5
197
100
AcDbEntity
  8
0
  6
CONTINUOUS
 62
               7
100
AcDbLine
 10
-41.199999999999932
 20
0.0
 30
0.0
 11
-46.449999999999932
 21
-9.0932667397366345
 31
0.0
  0
LINE
  5
198
100
AcDbEntity
  8
0
  6
CONTINUOUS
 62
               7
100
AcDbLine
 10
-41.199999999999932
 20
0.0
 30
0.0
 11
-46.449999999999932
 21
9.0932667397365776
 31
0.0
  0
LINE
  5
199
100
AcDbEntity
  8
0
  6
CONTINUOUS
 62
               7
100
AcDbLine
 10
-46.449999999999932
 20
9.0932667397365776
 30
0.0
 11
-57.449999999999932
 21
9.0932667397365776
 31
0.0
  0
LINE
  5
19A
100
AcDbEntity
  8
0
  6
CONTINUOUS
 62
               7
100
AcDbLine
 10
-57.449999999999932
 20
-9.0932667397366345
 30
0.0
 11
-46.449999999999932
 21
-9.0932667397366345
 31
0.0
  0
ARC
  5
19B
100
AcDbEntity
  8
0
  6
CONTINUOUS
 62
               7
100
AcDbCircle
 10
-61.199999999999932
 20
11.75
 30
0.0
 40
2.0
100
AcDbArc
 50
90.0
 51
180.0
  0
ARC
  5
19C
100
AcDbEntity
  8
0
  6
CONTINUOUS
 62
               7
100
AcDbCircle
 10
-61.199999999999932
 20
-11.75
 30
0.0
 40
2.0
100
AcDbArc
 50
180.0
 51
270.0
  0
LINE
  5
19D
100
AcDbEntity
  8
0
  6
CONTINUOUS
 62
               7
100
AcDbLine
 10
-58.599999999999795
 20
13.75
 30
0.0
 11
-58.599999999999795
 21
9.0741390776205435
 31
0.0
  0
LINE
  5
19E
100
AcDbEntity
  8
0
  6
CONTINUOUS
 62
               7
100
AcDbLine
 10
-57.099999999999795
 20
13.75
 30
0.0
 11
-57.099999999999795
 21
10.001999800039982
 31
0.0
  0
LINE
  5
19F
100
AcDbEntity
  8
0
  6
CONTINUOUS
 62
               7
100
AcDbLine
 10
-54.099999999999795
 20
13.75
 30
0.0
 11
-54.099999999999795
 21
11.042644610780485
 31
0.0
  0
LINE
  5
1A0
100
AcDbEntity
  8
0
  6
CONTINUOUS
 62
               7
100
AcDbLine
 10
-52.599999999999795
 20
13.75
 30
0.0
 11
-52.599999999999795
 21
11.231206524679351
 31
0.0
  0
LINE
  5
1A1
100
AcDbEntity
  8
0
  6
CONTINUOUS
 62
               7
100
AcDbLine
 10
-51.099999999999795
 20
13.75
 30
0.0
 11
-51.099999999999795
 21
11.217842929904123
 31
0.0
  0
LINE
  5
1A2
100
AcDbEntity
  8
0
  6
CONTINUOUS
 62
               7
100
AcDbLine
 10
-49.599999999999795
 20
13.75
 30
0.0
 11
-49.599999999999795
 21
11.001818031580001
 31
0.0
  0
LINE
  5
1A3
100
AcDbEntity
  8
0
  6
CONTINUOUS
 62
               7
100
AcDbLine
 10
-46.599999999999795
 20
13.75
 30
0.0
 11
-46.599999999999795
 21
9.8964640149903289
 31
0.0
  0
LINE
  5
1A4
100
AcDbEntity
  8
0
  6
CONTINUOUS
 62
               7
100
AcDbLine
 10
-45.099999999999795
 20
13.75
 30
0.0
 11
-45.099999999999795
 21
8.9241246069291833
 31
0.0
  0
LINE
  5
1A5
100
AcDbEntity
  8
0
  6
CONTINUOUS
 62
               7
100
AcDbLine
 10
-43.599999999999795
 20
13.75
 30
0.0
 11
-43.599999999999795
 21
7.5392307299882759
 31
0.0
  0
LINE
  5
1A6
100
AcDbEntity
  8
0
  6
CONTINUOUS
 62
               7
100
AcDbLine
 10
-42.099999999999795
 20
13.75
 30
0.0
 11
-42.099999999999795
 21
5.4350712966804053
 31
0.0
  0
LINE
  5
1A7
100
AcDbEntity
  8
0
  6
CONTINUOUS
 62
               7
100
AcDbLine
 10
-58.599999999999795
 20
13.349999999999966
 30
0.0
 11
-57.099999999999795
 21
13.349999999999966
 31
0.0
  0
LINE
  5
1A8
100
AcDbEntity
  8
0
  6
CONTINUOUS
 62
               7
100
AcDbLine
 10
-58.599999999999795
 20
-13.350000000000023
 30
0.0
 11
-57.099999999999795
 21
-13.350000000000023
 31
0.0
  0
LINE
  5
1A9
100
AcDbEntity
  8
0
  6
CONTINUOUS
 62
               7
100
AcDbLine
 10
-58.599999999999795
 20
-9.0741390776205435
 30
0.0
 11
-58.599999999999795
 21
-13.75
 31
0.0
  0
LINE
  5
1AA
100
AcDbEntity
  8
0
  6
CONTINUOUS
 62
               7
100
AcDbLine
 10
-57.099999999999795
 20
-10.001999800040039
 30
0.0
 11
-57.099999999999795
 21
-13.75
 31
0.0
  0
LINE
  5
1AB
100
AcDbEntity
  8
0
  6
CONTINUOUS
 62
               7
100
AcDbLine
 10
-54.099999999999795
 20
-11.042644610780542
 30
0.0
 11
-54.099999999999795
 21
-13.75
 31
0.0
  0
LINE
  5
1AC
100
AcDbEntity
  8
0
  6
CONTINUOUS
 62
               7
100
AcDbLine
 10
-52.599999999999795
 20
-11.231206524679351
 30
0.0
 11
-52.599999999999795
 21
-13.75
 31
0.0
  0
LINE
  5
1AD
100
AcDbEntity
  8
0
  6
CONTINUOUS
 62
               7
100
AcDbLine
 10
-51.099999999999795
 20
-11.217842929904123
 30
0.0
 11
-51.099999999999795
 21
-13.75
 31
0.0
  0
LINE
  5
1AE
100
AcDbEntity
  8
0
  6
CONTINUOUS
 62
               7
100
AcDbLine
 10
-49.599999999999795
 20
-11.001818031580115
 30
0.0
 11
-49.599999999999795
 21
-13.75
 31
0.0
  0
LINE
  5
1AF
100
AcDbEntity
  8
0
  6
CONTINUOUS
 62
               7
100
AcDbLine
 10
-46.599999999999795
 20
-9.8964640149904426
 30
0.0
 11
-46.599999999999795
 21
-13.75
 31
0.0
  0
LINE
  5
1B0
100
AcDbEntity
  8
0
  6
CONTINUOUS
 62
               7
100
AcDbLine
 10
-45.099999999999795
 20
-8.9241246069292401
 30
0.0
 11
-45.099999999999795
 21
-13.75
 31
0.0
  0
LINE
  5
1B1
100
AcDbEntity
  8
0
  6
CONTINUOUS
 62
               7
100
AcDbLine
 10
-43.599999999999795
 20
-7.5392307299882759
 30
0.0
 11
-43.599999999999795
 21
-13.75
 31
0.0
  0
LINE
  5
1B2
100
AcDbEntity
  8
0
  6
CONTINUOUS
 62
               7
100
AcDbLine
 10
-42.099999999999795
 20
-5.4350712966804622
 30
0.0
 11
-42.099999999999795
 21
-13.75
 31
0.0
  0
LINE
  5
1B3
100
AcDbEntity
  8
0
  6
CONTINUOUS
 62
               7
100
AcDbLine
 10
-54.099999999999795
 20
13.349999999999966
 30
0.0
 11
-52.599999999999795
 21
13.349999999999966
 31
0.0
  0
LINE
  5
1B4
100
AcDbEntity
  8
0
  6
CONTINUOUS
 62
               7
100
AcDbLine
 10
-51.099999999999795
 20
13.349999999999966
 30
0.0
 11
-49.599999999999795
 21
13.349999999999966
 31
0.0
  0
LINE
  5
1B5
100
AcDbEntity
  8
0
  6
CONTINUOUS
 62
               7
100
AcDbLine
 10
-46.599999999999795
 20
13.349999999999966
 30
0.0
 11
-45.099999999999795
 21
13.349999999999966
 31
0.0
  0
LINE
  5
1B6
100
AcDbEntity
  8
0
  6
CONTINUOUS
 62
               7
100
AcDbLine
 10
-43.599999999999795
 20
13.349999999999966
 30
0.0
 11
-42.099999999999795
 21
13.349999999999966
 31
0.0
  0
LINE
  5
1B7
100
AcDbEntity
  8
0
  6
CONTINUOUS
 62
               7
100
AcDbLine
 10
-54.099999999999795
 20
-13.350000000000023
 30
0.0
 11
-52.599999999999795
 21
-13.350000000000023
 31
0.0
  0
LINE
  5
1B8
100
AcDbEntity
  8
0
  6
CONTINUOUS
 62
               7
100
AcDbLine
 10
-51.099999999999795
 20
-13.350000000000023
 30
0.0
 11
-49.599999999999795
 21
-13.350000000000023
 31
0.0
  0
LINE
  5
1B9
100
AcDbEntity
  8
0
  6
CONTINUOUS
 62
               7
100
AcDbLine
 10
-46.599999999999795
 20
-13.350000000000023
 30
0.0
 11
-45.099999999999795
 21
-13.350000000000023
 31
0.0
  0
LINE
  5
1BA
100
AcDbEntity
  8
0
  6
CONTINUOUS
 62
               7
100
AcDbLine
 10
-43.599999999999795
 20
-13.350000000000023
 30
0.0
 11
-42.099999999999795
 21
-13.350000000000023
 31
0.0
  0
LINE
  5
1BB
100
AcDbEntity
  8
0
  6
CONTINUOUS
 62
               7
100
AcDbLine
 10
-57.099999999999795
 20
13.75
 30
0.0
 11
-54.099999999999795
 21
13.75
 31
0.0
  0
LINE
  5
1BC
100
AcDbEntity
  8
0
  6
CONTINUOUS
 62
               7
100
AcDbLine
 10
-52.599999999999795
 20
13.75
 30
0.0
 11
-51.099999999999795
 21
13.75
 31
0.0
  0
LINE
  5
1BD
100
AcDbEntity
  8
0
  6
CONTINUOUS
 62
               7
100
AcDbLine
 10
-49.599999999999795
 20
13.75
 30
0.0
 11
-46.599999999999795
 21
13.75
 31
0.0
  0
LINE
  5
1BE
100
AcDbEntity
  8
0
  6
CONTINUOUS
 62
               7
100
AcDbLine
 10
-45.099999999999795
 20
13.75
 30
0.0
 11
-43.599999999999795
 21
13.75
 31
0.0
  0
LINE
  5
1BF
100
AcDbEntity
  8
0
  6
CONTINUOUS
 62
               7
100
AcDbLine
 10
-42.099999999999795
 20
13.75
 30
0.0
 11
-26.999999999999886
 21
13.75
 31
0.0
  0
LINE
  5
1C0
100
AcDbEntity
  8
0
  6
CONTINUOUS
 62
               7
100
AcDbLine
 10
-57.099999999999795
 20
-13.75
 30
0.0
 11
-54.099999999999795
 21
-13.75
 31
0.0
  0
LINE
  5
1C1
100
AcDbEntity
  8
0
  6
CONTINUOUS
 62
               7
100
AcDbLine
 10
-52.599999999999795
 20
-13.75
 30
0.0
 11
-51.099999999999795
 21
-13.75
 31
0.0
  0
LINE
  5
1C2
100
AcDbEntity
  8
0
  6
CONTINUOUS
 62
               7
100
AcDbLine
 10
-49.599999999999795
 20
-13.75
 30
0.0
 11
-46.599999999999795
 21
-13.75
 31
0.0
  0
LINE
  5
1C3
100
AcDbEntity
  8
0
  6
CONTINUOUS
 62
               7
100
AcDbLine
 10
-45.099999999999795
 20
-13.75
 30
0.0
 11
-43.599999999999795
 21
-13.75
 31
0.0
  0
LINE
  5
1C4
100
AcDbEntity
  8
0
  6
CONTINUOUS
 62
               7
100
AcDbLine
 10
-42.099999999999795
 20
-13.75
 30
0.0
 11
-26.999999999999886
 21
-13.75
 31
0.0
  0
CIRCLE
  5
1C5
100
AcDbEntity
  8
0
  6
CONTINUOUS
 62
               7
100
AcDbCircle
 10
-51.949999999999932
 20
0.0
 30
0.0
 40
6.5
  0
LINE
  5
1C6
100
AcDbEntity
  8
0
  6
CONTINUOUS
 62
               2
100
AcDbLine
 10
-51.949999999999932
 20
-15.75
 30
0.0
 11
-51.949999999999932
 21
15.75
 31
0.0
  0
LINE
  5
1C7
100
AcDbEntity
  8
0
  6
CONTINUOUS
 62
               7
100
AcDbLine
 10
15.700000000000045
 20
-23.000000000000057
 30
0.0
 11
-15.699999999999932
 21
-23.000000000000057
 31
0.0
  0
LINE
  5
1C8
100
AcDbEntity
  8
0
  6
CONTINUOUS
 62
               7
100
AcDbLine
 10
-26.999999999999886
 20
-13.999999999999943
 30
0.0
 11
-26.999999999999886
 21
14.000000000000341
 31
0.0
  0
LINE
  5
1C9
100
AcDbEntity
  8
0
  6
CONTINUOUS
 62
               7
100
AcDbLine
 10
-26.999999999999886
 20
-13.999999999999943
 30
0.0
 11
-16.0
 21
-13.999999999999829
 31
0.0
  0
CIRCLE
  5
1CA
100
AcDbEntity
  8
0
  6
CONTINUOUS
 62
               7
100
AcDbCircle
 10
12.000000000000114
 20
12.0
 30
0.0
 40
1.6499999999999999
  0
CIRCLE
  5
1CB
100
AcDbEntity
  8
0
  6
CONTINUOUS
 62
               2
100
AcDbCircle
 10
12.000000000000114
 20
12.0
 30
0.0
 40
2.0
  0
CIRCLE
  5
1CC
100
AcDbEntity
  8
0
  6
CONTINUOUS
 62
               7
100
AcDbCircle
 10
-11.999999999999886
 20
12.0
 30
0.0
 40
1.6499999999999999
  0
CIRCLE
  5
1CD
100
AcDbEntity
  8
0
  6
CONTINUOUS
 62
               2
100
AcDbCircle
 10
-11.999999999999886
 20
12.0
 30
0.0
 40
2.0
  0
CIRCLE
  5
1CE
100
AcDbEntity
  8
0
  6
CONTINUOUS
 62
               7
100
AcDbCircle
 10
-11.999999999999886
 20
-12.0
 30
0.0
 40
1.6499999999999999
  0
CIRCLE
  5
1CF
100
AcDbEntity
  8
0
  6
CONTINUOUS
 62
               2
100
AcDbCircle
 10
-11.999999999999886
 20
-12.0
 30
0.0
 40
2.0
  0
CIRCLE
  5
1D0
100
AcDbEntity
  8
0
  6
CONTINUOUS
 62
               7
100
AcDbCircle
 10
12.000000000000114
 20
-12.0
 30
0.0
 40
1.6499999999999999
  0
CIRCLE
  5
1D1
100
AcDbEntity
  8
0
  6
CONTINUOUS
 62
               2
100
AcDbCircle
 10
12.000000000000114
 20
-12.0
 30
0.0
 40
2.0
  0
LINE
  5
1D2
100
AcDbEntity
  8
0
  6
CONTINUOUS
 62
               2
100
AcDbLine
 10
23.5
 20
0.0
 30
0.0
 11
-65.199999999999932
 21
0.0
 31
0.0
  0
LINE
  5
1D3
100
AcDbEntity
  8
0
  6
CONTINUOUS
 62
               7
100
AcDbLine
 10
-22.500000000000341
 20
14.000000000000227
 30
0.0
 11
-22.500000000000341
 21
-13.999999999999829
 31
0.0
  0
LINE
  5
1D4
100
AcDbEntity
  8
0
  6
CONTINUOUS
 62
               7
100
AcDbLine
 10
-26.999999999999886
 20
14.000000000000341
 30
0.0
 11
-16.0
 21
14.000000000000227
 31
0.0
  0
ARC
  5
1D5
100
AcDbEntity
  8
0
  6
CONTINUOUS
 62
               7
100
AcDbCircle
 10
17.5
 20
-9.1218089885109066
 30
0.0
 40
3.0
100
AcDbArc
 50
289.99999999999977
 51
0.0
  0
ARC
  5
1D6
100
AcDbEntity
  8
0
  6
CONTINUOUS
 62
               7
100
AcDbCircle
 10
17.5
 20
9.1218089885109066
 30
0.0
 40
3.0000000000000053
100
AcDbArc
 50
0.0
 51
69.999999999999716
  0
LINE
  5
1D7
100
AcDbEntity
  8
0
  6
CONTINUOUS
 62
               7
100
AcDbLine
 10
20.5
 20
9.1218089885109066
 30
0.0
 11
20.5
 21
-9.1218089885109066
 31
0.0
  0
LINE
  5
1D8
100
AcDbEntity
  8
0
  6
CONTINUOUS
 62
               7
100
AcDbLine
 10
18.526060429977065
 20
-11.940886850868651
 30
0.0
 11
16.0
 21
-12.860297657337981
 31
0.0
  0
LINE
  5
1D9
100
AcDbEntity
  8
0
  6
CONTINUOUS
 62
               7
100
AcDbLine
 10
16.0
 20
12.860297657337924
 30
0.0
 11
18.526060429977065
 21
11.940886850868651
 31
0.0
  0
LINE
  5
1DA
100
AcDbEntity
  8
0
  6
CONTINUOUS
 62
               7
100
AcDbLine
 10
-16.0
 20
-22.700000000000045
 30
0.0
 11
-15.699999999999932
 21
-23.000000000000057
 31
0.0
  0
LINE
  5
1DB
100
AcDbEntity
  8
0
  6
CONTINUOUS
 62
               7
100
AcDbLine
 10
15.700000000000045
 20
-23.000000000000057
 30
0.0
 11
16.0
 21
-22.699999999999932
 31
0.0
  0
LINE
  5
1DC
100
AcDbEntity
  8
0
  6
CONTINUOUS
 62
               2
100
AcDbLine
 10
12.000000000000114
 20
9.5
 30
0.0
 11
12.000000000000114
 21
14.5
 31
0.0
  0
LINE
  5
1DD
100
AcDbEntity
  8
0
  6
CONTINUOUS
 62
               2
100
AcDbLine
 10
9.5000000000001137
 20
12.0
 30
0.0
 11
14.500000000000114
 21
12.0
 31
0.0
  0
LINE
  5
1DE
100
AcDbEntity
  8
0
  6
CONTINUOUS
 62
               2
100
AcDbLine
 10
-11.999999999999886
 20
9.5
 30
0.0
 11
-11.999999999999886
 21
14.5
 31
0.0
  0
LINE
  5
1DF
100
AcDbEntity
  8
0
  6
CONTINUOUS
 62
               2
100
AcDbLine
 10
-14.499999999999886
 20
12.0
 30
0.0
 11
-9.4999999999998863
 21
12.0
 31
0.0
  0
LINE
  5
1E0
100
AcDbEntity
  8
0
  6
CONTINUOUS
 62
               2
100
AcDbLine
 10
-11.999999999999886
 20
-14.5
 30
0.0
 11
-11.999999999999886
 21
-9.5
 31
0.0
  0
LINE
  5
1E1
100
AcDbEntity
  8
0
  6
CONTINUOUS
 62
               2
100
AcDbLine
 10
-14.499999999999886
 20
-12.0
 30
0.0
 11
-9.4999999999998863
 21
-12.0
 31
0.0
  0
LINE
  5
1E2
100
AcDbEntity
  8
0
  6
CONTINUOUS
 62
               2
100
AcDbLine
 10
12.000000000000114
 20
-14.5
 30
0.0
 11
12.000000000000114
 21
-9.5
 31
0.0
  0
LINE
  5
1E3
100
AcDbEntity
  8
0
  6
CONTINUOUS
 62
               2
100
AcDbLine
 10
9.5000000000001137
 20
-12.0
 30
0.0
 11
14.500000000000114
 21
-12.0
 31
0.0
  0
ENDBLK
  5
1E4
100
AcDbEntity
  8
0
100
AcDbBlockEnd
  0
ENDSEC
  0
SECTION
  2
ENTITIES
  0
MTEXT
  5
1E5
100
AcDbEntity
  8
0
  6
CONTINUOUS
 62
               7
100
AcDbMText
 10
-214.05000063578288
 20
180.49999999999997
 30
0.0
 40
6.3000001907348633
 41
0.0
 71
               4
 72
               1
  1
\A1;KFPV050
  0
INSERT
  5
1E6
100
AcDbEntity
  8
0
  6
ByBlock
100
AcDbBlockReference
  2
KFPV050-5
 10
23.214060390859515
 20
-104.50361999448236
 30
0.0
  0
INSERT
  5
1E7
100
AcDbEntity
  8
0
  6
ByBlock
100
AcDbBlockReference
  2
KFPV050-4
 10
23.214060390859515
 20
127.29638001633035
 30
0.0
  0
INSERT
  5
1E8
100
AcDbEntity
  8
0
  6
ByBlock
100
AcDbBlockReference
  2
KFPV050-3
 10
163.21406039085952
 20
-25.703619994482196
 30
0.0
  0
INSERT
  5
1E9
100
AcDbEntity
  8
0
  6
ByBlock
100
AcDbBlockReference
  2
KFPV050-2
 10
-156.78593960914048
 20
-24.503619994482364
 30
0.0
  0
INSERT
  5
1EA
100
AcDbEntity
  8
0
  6
ByBlock
100
AcDbBlockReference
  2
KFPV050-1
 10
23.214060390859515
 20
-24.503619994482364
 30
0.0
  0
MTEXT
  5
1EB
100
AcDbEntity
  8
0
  6
CONTINUOUS
 62
               7
100
AcDbMText
 10
-230.53521018453921
 20
123.65000009536743
 30
0.0
 40
6.3000001907348633
 41
0.0
 71
               1
 72
               1
  1
\W1.014;\A1;KFPV050-2-40-FM-S4-02-39
  0
MTEXT
  5
1EC
100
AcDbEntity
  8
0
  6
CONTINUOUS
 62
               7
100
AcDbMText
 10
-230.53521018453921
 20
131.65000009536743
 30
0.0
 40
6.3000001907348633
 41
0.0
 71
               1
 72
               1
  1
\W1.014;\A1;KFPV050-2-30-FM-S4-02-39
  0
MTEXT
  5
1ED
100
AcDbEntity
  8
0
  6
CONTINUOUS
 62
               7
100
AcDbMText
 10
-230.53521018453921
 20
139.65000009536743
 30
0.0
 40
6.3000001907348633
 41
0.0
 71
               1
 72
               1
  1
\W1.014;\A1;KFPV050-2-20-FM-S4-02-39
  0
MTEXT
  5
1EE
100
AcDbEntity
  8
0
  6
CONTINUOUS
 62
               7
100
AcDbMText
 10
-230.53521018453921
 20
147.65000009536743
 30
0.0
 40
6.3000001907348633
 41
0.0
 71
               1
 72
               1
  1
\W1.014;\A1;KFPV050-2-40-FM-BR-02-39
  0
MTEXT
  5
1EF
100
AcDbEntity
  8
0
  6
CONTINUOUS
 62
               7
100
AcDbMText
 10
-230.53521018453921
 20
155.65000009536743
 30
0.0
 40
6.3000001907348633
 41
0.0
 71
               1
 72
               1
  1
\W1.014;\A1;KFPV050-2-30-FM-BR-02-39
  0
MTEXT
  5
1F0
100
AcDbEntity
  8
0
  6
CONTINUOUS
 62
               7
100
AcDbMText
 10
-268.31379316481411
 20
163.65000009536743
 30
0.0
 40
6.3000001907348633
 41
0.0
 71
               1
 72
               1
  1
\W1.034;\A1;MODEL:KFPV050-2-20-FM-BR-02-39
  0
LINE
  5
1F1
100
AcDbEntity
  8
0
  6
CONTINUOUS
 62
               7
100
AcDbLine
 10
162.0999755859375
 20
-175.0
 30
0.0
 11
162.0999755859375
 21
-195.0
 31
0.0
  0
LINE
  5
1F2
100
AcDbEntity
  8
0
  6
CONTINUOUS
 62
               7
100
AcDbLine
 10
162.0999755859375
 20
-175.0
 30
0.0
 11
282.099853515625
 21
-175.0
 31
0.0
  0
MTEXT
  5
1F3
100
AcDbEntity
  8
0
  6
CONTINUOUS
 62
               7
100
AcDbMText
 10
170.2809980228688
 20
-185.0
 30
0.0
 40
9.0
 41
0.0
 71
               4
 72
               1
  1
\W1.121;\A1;KOGANEI CORP.
  0
LINE
  5
1F4
100
AcDbEntity
  8
0
  6
CONTINUOUS
 62
               7
100
AcDbLine
 10
-281.25
 20
175.5
 30
0.0
 11
-104.84999999999999
 21
175.5
 31
0.0
  0
LINE
  5
1F5
100
AcDbEntity
  8
0
  6
CONTINUOUS
 62
               7
100
AcDbLine
 10
-104.84999999999999
 20
195.5
 30
0.0
 11
-104.84999999999999
 21
175.5
 31
0.0
  0
MTEXT
  5
1F6
100
AcDbEntity
  8
0
  6
CONTINUOUS
 62
               7
100
AcDbMText
 10
198.2770240315611
 20
185.5
 30
0.0
 40
6.3000001907348633
 41
0.0
 71
               4
 72
               1
  1
\W1.311;\A1;Ver. 1.0
  0
LINE
  5
1F7
100
AcDbEntity
  8
0
  6
CONTINUOUS
 62
               7
100
AcDbLine
 10
162.0999755859375
 20
175.5
 30
0.0
 11
282.099853515625
 21
175.5
 31
0.0
  0
LINE
  5
1F8
100
AcDbEntity
  8
0
  6
CONTINUOUS
 62
               7
100
AcDbLine
 10
162.0999755859375
 20
195.5
 30
0.0
 11
162.0999755859375
 21
175.5
 31
0.0
  0
MTEXT
  5
1F9
100
AcDbEntity
  8
0
  6
CONTINUOUS
 62
               7
100
AcDbMText
 10
-277.03153520988934
 20
190.5
 30
0.0
 40
6.3000001907348633
 41
0.0
 71
               4
 72
               1
  1
\W1.018;\A1;PROPORTIONAL CONTROL VALVES
  0
LINE
  5
1FA
100
AcDbEntity
  8
0
  6
CONTINUOUS
 62
               7
100
AcDbLine
 10
282.099853515625
 20
195.5
 30
0.0
 11
282.099853515625
 21
-195.0
 31
0.0
  0
LINE
  5
1FB
100
AcDbEntity
  8
0
  6
CONTINUOUS
 62
               7
100
AcDbLine
 10
-281.25
 20
195.5
 30
0.0
 11
282.099853515625
 21
195.5
 31
0.0
  0
LINE
  5
1FC
100
AcDbEntity
  8
0
  6
CONTINUOUS
 62
               7
100
AcDbLine
 10
-281.25
 20
195.5
 30
0.0
 11
-281.25
 21
-195.0
 31
0.0
  0
LINE
  5
1FD
100
AcDbEntity
  8
0
  6
CONTINUOUS
 62
               7
100
AcDbLine
 10
-281.25
 20
-195.0
 30
0.0
 11
282.099853515625
 21
-195.0
 31
0.0
  0
ENDSEC
  0
SECTION
  2
OBJECTS
  0
DICTIONARY
  5
19
100
AcDbDictionary
  3
ACAD_GROUP
350
1A
  3
ACAD_MLINESTYLE
350
1B
  0
DICTIONARY
  5
1A
102
{ACAD_REACTORS
330
19
102
}
100
AcDbDictionary
  0
DICTIONARY
  5
1B
102
{ACAD_REACTORS
330
19
102
}
100
AcDbDictionary
  3
STANDARD
350
1C
  0
MLINESTYLE
  5
1C
102
{ACAD_REACTORS
330
1B
102
}
100
AcDbMlineStyle
  2
Standard
 70
               0
  3

 62
               0
 51
90.0
 52
90.0
 71
               2
 49
0.5
 62
             256
  6
ByLayer
 49
-0.5
 62
             256
  6
ByLayer
  0
ENDSEC
  0
EOF
