  0
SECTION
  2
HEADER
  0
ENDSEC
  0
SECTION
  2
TABLES
  0
TABLE
  2
LTYPE
 70
     4
  0
LTYPE
  2
CONTINUOUS
 70
    64
  3
Solid line
 72
    65
 73
     0
 40
0.000000
  0
LTYPE
  2
DASHED
 70
    64
  3
__ __ __ __ __ __ __ __ __ __ __ __ __ __ __
 72
    65
 73
     2
 40
3.500000
 49
2.000000
 49
-1.500000
  0
LTYPE
  2
CENTER
 70
    64
  3
____ _ ____ _ ____ _ ____ _ ____ _ ____ _ ____
 72
    65
 73
     4
 40
17.500000
 49
13.000000
 49
-1.500000
 49
1.500000
 49
-1.500000
  0
LTYPE
  2
PHANTOM
 70
    64
  3
_____ _ _ _____ _ _ _____ _ _ _____ _ _ ____  
 72
    65
 73
     6
 40
15.500000
 49
8.000000
 49
-1.500000
 49
1.500000
 49
-1.500000
 49
1.500000
 49
-1.500000
  0
LTYPE
  2
DASHED1
 70
    64
  3
__ __ __ __ __ __ __ __ __ __ __ __ __ __ __
 72
    65
 73
     2
 40
1.500000
 49
1.000000
 49
-0.500000
  0
LTYPE
  2
DASHED2
 70
    64
  3
__ __ __ __ __ __ __ __ __ __ __ __ __ __ __
 72
    65
 73
     2
 40
3.500000
 49
2.500000
 49
-1.000000
  0
LTYPE
  2
DASHED3
 70
    64
  3
__ __ __ __ __ __ __ __ __ __ __ __ __ __ __
 72
    65
 73
     2
 40
6.000000
 49
4.000000
 49
-2.000000
  0
LTYPE
  2
DASHED4
 70
    64
  3
__ __ __ __ __ __ __ __ __ __ __ __ __ __ __
 72
    65
 73
     2
 40
12.000000
 49
10.000000
 49
-2.000000
  0
LTYPE
  2
DASHED5
 70
    64
  3
__ __ __ __ __ __ __ __ __ __ __ __ __ __ __
 72
    65
 73
     2
 40
17.000000
 49
15.000000
 49
-2.000000
  0
LTYPE
  2
DASHED6
 70
    64
  3
__ __ __ __ __ __ __ __ __ __ __ __ __ __ __
 72
    65
 73
     2
 40
29.000000
 49
27.000000
 49
-2.000000
  0
LTYPE
  2
PHANTOM1
 70
    64
  3
_____ _ _ _____ _ _ _____ _ _ _____ _ _ ____  
 72
    65
 73
     6
 40
31.000000
 49
25.000000
 49
-1.500000
 49
1.000000
 49
-1.000000
 49
1.000000
 49
-1.500000
  0
LTYPE
  2
PHANTOM2
 70
    64
  3
_____ _ _ _____ _ _ _____ _ _ _____ _ _ ____  
 72
    65
 73
     6
 40
36.000000
 49
27.000000
 49
-1.500000
 49
2.500000
 49
-1.000000
 49
2.500000
 49
-1.500000
  0
LTYPE
  2
PHANTOM3
 70
    64
  3
_____ _ _ _____ _ _ _____ _ _ _____ _ _ ____  
 72
    65
 73
     6
 40
78.000000
 49
64.000000
 49
-2.000000
 49
4.000000
 49
-2.000000
 49
4.000000
 49
-2.000000
  0
LTYPE
  2
CENTER1
 70
    64
  3
____ _ ____ _ ____ _ ____ _ ____ _ ____ _ ____
 72
    65
 73
     4
 40
19.000000
 49
14.000000
 49
-1.000000
 49
3.000000
 49
-1.000000
  0
LTYPE
  2
CENTER2
 70
    64
  3
____ _ ____ _ ____ _ ____ _ ____ _ ____ _ ____
 72
    65
 73
     4
 40
28.500000
 49
25.000000
 49
-1.000000
 49
1.500000
 49
-1.000000
  0
LTYPE
  2
CENTER3
 70
    64
  3
____ _ ____ _ ____ _ ____ _ ____ _ ____ _ ____
 72
    65
 73
     4
 40
31.500000
 49
27.000000
 49
-1.000000
 49
2.500000
 49
-1.000000
  0
LTYPE
  2
CENTER4
 70
    64
  3
____ _ ____ _ ____ _ ____ _ ____ _ ____ _ ____
 72
    65
 73
     4
 40
50.000000
 49
45.000000
 49
-1.000000
 49
3.000000
 49
-1.000000
  0
LTYPE
  2
CENTER5
 70
    64
  3
____ _ ____ _ ____ _ ____ _ ____ _ ____ _ ____
 72
    65
 73
     4
 40
100.000000
 49
92.000000
 49
-2.000000
 49
4.000000
 49
-2.000000
  0
LTYPE
  2
SBK1
 70
    64
  3
______ _ _ _ ______ _ _ _ ______ _ _ _ _____  
 72
    65
 73
     8
 40
60.500000
 49
45.000000
 49
-2.000000
 49
2.500000
 49
-2.000000
 49
2.500000
 49
-2.000000
 49
2.500000
 49
-2.000000
  0
LTYPE
  2
SBK2
 70
    64
  3
______ _ _ _ ______ _ _ _ ______ _ _ _ _____  
 72
    65
 73
     8
 40
84.000000
 49
64.000000
 49
-2.000000
 49
4.000000
 49
-2.000000
 49
4.000000
 49
-2.000000
 49
4.000000
 49
-2.000000
  0
LTYPE
  2
STCH
 70
    64
  3
__ __ __ __ __ __ __ __ __ __ __ __ __ __ __
 72
    65
 73
     2
 40
3.000000
 49
1.000000
 49
-2.000000
  0
LTYPE
  2
MTCH
 70
    64
  3
_____ _ _ _____ _ _ _____ _ _ _____ _ _ ____  
 72
    65
 73
     6
 40
80.000000
 49
66.000000
 49
-2.000000
 49
4.000000
 49
-2.000000
 49
4.000000
 49
-2.000000
  0
ENDTAB
  0
TABLE
  2
LAYER
 70
     1
  0
LAYER
  2
0
 70
     0
 62
     7
  6
CONTINUOUS
  0
ENDTAB
  0
TABLE
  2
STYLE
 70
     1
  0
STYLE
  2
STANDARD
 70
     0
 40
0.000000
 41
1.000000
 50
0.000000
 71
     0
 42
0.200000
  3
txt
  4
BIGFONT
  0
ENDTAB
  0
TABLE
  2
VIEW
 70
     0
  0
ENDTAB
  0
ENDSEC
  0
SECTION
  2
BLOCKS
  0
ENDSEC
  0
SECTION
  2
ENTITIES
  0
LINE
  8
0
 10
108.030792
 20
84.409180
 11
108.030792
 21
99.409180
  0
LINE
  8
0
 10
73.050781
 20
99.409180
 11
75.010788
 21
99.409180
  0
LINE
  8
0
 10
59.650787
 20
99.409180
 11
72.410782
 21
99.409180
  0
LINE
  8
0
 10
57.050781
 20
99.409180
 11
59.010788
 21
99.409180
  0
LINE
  8
0
 10
43.650787
 20
99.409180
 11
56.410782
 21
99.409180
  0
LINE
  8
0
 10
41.050793
 20
99.409180
 11
43.010788
 21
99.409180
  0
LINE
  8
0
 10
27.650791
 20
99.409180
 11
40.410789
 21
99.409180
  0
LINE
  8
0
 10
25.050793
 20
99.409180
 11
27.010792
 21
99.409180
  0
LINE
  8
0
 10
61.050781
 20
84.409180
 11
71.050781
 21
84.409180
  0
LINE
  8
0
 10
45.050781
 20
84.409180
 11
55.050781
 21
84.409180
  0
LINE
  8
0
 10
29.050793
 20
84.409180
 11
39.050793
 21
84.409180
  0
LINE
  8
0
 62
     4
 10
82.280792
 20
81.409180
 11
82.280792
 21
80.809189
  0
LINE
  8
0
 62
     4
 10
86.780792
 20
81.409180
 11
86.780792
 21
80.809189
  0
LINE
  8
0
 62
     4
 10
82.530792
 20
83.409180
 11
82.530792
 21
81.409180
  0
LINE
  8
0
 62
     4
 10
97.530792
 20
83.409180
 11
97.530792
 21
81.409180
  0
LINE
  8
0
 62
     4
 10
82.280792
 20
81.409180
 11
97.780792
 21
81.409180
  0
LINE
  8
0
 62
     4
 10
82.530792
 20
83.409180
 11
97.530792
 21
83.409180
  0
LINE
  8
0
 62
     4
 10
93.280792
 20
80.809189
 11
97.780792
 21
80.809189
  0
LINE
  8
0
 62
     4
 10
61.610790
 20
79.499176
 11
63.440792
 21
81.329178
  0
LINE
  8
0
 62
     4
 10
63.440792
 20
79.499176
 11
61.610790
 21
81.329178
  0
LINE
  8
0
 62
     4
 10
54.440788
 20
61.499191
 11
52.610786
 21
63.329189
  0
LINE
  8
0
 62
     4
 10
54.440784
 20
63.329189
 11
52.610783
 21
61.499187
  0
LINE
  8
0
 62
     4
 10
50.530792
 20
83.409180
 11
65.530792
 21
83.409180
  0
LINE
  8
0
 62
     4
 10
65.530792
 20
59.409180
 11
65.530792
 21
83.409180
  0
LINE
  8
0
 62
     4
 10
50.530792
 20
59.409180
 11
50.530792
 21
83.409180
  0
LINE
  8
0
 62
     4
 10
50.530792
 20
59.409180
 11
65.530792
 21
59.409180
  0
LINE
  8
0
 62
     4
 10
64.530792
 20
60.409180
 11
64.530792
 21
77.409180
  0
LINE
  8
0
 62
     4
 10
51.530792
 20
65.409180
 11
51.530792
 21
82.409180
  0
LINE
  8
0
 62
     4
 10
51.530792
 20
82.409180
 11
59.530792
 21
82.409180
  0
LINE
  8
0
 62
     4
 10
56.530792
 20
60.409180
 11
64.530792
 21
60.409180
  0
LINE
  8
0
 62
     4
 10
62.530792
 20
77.409180
 11
65.530792
 21
77.409180
  0
LINE
  8
0
 62
     4
 10
53.530792
 20
65.409180
 11
50.530792
 21
65.409180
  0
LINE
  8
0
 62
     4
 10
56.530792
 20
62.409180
 11
56.530792
 21
59.409180
  0
LINE
  8
0
 62
     4
 10
59.530792
 20
80.409180
 11
59.530792
 21
83.409180
  0
LINE
  8
0
 62
     4
 10
61.050781
 20
83.409180
 11
61.050781
 21
85.409180
  0
LINE
  8
0
 62
     4
 10
55.050781
 20
85.409180
 11
61.050781
 21
85.409180
  0
LINE
  8
0
 62
     4
 10
55.050781
 20
83.409180
 11
55.050781
 21
85.409180
  0
LINE
  8
0
 62
     4
 10
60.180786
 20
89.059181
 11
60.180786
 21
85.409180
  0
LINE
  8
0
 62
     4
 10
58.480789
 20
89.519180
 11
58.480789
 21
85.409180
  0
LINE
  8
0
 62
     4
 10
57.580780
 20
89.759178
 11
57.580780
 21
85.409180
  0
LINE
  8
0
 62
     4
 10
55.880783
 20
90.209183
 11
55.880783
 21
85.409180
  0
LINE
  8
0
  6
PHANTOM
 62
     1
 10
53.880783
 20
92.299187
 11
62.180782
 21
90.079185
  0
LINE
  8
0
  6
PHANTOM
 62
     1
 10
53.880779
 20
90.749184
 11
62.180782
 21
88.529182
  0
LINE
  8
0
 62
     4
 10
57.050781
 20
105.409180
 11
56.410782
 21
105.409180
  0
LINE
  8
0
 62
     4
 10
57.580780
 20
95.409180
 11
55.880783
 21
95.409180
  0
LINE
  8
0
 62
     4
 10
57.050781
 20
105.409180
 11
57.050781
 21
95.409180
  0
LINE
  8
0
 62
     4
 10
56.410782
 20
105.409180
 11
56.410782
 21
95.409180
  0
LINE
  8
0
 62
     4
 10
57.580780
 20
95.409180
 11
57.580780
 21
91.309181
  0
LINE
  8
0
 62
     4
 10
55.880783
 20
95.409180
 11
55.880783
 21
91.769180
  0
LINE
  8
0
 62
     4
 10
59.650787
 20
105.409180
 11
59.010788
 21
105.409180
  0
LINE
  8
0
 62
     4
 10
60.180786
 20
95.409180
 11
58.480789
 21
95.409180
  0
LINE
  8
0
 62
     4
 10
59.650787
 20
105.409180
 11
59.650787
 21
95.409180
  0
LINE
  8
0
 62
     4
 10
59.010788
 20
105.409180
 11
59.010788
 21
95.409180
  0
LINE
  8
0
 62
     4
 10
60.180786
 20
95.409180
 11
60.180786
 21
90.609177
  0
LINE
  8
0
 62
     4
 10
58.480789
 20
95.409180
 11
58.480789
 21
91.069183
  0
LINE
  8
0
  6
CENTER
 62
     2
 10
90.030792
 20
86.909180
 11
90.030792
 21
76.629181
  0
LINE
  8
0
  6
CENTER
 62
     2
 10
26.030792
 20
86.909180
 11
26.030792
 21
55.529190
  0
LINE
  8
0
  6
CENTER
 62
     2
 10
42.030792
 20
86.909180
 11
42.030792
 21
55.529190
  0
LINE
  8
0
  6
CENTER
 62
     2
 10
58.030792
 20
86.909180
 11
58.030792
 21
55.529190
  0
LINE
  8
0
  6
CENTER
 62
     2
 10
74.030792
 20
86.909180
 11
74.030792
 21
55.529190
  0
LINE
  8
0
 62
     4
 10
82.270782
 20
80.809189
 11
86.780792
 21
80.809189
  0
LINE
  8
0
 62
     4
 10
97.780792
 20
81.409180
 11
97.780792
 21
80.809189
  0
LINE
  8
0
 62
     4
 10
45.610783
 20
79.499191
 11
47.440781
 21
81.329193
  0
LINE
  8
0
 62
     4
 10
47.440784
 20
79.499191
 11
45.610779
 21
81.329193
  0
LINE
  8
0
 62
     4
 10
38.440800
 20
61.499195
 11
36.610798
 21
63.329197
  0
LINE
  8
0
 62
     4
 10
38.440788
 20
63.329185
 11
36.610798
 21
61.499195
  0
LINE
  8
0
 62
     4
 10
34.530792
 20
83.409180
 11
49.530792
 21
83.409180
  0
LINE
  8
0
 62
     4
 10
49.530792
 20
59.409180
 11
49.530792
 21
83.409180
  0
LINE
  8
0
 62
     4
 10
34.530792
 20
59.409180
 11
34.530792
 21
83.409180
  0
LINE
  8
0
 62
     4
 10
34.530792
 20
59.409180
 11
49.530792
 21
59.409180
  0
LINE
  8
0
 62
     4
 10
48.530792
 20
60.409180
 11
48.530792
 21
77.409180
  0
LINE
  8
0
 62
     4
 10
35.530792
 20
65.409180
 11
35.530792
 21
82.409180
  0
LINE
  8
0
 62
     4
 10
35.530792
 20
82.409180
 11
43.530792
 21
82.409180
  0
LINE
  8
0
 62
     4
 10
40.530792
 20
60.409180
 11
48.530792
 21
60.409180
  0
LINE
  8
0
 62
     4
 10
46.530792
 20
77.409180
 11
49.530792
 21
77.409180
  0
LINE
  8
0
 62
     4
 10
37.530792
 20
65.409180
 11
34.530792
 21
65.409180
  0
LINE
  8
0
 62
     4
 10
40.530792
 20
62.409180
 11
40.530792
 21
59.409180
  0
LINE
  8
0
 62
     4
 10
43.530792
 20
80.409180
 11
43.530792
 21
83.409180
  0
LINE
  8
0
 62
     4
 10
45.050781
 20
83.409180
 11
45.050781
 21
85.409180
  0
LINE
  8
0
 62
     4
 10
39.050793
 20
85.409180
 11
45.050781
 21
85.409180
  0
LINE
  8
0
 62
     4
 10
39.050793
 20
83.409180
 11
39.050793
 21
85.409180
  0
LINE
  8
0
 62
     4
 10
44.180786
 20
89.059181
 11
44.180786
 21
85.409180
  0
LINE
  8
0
 62
     4
 10
42.480789
 20
89.519180
 11
42.480789
 21
85.409180
  0
LINE
  8
0
 62
     4
 10
41.580791
 20
89.759178
 11
41.580791
 21
85.409180
  0
LINE
  8
0
 62
     4
 10
39.880791
 20
90.209183
 11
39.880791
 21
85.409180
  0
LINE
  8
0
  6
PHANTOM
 62
     1
 10
37.880791
 20
92.299179
 11
46.180782
 21
90.079185
  0
LINE
  8
0
  6
PHANTOM
 62
     1
 10
37.880791
 20
90.749184
 11
46.180782
 21
88.529182
  0
LINE
  8
0
 62
     4
 10
41.050793
 20
105.409180
 11
40.410789
 21
105.409180
  0
LINE
  8
0
 62
     4
 10
41.580791
 20
95.409180
 11
39.880791
 21
95.409180
  0
LINE
  8
0
 62
     4
 10
41.050793
 20
105.409180
 11
41.050793
 21
95.409180
  0
LINE
  8
0
 62
     4
 10
40.410789
 20
105.409180
 11
40.410789
 21
95.409180
  0
LINE
  8
0
 62
     4
 10
41.580791
 20
95.409180
 11
41.580791
 21
91.309181
  0
LINE
  8
0
 62
     4
 10
39.880791
 20
95.409180
 11
39.880791
 21
91.769180
  0
LINE
  8
0
 62
     4
 10
43.650787
 20
105.409180
 11
43.010788
 21
105.409180
  0
LINE
  8
0
 62
     4
 10
44.180786
 20
95.409180
 11
42.480789
 21
95.409180
  0
LINE
  8
0
 62
     4
 10
43.650787
 20
105.409180
 11
43.650787
 21
95.409180
  0
LINE
  8
0
 62
     4
 10
43.010788
 20
105.409180
 11
43.010788
 21
95.409180
  0
LINE
  8
0
 62
     4
 10
44.180786
 20
95.409180
 11
44.180786
 21
90.609177
  0
LINE
  8
0
 62
     4
 10
42.480789
 20
95.409180
 11
42.480789
 21
91.069183
  0
LINE
  8
0
 62
     4
 10
29.610788
 20
79.499191
 11
31.440786
 21
81.329185
  0
LINE
  8
0
 62
     4
 10
31.440784
 20
79.499184
 11
29.610785
 21
81.329185
  0
LINE
  8
0
 62
     4
 10
22.450794
 20
61.499195
 11
20.620792
 21
63.329197
  0
LINE
  8
0
 62
     4
 10
22.450794
 20
63.329197
 11
20.620794
 21
61.499195
  0
LINE
  8
0
 62
     4
 10
18.530792
 20
83.409180
 11
33.530792
 21
83.409180
  0
LINE
  8
0
 62
     4
 10
33.530792
 20
59.409180
 11
33.530792
 21
83.409180
  0
LINE
  8
0
 62
     4
 10
18.530792
 20
59.409180
 11
18.530792
 21
83.409180
  0
LINE
  8
0
 62
     4
 10
18.530792
 20
59.409180
 11
33.530792
 21
59.409180
  0
LINE
  8
0
 62
     4
 10
32.530792
 20
60.409180
 11
32.530792
 21
77.409180
  0
LINE
  8
0
 62
     4
 10
19.530792
 20
65.409180
 11
19.530792
 21
82.409180
  0
LINE
  8
0
 62
     4
 10
19.530792
 20
82.409180
 11
27.530792
 21
82.409180
  0
LINE
  8
0
 62
     4
 10
24.530792
 20
60.409180
 11
32.530792
 21
60.409180
  0
LINE
  8
0
 62
     4
 10
30.530792
 20
77.409180
 11
33.530792
 21
77.409180
  0
LINE
  8
0
 62
     4
 10
21.530792
 20
65.409180
 11
18.530792
 21
65.409180
  0
LINE
  8
0
 62
     4
 10
24.530792
 20
62.409180
 11
24.530792
 21
59.409180
  0
LINE
  8
0
 62
     4
 10
27.530792
 20
80.409180
 11
27.530792
 21
83.409180
  0
LINE
  8
0
 62
     4
 10
29.050793
 20
83.409180
 11
29.050793
 21
85.409180
  0
LINE
  8
0
 62
     4
 10
23.060793
 20
85.409180
 11
29.050793
 21
85.409180
  0
LINE
  8
0
 62
     4
 10
23.060793
 20
83.409180
 11
23.060793
 21
85.409180
  0
LINE
  8
0
 62
     4
 10
28.180792
 20
89.059181
 11
28.180792
 21
85.409180
  0
LINE
  8
0
 62
     4
 10
26.480793
 20
89.519180
 11
26.480793
 21
85.409180
  0
LINE
  8
0
 62
     4
 10
25.580791
 20
89.759178
 11
25.580791
 21
85.409180
  0
LINE
  8
0
 62
     4
 10
23.880793
 20
90.209183
 11
23.880793
 21
85.409180
  0
LINE
  8
0
  6
PHANTOM
 62
     1
 10
21.880793
 20
92.299179
 11
30.180792
 21
90.079178
  0
LINE
  8
0
  6
PHANTOM
 62
     1
 10
21.880791
 20
90.749176
 11
30.180790
 21
88.529182
  0
LINE
  8
0
 62
     4
 10
25.050793
 20
105.409180
 11
24.410793
 21
105.409180
  0
LINE
  8
0
 62
     4
 10
25.580791
 20
95.409180
 11
23.880793
 21
95.409180
  0
LINE
  8
0
 62
     4
 10
25.050793
 20
105.409180
 11
25.050793
 21
95.409180
  0
LINE
  8
0
 62
     4
 10
24.410793
 20
105.409180
 11
24.410793
 21
95.409180
  0
LINE
  8
0
 62
     4
 10
25.580791
 20
95.409180
 11
25.580791
 21
91.309181
  0
LINE
  8
0
 62
     4
 10
23.880793
 20
95.409180
 11
23.880793
 21
91.769180
  0
LINE
  8
0
 62
     4
 10
27.650791
 20
105.409180
 11
27.010792
 21
105.409180
  0
LINE
  8
0
 62
     4
 10
28.180792
 20
95.409180
 11
26.480793
 21
95.409180
  0
LINE
  8
0
 62
     4
 10
27.650791
 20
105.409180
 11
27.650791
 21
95.409180
  0
LINE
  8
0
 62
     4
 10
27.010792
 20
105.409180
 11
27.010792
 21
95.409180
  0
LINE
  8
0
 62
     4
 10
28.180792
 20
95.409180
 11
28.180792
 21
90.609177
  0
LINE
  8
0
 62
     4
 10
26.480793
 20
95.409180
 11
26.480793
 21
91.069183
  0
LINE
  8
0
 62
     4
 10
77.610786
 20
79.499184
 11
79.440788
 21
81.329185
  0
LINE
  8
0
 62
     4
 10
79.440788
 20
79.499184
 11
77.610786
 21
81.329185
  0
LINE
  8
0
 62
     4
 10
70.440781
 20
61.499187
 11
68.610779
 21
63.329189
  0
LINE
  8
0
 62
     4
 10
70.440781
 20
63.329193
 11
68.610779
 21
61.499187
  0
LINE
  8
0
 62
     4
 10
66.530792
 20
83.409180
 11
81.530792
 21
83.409180
  0
LINE
  8
0
 62
     4
 10
81.530792
 20
59.409180
 11
81.530792
 21
83.409180
  0
LINE
  8
0
 62
     4
 10
66.530792
 20
59.409180
 11
66.530792
 21
83.409180
  0
LINE
  8
0
 62
     4
 10
66.530792
 20
59.409180
 11
81.530792
 21
59.409180
  0
LINE
  8
0
 62
     4
 10
80.530792
 20
60.409180
 11
80.530792
 21
77.409180
  0
LINE
  8
0
 62
     4
 10
67.530792
 20
65.409180
 11
67.530792
 21
82.409180
  0
LINE
  8
0
 62
     4
 10
67.530792
 20
82.409180
 11
75.530792
 21
82.409180
  0
LINE
  8
0
 62
     4
 10
72.530792
 20
60.409180
 11
80.530792
 21
60.409180
  0
LINE
  8
0
 62
     4
 10
78.530792
 20
77.409180
 11
81.530792
 21
77.409180
  0
LINE
  8
0
 62
     4
 10
69.530792
 20
65.409180
 11
66.530792
 21
65.409180
  0
LINE
  8
0
 62
     4
 10
72.530792
 20
62.409180
 11
72.530792
 21
59.409180
  0
LINE
  8
0
 62
     4
 10
75.530792
 20
80.409180
 11
75.530792
 21
83.409180
  0
LINE
  8
0
 62
     4
 10
77.050781
 20
83.409180
 11
77.050781
 21
85.409180
  0
LINE
  8
0
 62
     4
 10
71.050781
 20
85.409180
 11
77.050781
 21
85.409180
  0
LINE
  8
0
 62
     4
 10
71.050781
 20
83.409180
 11
71.050781
 21
85.409180
  0
LINE
  8
0
 62
     4
 10
76.180786
 20
89.059181
 11
76.180786
 21
85.409180
  0
LINE
  8
0
 62
     4
 10
74.480789
 20
89.519180
 11
74.480789
 21
85.409180
  0
LINE
  8
0
 62
     4
 10
73.580780
 20
89.759178
 11
73.580780
 21
85.409180
  0
LINE
  8
0
 62
     4
 10
71.880783
 20
90.209183
 11
71.880783
 21
85.409180
  0
LINE
  8
0
  6
PHANTOM
 62
     1
 10
69.880783
 20
92.299187
 11
78.180786
 21
90.079185
  0
LINE
  8
0
  6
PHANTOM
 62
     1
 10
69.880783
 20
90.749184
 11
78.180786
 21
88.529182
  0
LINE
  8
0
 62
     4
 10
73.050781
 20
105.409180
 11
72.410782
 21
105.409180
  0
LINE
  8
0
 62
     4
 10
73.580780
 20
95.409180
 11
71.880783
 21
95.409180
  0
LINE
  8
0
 62
     4
 10
73.050781
 20
105.409180
 11
73.050781
 21
95.409180
  0
LINE
  8
0
 62
     4
 10
72.410782
 20
105.409180
 11
72.410782
 21
95.409180
  0
LINE
  8
0
 62
     4
 10
73.580780
 20
95.409180
 11
73.580780
 21
91.309181
  0
LINE
  8
0
 62
     4
 10
71.880783
 20
95.409180
 11
71.880783
 21
91.769180
  0
LINE
  8
0
 62
     4
 10
75.650787
 20
105.409180
 11
75.010788
 21
105.409180
  0
LINE
  8
0
 62
     4
 10
76.180786
 20
95.409180
 11
74.480789
 21
95.409180
  0
LINE
  8
0
 62
     4
 10
75.650787
 20
105.409180
 11
75.650787
 21
95.409180
  0
LINE
  8
0
 62
     4
 10
75.010788
 20
105.409180
 11
75.010788
 21
95.409180
  0
LINE
  8
0
 62
     4
 10
76.180786
 20
95.409180
 11
76.180786
 21
90.609177
  0
LINE
  8
0
 62
     4
 10
74.480789
 20
95.409180
 11
74.480789
 21
91.069183
  0
LINE
  8
0
 62
     4
 10
93.280792
 20
81.409180
 11
93.280792
 21
80.809189
  0
LINE
  8
0
  6
CENTER
 62
     2
 10
90.030792
 20
107.909180
 11
90.030792
 21
100.909180
  0
LINE
  8
0
  6
CENTER
 62
     2
 10
26.030792
 20
107.909180
 11
26.030792
 21
100.909180
  0
LINE
  8
0
  6
CENTER
 62
     2
 10
86.530792
 20
104.409180
 11
93.530792
 21
104.409180
  0
LINE
  8
0
  6
CENTER
 62
     2
 10
22.530792
 20
104.409180
 11
29.530792
 21
104.409180
  0
LINE
  8
0
 10
8.030792
 20
84.409180
 11
23.060793
 21
84.409180
  0
LINE
  8
0
 10
97.330780
 20
84.409180
 11
97.330780
 21
83.409180
  0
LINE
  8
0
 10
82.730789
 20
84.409180
 11
82.730789
 21
83.409180
  0
LINE
  8
0
 10
81.330780
 20
84.409180
 11
81.330780
 21
83.409180
  0
LINE
  8
0
 10
66.730789
 20
84.409180
 11
66.730789
 21
83.409180
  0
LINE
  8
0
 10
65.330780
 20
84.409180
 11
65.330780
 21
83.409180
  0
LINE
  8
0
 10
50.730789
 20
84.409180
 11
50.730789
 21
83.409180
  0
LINE
  8
0
 10
49.330780
 20
84.409180
 11
49.330780
 21
83.409180
  0
LINE
  8
0
 10
34.730793
 20
84.409180
 11
34.730793
 21
83.409180
  0
LINE
  8
0
 10
33.330791
 20
84.409180
 11
33.330791
 21
83.409180
  0
LINE
  8
0
 10
18.730793
 20
84.409180
 11
18.730793
 21
83.409180
  0
LINE
  8
0
 10
87.120789
 20
109.399178
 11
92.930786
 21
109.399178
  0
LINE
  8
0
 10
92.930786
 20
109.399178
 11
97.930786
 21
104.409180
  0
LINE
  8
0
 10
82.130783
 20
104.409180
 11
87.120773
 21
109.399178
  0
LINE
  8
0
 10
82.130783
 20
104.409180
 11
82.130783
 21
99.409180
  0
LINE
  8
0
 10
97.930786
 20
104.409180
 11
97.930786
 21
99.409180
  0
LINE
  8
0
 10
23.130793
 20
109.399178
 11
28.930792
 21
109.399178
  0
LINE
  8
0
 10
28.930788
 20
109.409180
 11
33.930786
 21
104.409180
  0
LINE
  8
0
 10
18.130789
 20
104.409180
 11
23.130789
 21
109.409180
  0
LINE
  8
0
 10
18.130793
 20
104.409180
 11
18.130793
 21
99.409180
  0
LINE
  8
0
 10
33.930794
 20
104.409180
 11
33.930794
 21
99.409180
  0
LINE
  8
0
 10
8.030792
 20
99.409180
 11
24.410793
 21
99.409180
  0
LINE
  8
0
 10
8.030792
 20
84.409180
 11
8.030792
 21
99.409180
  0
LINE
  8
0
 10
77.050781
 20
84.409180
 11
108.030792
 21
84.409180
  0
LINE
  8
0
 10
75.650787
 20
99.409180
 11
108.030792
 21
99.409180
  0
LINE
  8
0
  6
CENTER
 62
     2
 10
181.488724
 20
-35.288925
 11
181.488724
 21
-99.955589
  0
LINE
  8
0
 62
     4
 10
195.488724
 20
-45.958603
 11
193.488724
 21
-45.958603
  0
LINE
  8
0
 62
     4
 10
195.488724
 20
-45.958603
 11
195.488724
 21
-49.358612
  0
LINE
  8
0
 62
     4
 10
195.488724
 20
-49.358612
 11
193.488724
 21
-49.358612
  0
LINE
  8
0
 62
     4
 10
192.518723
 20
-37.518616
 11
192.488724
 21
-37.458611
  0
LINE
  8
0
 62
     4
 10
199.948730
 20
-48.508606
 11
195.488724
 21
-48.508606
  0
LINE
  8
0
 62
     4
 10
199.488724
 20
-46.808609
 11
195.488724
 21
-46.808609
  0
LINE
  8
0
  6
PHANTOM
 62
     1
 10
200.478745
 20
-50.508602
 11
198.948746
 21
-44.808609
  0
LINE
  8
0
  6
PHANTOM
 62
     1
 10
202.028748
 20
-50.508606
 11
200.508743
 21
-44.808605
  0
LINE
  8
0
 62
     4
 10
215.488724
 20
-47.338608
 11
215.488724
 21
-47.978607
  0
LINE
  8
0
 62
     4
 10
205.488724
 20
-46.808609
 11
205.488724
 21
-48.508606
  0
LINE
  8
0
 62
     4
 10
215.488724
 20
-47.338608
 11
205.488724
 21
-47.338608
  0
LINE
  8
0
 62
     4
 10
215.488724
 20
-47.978607
 11
205.488724
 21
-47.978607
  0
LINE
  8
0
 62
     4
 10
205.488724
 20
-46.808609
 11
201.038727
 21
-46.808609
  0
LINE
  8
0
 62
     4
 10
205.488724
 20
-48.508606
 11
201.498718
 21
-48.508606
  0
LINE
  8
0
 62
     4
 10
192.368729
 20
-37.458603
 11
192.488724
 21
-37.458603
  0
LINE
  8
0
 62
     4
 10
188.238724
 20
-37.598602
 11
188.238724
 21
-38.858612
  0
LINE
  8
0
 62
     4
 10
192.738724
 20
-37.598602
 11
192.738724
 21
-38.858612
  0
LINE
  8
0
 62
     4
 10
187.938736
 20
-38.858612
 11
187.938736
 21
-39.458603
  0
LINE
  8
0
 62
     4
 10
193.038727
 20
-38.858612
 11
193.038727
 21
-39.458603
  0
LINE
  8
0
 62
     4
 10
193.038727
 20
-38.858612
 11
187.938736
 21
-38.858612
  0
LINE
  8
0
 62
     4
 10
187.488724
 20
-37.458603
 11
187.488724
 21
-39.458603
  0
LINE
  8
0
 62
     4
 10
193.488724
 20
-39.458607
 11
192.738724
 21
-37.958611
  0
LINE
  8
0
 62
     4
 10
169.488724
 20
-39.458607
 11
170.488724
 21
-37.458603
  0
LINE
  8
0
 62
     4
 10
169.488724
 20
-39.458603
 11
193.488724
 21
-39.458603
  0
LINE
  8
0
 62
     4
 10
170.488724
 20
-37.458603
 11
188.668732
 21
-37.458603
  0
LINE
  8
0
 62
     4
 10
193.488724
 20
-39.458603
 11
193.488724
 21
-65.658600
  0
LINE
  8
0
 62
     4
 10
169.488724
 20
-39.458603
 11
169.488724
 21
-65.658600
  0
LINE
  8
0
 62
     4
 10
169.488724
 20
-40.458603
 11
193.488724
 21
-40.458603
  0
LINE
  8
0
 62
     4
 10
191.488724
 20
-66.658600
 11
191.488724
 21
-81.658600
  0
LINE
  8
0
 62
     4
 10
191.488724
 20
-66.658600
 11
193.488724
 21
-66.658600
  0
LINE
  8
0
 62
     4
 10
191.488724
 20
-81.658600
 11
193.488724
 21
-81.658600
  0
LINE
  8
0
 10
169.488724
 20
-85.658600
 11
193.488724
 21
-85.658600
  0
LINE
  8
0
 10
169.488724
 20
-83.158600
 11
193.488724
 21
-83.158600
  0
LINE
  8
0
 10
193.488724
 20
-65.658600
 11
169.488724
 21
-65.658600
  0
LINE
  8
0
 10
194.488724
 20
-67.658600
 11
193.488724
 21
-67.658600
  0
LINE
  8
0
 10
194.488724
 20
-91.658600
 11
193.488724
 21
-91.658600
  0
LINE
  8
0
 10
207.988724
 20
-79.038605
 11
209.488724
 21
-83.158592
  0
LINE
  8
0
 10
207.988724
 20
-72.288612
 11
209.488724
 21
-68.158607
  0
LINE
  8
0
 10
207.988724
 20
-72.288605
 11
207.988724
 21
-79.038605
  0
LINE
  8
0
 10
209.488724
 20
-83.158600
 11
209.488724
 21
-98.158600
  0
LINE
  8
0
  6
CENTER
 62
     2
 10
201.488724
 20
-76.538605
 11
201.488724
 21
-91.608597
  0
LINE
  8
0
  6
CENTER
 62
     2
 10
208.208725
 20
-67.158600
 11
194.488724
 21
-67.158600
  0
LINE
  8
0
  6
CENTER
 62
     2
 10
207.858719
 20
-84.158600
 11
194.488724
 21
-84.158600
  0
LINE
  8
0
  6
CENTER
 62
     2
 10
201.488724
 20
-59.158600
 11
201.488724
 21
-74.108612
  0
LINE
  8
0
 10
194.488724
 20
-58.158600
 11
194.488724
 21
-100.158600
  0
LINE
  8
0
 10
209.488724
 20
-58.158600
 11
194.488724
 21
-58.158600
  0
LINE
  8
0
 10
171.888733
 20
-72.848602
 11
171.888733
 21
-76.478607
  0
LINE
  8
0
 10
172.488724
 20
-72.848602
 11
172.488724
 21
-76.478607
  0
LINE
  8
0
 10
172.488724
 20
-76.478607
 11
169.488724
 21
-76.478607
  0
LINE
  8
0
 10
172.488724
 20
-72.848602
 11
169.488724
 21
-72.848602
  0
LINE
  8
0
 10
193.488724
 20
-98.158600
 11
169.488724
 21
-98.158600
  0
LINE
  8
0
 10
193.488724
 20
-95.658600
 11
169.488724
 21
-95.658600
  0
LINE
  8
0
 10
193.488724
 20
-65.658600
 11
193.488724
 21
-98.158600
  0
LINE
  8
0
 10
169.488724
 20
-65.658600
 11
169.488724
 21
-98.158600
  0
LINE
  8
0
  6
CENTER
 62
     2
 10
214.488724
 20
-96.208603
 11
214.488724
 21
-102.308601
  0
LINE
  8
0
 10
219.488724
 20
-98.158600
 11
219.488724
 21
-100.158600
  0
LINE
  8
0
 10
209.488724
 20
-58.158600
 11
209.488724
 21
-68.158600
  0
LINE
  8
0
 10
219.488724
 20
-100.158600
 11
194.488724
 21
-100.158600
  0
LINE
  8
0
 10
219.488724
 20
-98.158600
 11
194.488724
 21
-98.158600
  0
LINE
  8
0
 62
     4
 10
190.888733
 20
-71.908600
 11
190.888733
 21
-76.408600
  0
LINE
  8
0
 62
     4
 10
191.488724
 20
-76.408600
 11
190.888733
 21
-76.408600
  0
LINE
  8
0
 62
     4
 10
191.488724
 20
-71.908600
 11
190.888733
 21
-71.908600
  0
LINE
  8
0
  6
CENTER
 62
     2
 10
-77.427185
 20
-34.909851
 11
-77.427185
 21
-101.498070
  0
LINE
  8
0
 62
     4
 10
-91.427185
 20
-45.958603
 11
-89.427185
 21
-45.958603
  0
LINE
  8
0
 62
     4
 10
-91.427185
 20
-45.958603
 11
-91.427185
 21
-49.358612
  0
LINE
  8
0
 62
     4
 10
-91.427185
 20
-49.358612
 11
-89.427185
 21
-49.358612
  0
LINE
  8
0
 62
     4
 10
-66.407196
 20
-37.518608
 11
-66.427193
 21
-37.458607
  0
LINE
  8
0
 62
     4
 10
-95.887184
 20
-48.508606
 11
-91.427185
 21
-48.508606
  0
LINE
  8
0
 62
     4
 10
-95.427185
 20
-46.808609
 11
-91.427185
 21
-46.808609
  0
LINE
  8
0
  6
PHANTOM
 62
     1
 10
-96.417175
 20
-50.508606
 11
-94.887184
 21
-44.808613
  0
LINE
  8
0
  6
PHANTOM
 62
     1
 10
-97.967186
 20
-50.508598
 11
-96.447189
 21
-44.808605
  0
LINE
  8
0
 62
     4
 10
-111.427185
 20
-47.338608
 11
-111.427185
 21
-47.978607
  0
LINE
  8
0
 62
     4
 10
-101.427185
 20
-46.808609
 11
-101.427185
 21
-48.508606
  0
LINE
  8
0
 62
     4
 10
-111.427185
 20
-47.338608
 11
-101.427185
 21
-47.338608
  0
LINE
  8
0
 62
     4
 10
-111.427185
 20
-47.978607
 11
-101.427185
 21
-47.978607
  0
LINE
  8
0
 62
     4
 10
-101.427185
 20
-46.808609
 11
-96.977188
 21
-46.808609
  0
LINE
  8
0
 62
     4
 10
-101.427185
 20
-48.508606
 11
-97.437187
 21
-48.508606
  0
LINE
  8
0
 62
     4
 10
-66.557190
 20
-37.458603
 11
-66.427185
 21
-37.458603
  0
LINE
  8
0
 62
     4
 10
-70.677185
 20
-37.598602
 11
-70.677185
 21
-38.858612
  0
LINE
  8
0
 62
     4
 10
-66.177185
 20
-37.598602
 11
-66.177185
 21
-38.858612
  0
LINE
  8
0
 62
     4
 10
-70.977188
 20
-38.858612
 11
-70.977188
 21
-39.458603
  0
LINE
  8
0
 62
     4
 10
-65.877197
 20
-38.858612
 11
-65.877197
 21
-39.458603
  0
LINE
  8
0
 62
     4
 10
-65.877197
 20
-38.858612
 11
-70.977188
 21
-38.858612
  0
LINE
  8
0
 62
     4
 10
-71.427185
 20
-37.458603
 11
-71.427185
 21
-39.458603
  0
LINE
  8
0
 62
     4
 10
-65.427193
 20
-39.458607
 11
-66.177193
 21
-37.958611
  0
LINE
  8
0
 62
     4
 10
-89.427185
 20
-39.458607
 11
-88.427185
 21
-37.458603
  0
LINE
  8
0
 62
     4
 10
-65.427185
 20
-39.458603
 11
-89.427185
 21
-39.458603
  0
LINE
  8
0
 62
     4
 10
-88.427185
 20
-37.458603
 11
-70.257187
 21
-37.458603
  0
LINE
  8
0
 62
     4
 10
-89.427185
 20
-39.458603
 11
-89.427185
 21
-65.658600
  0
LINE
  8
0
 62
     4
 10
-65.427185
 20
-39.458603
 11
-65.427185
 21
-65.658600
  0
LINE
  8
0
 62
     4
 10
-65.427185
 20
-40.458603
 11
-89.427185
 21
-40.458603
  0
LINE
  8
0
 10
-89.427185
 20
-65.658600
 11
-65.427185
 21
-65.658600
  0
LINE
  8
0
 10
-90.427185
 20
-67.658600
 11
-89.427185
 21
-67.658600
  0
LINE
  8
0
 10
-90.427185
 20
-91.658600
 11
-89.427185
 21
-91.658600
  0
LINE
  8
0
 10
-103.927185
 20
-79.038605
 11
-105.427177
 21
-83.158600
  0
LINE
  8
0
 10
-103.927177
 20
-72.288612
 11
-105.427185
 21
-68.158607
  0
LINE
  8
0
 10
-103.927185
 20
-72.288605
 11
-103.927185
 21
-79.038605
  0
LINE
  8
0
 10
-105.427185
 20
-83.158600
 11
-105.427185
 21
-98.158600
  0
LINE
  8
0
  6
CENTER
 62
     2
 10
-97.427185
 20
-76.538605
 11
-97.427185
 21
-91.608597
  0
LINE
  8
0
  6
CENTER
 62
     2
 10
-104.147186
 20
-67.158600
 11
-90.427185
 21
-67.158600
  0
LINE
  8
0
  6
CENTER
 62
     2
 10
-103.797188
 20
-84.158600
 11
-90.427185
 21
-84.158600
  0
LINE
  8
0
  6
CENTER
 62
     2
 10
-97.427185
 20
-59.158600
 11
-97.427185
 21
-74.108612
  0
LINE
  8
0
 10
-90.427185
 20
-58.158600
 11
-90.427185
 21
-100.158600
  0
LINE
  8
0
 10
-105.427185
 20
-58.158600
 11
-90.427185
 21
-58.158600
  0
LINE
  8
0
 10
-67.827194
 20
-72.848602
 11
-67.827194
 21
-76.478607
  0
LINE
  8
0
 10
-68.427185
 20
-72.848602
 11
-68.427185
 21
-76.478607
  0
LINE
  8
0
 10
-68.427185
 20
-76.478607
 11
-65.427185
 21
-76.478607
  0
LINE
  8
0
 10
-68.427185
 20
-72.848602
 11
-65.427185
 21
-72.848602
  0
LINE
  8
0
 10
-89.427185
 20
-98.158600
 11
-65.427185
 21
-98.158600
  0
LINE
  8
0
 10
-89.427185
 20
-95.658600
 11
-65.427185
 21
-95.658600
  0
LINE
  8
0
 10
-89.427185
 20
-65.658600
 11
-89.427185
 21
-98.158600
  0
LINE
  8
0
 10
-65.427185
 20
-65.658600
 11
-65.427185
 21
-98.158600
  0
LINE
  8
0
  6
CENTER
 62
     2
 10
-110.427185
 20
-96.208603
 11
-110.427185
 21
-102.308601
  0
LINE
  8
0
 10
-115.427185
 20
-98.158600
 11
-115.427185
 21
-100.158600
  0
LINE
  8
0
 10
-105.427185
 20
-58.158600
 11
-105.427185
 21
-68.158600
  0
LINE
  8
0
 10
-115.427185
 20
-100.158600
 11
-90.427185
 21
-100.158600
  0
LINE
  8
0
 10
-115.427185
 20
-98.158600
 11
-90.427185
 21
-98.158600
  0
LINE
  8
0
 62
     4
 10
51.500767
 20
-37.518627
 11
51.530773
 21
-37.458618
  0
LINE
  8
0
 62
     4
 10
50.980774
 20
-38.858627
 11
50.980774
 21
-39.458618
  0
LINE
  8
0
 62
     4
 10
56.080765
 20
-38.858627
 11
56.080765
 21
-39.458618
  0
LINE
  8
0
 62
     4
 10
56.080765
 20
-38.858627
 11
50.980774
 21
-38.858627
  0
LINE
  8
0
 62
     4
 10
50.530777
 20
-40.458618
 11
65.530777
 21
-40.458618
  0
LINE
  8
0
 62
     4
 10
50.530777
 20
-39.458618
 11
65.530777
 21
-39.458618
  0
LINE
  8
0
 62
     4
 10
65.530777
 20
-39.458626
 11
64.530777
 21
-37.458622
  0
LINE
  8
0
 62
     4
 10
55.350769
 20
-37.458618
 11
64.530777
 21
-37.458618
  0
LINE
  8
0
 62
     4
 10
55.780777
 20
-37.598618
 11
55.780777
 21
-38.858627
  0
LINE
  8
0
 62
     4
 10
51.530777
 20
-37.458618
 11
51.650772
 21
-37.458618
  0
LINE
  8
0
 62
     4
 10
51.280777
 20
-37.598618
 11
51.280777
 21
-38.858627
  0
LINE
  8
0
 62
     4
 10
50.530773
 20
-39.458618
 11
51.280773
 21
-37.958622
  0
LINE
  8
0
 62
     4
 10
56.530777
 20
-37.458618
 11
56.530777
 21
-39.458618
  0
LINE
  8
0
 62
     4
 10
65.530777
 20
-39.458618
 11
65.530777
 21
-65.658615
  0
LINE
  8
0
 62
     4
 10
50.530777
 20
-39.458618
 11
50.530777
 21
-65.658615
  0
LINE
  8
0
 62
     4
 10
35.500782
 20
-37.518627
 11
35.530777
 21
-37.458630
  0
LINE
  8
0
 62
     4
 10
34.980778
 20
-38.858627
 11
34.980778
 21
-39.458618
  0
LINE
  8
0
 62
     4
 10
40.080776
 20
-38.858627
 11
40.080776
 21
-39.458618
  0
LINE
  8
0
 62
     4
 10
40.080776
 20
-38.858627
 11
34.980778
 21
-38.858627
  0
LINE
  8
0
 62
     4
 10
34.530777
 20
-40.458618
 11
49.530777
 21
-40.458618
  0
LINE
  8
0
 62
     4
 10
34.530777
 20
-39.458618
 11
49.530777
 21
-39.458618
  0
LINE
  8
0
 62
     4
 10
49.530781
 20
-39.458630
 11
48.530781
 21
-37.458630
  0
LINE
  8
0
 62
     4
 10
39.350777
 20
-37.458618
 11
48.530777
 21
-37.458618
  0
LINE
  8
0
 62
     4
 10
39.780777
 20
-37.598618
 11
39.780777
 21
-38.858627
  0
LINE
  8
0
 62
     4
 10
35.530777
 20
-37.458618
 11
35.650776
 21
-37.458618
  0
LINE
  8
0
 62
     4
 10
35.280777
 20
-37.598618
 11
35.280777
 21
-38.858627
  0
LINE
  8
0
 62
     4
 10
34.530781
 20
-39.458630
 11
35.280788
 21
-37.958618
  0
LINE
  8
0
 62
     4
 10
40.530777
 20
-37.458618
 11
40.530777
 21
-39.458618
  0
LINE
  8
0
 62
     4
 10
49.530777
 20
-39.458618
 11
49.530777
 21
-65.658615
  0
LINE
  8
0
 62
     4
 10
34.530777
 20
-39.458618
 11
34.530777
 21
-65.658615
  0
LINE
  8
0
 62
     4
 10
19.510782
 20
-37.518627
 11
19.530785
 21
-37.458626
  0
LINE
  8
0
 62
     4
 10
18.980778
 20
-38.858627
 11
18.980778
 21
-39.458618
  0
LINE
  8
0
 62
     4
 10
24.080776
 20
-38.858627
 11
24.080776
 21
-39.458618
  0
LINE
  8
0
 62
     4
 10
24.080776
 20
-38.858627
 11
18.980778
 21
-38.858627
  0
LINE
  8
0
 62
     4
 10
18.530777
 20
-40.458618
 11
33.530777
 21
-40.458618
  0
LINE
  8
0
 62
     4
 10
18.530777
 20
-39.458618
 11
33.530777
 21
-39.458618
  0
LINE
  8
0
 62
     4
 10
33.530777
 20
-39.458622
 11
32.530777
 21
-37.458622
  0
LINE
  8
0
 62
     4
 10
23.360779
 20
-37.458618
 11
32.530777
 21
-37.458618
  0
LINE
  8
0
 62
     4
 10
23.780777
 20
-37.598618
 11
23.780777
 21
-38.858627
  0
LINE
  8
0
 62
     4
 10
19.530777
 20
-37.458618
 11
19.660778
 21
-37.458618
  0
LINE
  8
0
 62
     4
 10
19.280777
 20
-37.598618
 11
19.280777
 21
-38.858627
  0
LINE
  8
0
 62
     4
 10
18.530777
 20
-39.458622
 11
19.280777
 21
-37.958626
  0
LINE
  8
0
 62
     4
 10
24.530777
 20
-37.458618
 11
24.530777
 21
-39.458618
  0
LINE
  8
0
 62
     4
 10
33.530777
 20
-39.458618
 11
33.530777
 21
-65.658615
  0
LINE
  8
0
 62
     4
 10
18.530777
 20
-39.458618
 11
18.530777
 21
-65.658615
  0
LINE
  8
0
 62
     4
 10
67.500771
 20
-37.518620
 11
67.530769
 21
-37.458626
  0
LINE
  8
0
 62
     4
 10
66.980774
 20
-38.858627
 11
66.980774
 21
-39.458618
  0
LINE
  8
0
 62
     4
 10
72.080765
 20
-38.858627
 11
72.080765
 21
-39.458618
  0
LINE
  8
0
 62
     4
 10
72.080765
 20
-38.858627
 11
66.980774
 21
-38.858627
  0
LINE
  8
0
 62
     4
 10
66.530777
 20
-40.458618
 11
81.530777
 21
-40.458618
  0
LINE
  8
0
 62
     4
 10
66.530777
 20
-39.458618
 11
81.530777
 21
-39.458618
  0
LINE
  8
0
 62
     4
 10
81.530762
 20
-39.458622
 11
80.530762
 21
-37.458622
  0
LINE
  8
0
 62
     4
 10
71.350769
 20
-37.458618
 11
80.530777
 21
-37.458618
  0
LINE
  8
0
 62
     4
 10
71.780777
 20
-37.598618
 11
71.780777
 21
-38.858627
  0
LINE
  8
0
 62
     4
 10
67.530777
 20
-37.458618
 11
67.650772
 21
-37.458618
  0
LINE
  8
0
 62
     4
 10
67.280777
 20
-37.598618
 11
67.280777
 21
-38.858627
  0
LINE
  8
0
 62
     4
 10
66.530769
 20
-39.458626
 11
67.280769
 21
-37.958630
  0
LINE
  8
0
 62
     4
 10
72.530777
 20
-37.458618
 11
72.530777
 21
-39.458618
  0
LINE
  8
0
 62
     4
 10
81.530777
 20
-39.458618
 11
81.530777
 21
-65.658615
  0
LINE
  8
0
 62
     4
 10
66.530777
 20
-39.458618
 11
66.530777
 21
-65.658615
  0
LINE
  8
0
  6
CENTER
 62
     2
 10
98.030777
 20
-75.658615
 11
106.030777
 21
-75.658615
  0
LINE
  8
0
  6
CENTER
 62
     2
 10
10.030777
 20
-75.658615
 11
18.030777
 21
-75.658615
  0
LINE
  8
0
  6
CENTER
 62
     2
 10
102.030777
 20
-71.658615
 11
102.030777
 21
-79.658615
  0
LINE
  8
0
  6
CENTER
 62
     2
 10
14.030777
 20
-71.658615
 11
14.030777
 21
-79.658615
  0
LINE
  8
0
 10
33.530777
 20
-75.698624
 11
33.530777
 21
-98.158615
  0
LINE
  8
0
 10
18.530777
 20
-75.698624
 11
18.530777
 21
-98.158615
  0
LINE
  8
0
 10
30.610777
 20
-75.578621
 11
32.440769
 21
-73.748634
  0
LINE
  8
0
 10
30.610775
 20
-73.748619
 11
32.440777
 21
-75.578621
  0
LINE
  8
0
 10
19.620781
 20
-75.578621
 11
21.450779
 21
-73.748619
  0
LINE
  8
0
 10
19.620789
 20
-73.748627
 11
21.450783
 21
-75.578613
  0
LINE
  8
0
 10
18.530777
 20
-65.658615
 11
33.530777
 21
-65.658615
  0
LINE
  8
0
  6
CENTER
 62
     2
 10
22.530777
 20
-89.658615
 11
29.530777
 21
-89.658615
  0
LINE
  8
0
  6
CENTER
 62
     2
 10
22.530777
 20
-77.658615
 11
29.530777
 21
-77.658615
  0
LINE
  8
0
  6
CENTER
 62
     2
 10
23.530777
 20
-69.158615
 11
28.530777
 21
-69.158615
  0
LINE
  8
0
 10
18.530777
 20
-98.158615
 11
33.530777
 21
-98.158615
  0
LINE
  8
0
 10
18.530777
 20
-95.658615
 11
33.530777
 21
-95.658615
  0
LINE
  8
0
  6
CENTER
 62
     2
 10
26.030777
 20
-34.958618
 11
26.030777
 21
-101.818619
  0
LINE
  8
0
 10
33.530777
 20
-65.658615
 11
33.530777
 21
-73.628616
  0
LINE
  8
0
 10
18.530777
 20
-65.658615
 11
18.530777
 21
-73.628616
  0
LINE
  8
0
 10
49.530777
 20
-75.698624
 11
49.530777
 21
-98.158615
  0
LINE
  8
0
 10
34.530777
 20
-75.698624
 11
34.530777
 21
-98.158615
  0
LINE
  8
0
 10
46.610771
 20
-75.578621
 11
48.440773
 21
-73.748619
  0
LINE
  8
0
 10
46.610775
 20
-73.748619
 11
48.440777
 21
-75.578621
  0
LINE
  8
0
 10
35.610764
 20
-75.578621
 11
37.440765
 21
-73.748627
  0
LINE
  8
0
 10
35.610767
 20
-73.748627
 11
37.440769
 21
-75.578613
  0
LINE
  8
0
 10
34.530777
 20
-65.658615
 11
49.530777
 21
-65.658615
  0
LINE
  8
0
  6
CENTER
 62
     2
 10
38.530777
 20
-89.658615
 11
45.530777
 21
-89.658615
  0
LINE
  8
0
  6
CENTER
 62
     2
 10
38.530777
 20
-77.658615
 11
45.530777
 21
-77.658615
  0
LINE
  8
0
  6
CENTER
 62
     2
 10
39.530777
 20
-69.158615
 11
44.530777
 21
-69.158615
  0
LINE
  8
0
 10
34.530777
 20
-98.158615
 11
49.530777
 21
-98.158615
  0
LINE
  8
0
 10
34.530777
 20
-95.658615
 11
49.530777
 21
-95.658615
  0
LINE
  8
0
  6
CENTER
 62
     2
 10
42.030777
 20
-34.958618
 11
42.030777
 21
-99.648613
  0
LINE
  8
0
 10
49.530777
 20
-65.658615
 11
49.530777
 21
-73.628616
  0
LINE
  8
0
 10
34.530777
 20
-65.658615
 11
34.530777
 21
-73.628616
  0
LINE
  8
0
 10
65.530777
 20
-75.698624
 11
65.530777
 21
-85.658615
  0
LINE
  8
0
 10
50.530777
 20
-75.698624
 11
50.530777
 21
-85.658615
  0
LINE
  8
0
 10
62.610767
 20
-75.578621
 11
64.440773
 21
-73.748619
  0
LINE
  8
0
 10
62.610767
 20
-73.748619
 11
64.440773
 21
-75.578613
  0
LINE
  8
0
 10
51.610771
 20
-75.578613
 11
53.440762
 21
-73.748627
  0
LINE
  8
0
 10
51.610767
 20
-73.748627
 11
53.440769
 21
-75.578636
  0
LINE
  8
0
 10
50.530777
 20
-65.658615
 11
65.530777
 21
-65.658615
  0
LINE
  8
0
  6
CENTER
 62
     2
 10
58.030777
 20
-35.028625
 11
58.030777
 21
-89.658615
  0
LINE
  8
0
  6
CENTER
 62
     2
 10
54.530777
 20
-77.658615
 11
61.530777
 21
-77.658615
  0
LINE
  8
0
  6
CENTER
 62
     2
 10
55.530777
 20
-69.158615
 11
60.530777
 21
-69.158615
  0
LINE
  8
0
 10
50.530777
 20
-85.658615
 11
65.530777
 21
-85.658615
  0
LINE
  8
0
 10
50.530777
 20
-65.658615
 11
50.530777
 21
-73.628616
  0
LINE
  8
0
 10
65.530777
 20
-65.658615
 11
65.530777
 21
-73.628616
  0
LINE
  8
0
 10
50.530777
 20
-83.158615
 11
65.530777
 21
-83.158615
  0
LINE
  8
0
 10
81.530777
 20
-75.698624
 11
81.530777
 21
-85.658615
  0
LINE
  8
0
 10
66.530777
 20
-75.698624
 11
66.530777
 21
-85.658615
  0
LINE
  8
0
 10
78.610764
 20
-75.578613
 11
80.440765
 21
-73.748611
  0
LINE
  8
0
 10
78.610764
 20
-73.748619
 11
80.440758
 21
-75.578621
  0
LINE
  8
0
 10
67.610771
 20
-75.578621
 11
69.440773
 21
-73.748619
  0
LINE
  8
0
 10
67.610771
 20
-73.748619
 11
69.440773
 21
-75.578613
  0
LINE
  8
0
 10
66.530777
 20
-65.658615
 11
81.530777
 21
-65.658615
  0
LINE
  8
0
  6
CENTER
 62
     2
 10
74.030777
 20
-35.028625
 11
74.030777
 21
-89.658615
  0
LINE
  8
0
  6
CENTER
 62
     2
 10
70.530777
 20
-77.658615
 11
77.530777
 21
-77.658615
  0
LINE
  8
0
  6
CENTER
 62
     2
 10
71.530777
 20
-69.158615
 11
76.530777
 21
-69.158615
  0
LINE
  8
0
 10
66.530777
 20
-85.658615
 11
81.530777
 21
-85.658615
  0
LINE
  8
0
 10
66.530777
 20
-65.658615
 11
66.530777
 21
-73.628616
  0
LINE
  8
0
 10
81.530777
 20
-65.658615
 11
81.530777
 21
-73.628616
  0
LINE
  8
0
 10
66.530777
 20
-83.158615
 11
81.530777
 21
-83.158615
  0
LINE
  8
0
 62
     4
 10
83.610771
 20
-75.578613
 11
85.440773
 21
-73.748611
  0
LINE
  8
0
 62
     4
 10
94.610756
 20
-75.578613
 11
96.440758
 21
-73.748611
  0
LINE
  8
0
 62
     4
 10
83.610764
 20
-73.748619
 11
85.440765
 21
-75.578621
  0
LINE
  8
0
 62
     4
 10
94.610756
 20
-73.748611
 11
96.440758
 21
-75.578613
  0
LINE
  8
0
  6
CENTER
 62
     2
 10
90.030777
 20
-96.928619
 11
90.030777
 21
-101.818619
  0
LINE
  8
0
 62
     4
 10
97.530777
 20
-75.698624
 11
97.530777
 21
-79.658615
  0
LINE
  8
0
 62
     4
 10
82.530777
 20
-75.698624
 11
82.530777
 21
-79.658615
  0
LINE
  8
0
 10
81.530777
 20
-58.158615
 11
108.030777
 21
-58.158615
  0
LINE
  8
0
 10
33.530777
 20
-58.158615
 11
34.530777
 21
-58.158615
  0
LINE
  8
0
 10
49.530777
 20
-58.158615
 11
50.530777
 21
-58.158615
  0
LINE
  8
0
 10
65.530777
 20
-58.158615
 11
66.530777
 21
-58.158615
  0
LINE
  8
0
 10
8.030777
 20
-58.158615
 11
8.030777
 21
-98.158615
  0
LINE
  8
0
 10
108.030777
 20
-58.158615
 11
108.030777
 21
-98.158615
  0
LINE
  8
0
 10
8.030777
 20
-58.158615
 11
18.530777
 21
-58.158615
  0
LINE
  8
0
 10
82.130768
 20
-100.158615
 11
97.930771
 21
-100.158615
  0
LINE
  8
0
 10
18.130777
 20
-98.158615
 11
18.130777
 21
-100.158615
  0
LINE
  8
0
 10
33.930779
 20
-98.158615
 11
33.930779
 21
-100.158615
  0
LINE
  8
0
 10
18.130777
 20
-100.158615
 11
33.930779
 21
-100.158615
  0
LINE
  8
0
 10
82.130768
 20
-98.158615
 11
82.130768
 21
-100.158615
  0
LINE
  8
0
 10
97.930771
 20
-98.158615
 11
97.930771
 21
-100.158615
  0
LINE
  8
0
 62
     4
 10
84.530777
 20
-81.658615
 11
95.530777
 21
-81.658615
  0
LINE
  8
0
 62
     4
 10
84.530777
 20
-66.658615
 11
95.530777
 21
-66.658615
  0
LINE
  8
0
 62
     4
 10
82.530777
 20
-68.658615
 11
82.530777
 21
-73.628616
  0
LINE
  8
0
 62
     4
 10
97.530777
 20
-68.658615
 11
97.530777
 21
-73.628616
  0
LINE
  8
0
  6
CENTER
 62
     1
 10
90.030777
 20
-64.678619
 11
90.030777
 21
-83.748627
  0
LINE
  8
0
 10
8.030777
 20
-98.158615
 11
108.030777
 21
-98.158615
  0
LINE
  8
0
 62
     4
 10
215.488739
 20
-47.338593
 11
215.488739
 21
-47.978592
  0
LINE
  8
0
 10
-271.250000
 20
115.000000
 11
-271.250000
 21
-185.000000
  0
LINE
  8
0
 10
-236.250000
 20
115.000000
 11
-236.250000
 21
-185.000000
  0
LINE
  8
0
 10
-271.250000
 20
115.000000
 11
-161.250000
 21
115.000000
  0
LINE
  8
0
 10
-271.250000
 20
100.000000
 11
-161.250000
 21
100.000000
  0
LINE
  8
0
 10
-271.250000
 20
85.000000
 11
-161.250000
 21
85.000000
  0
LINE
  8
0
 10
-271.250000
 20
70.000000
 11
-161.250000
 21
70.000000
  0
LINE
  8
0
 10
-271.250000
 20
55.000000
 11
-161.250000
 21
55.000000
  0
LINE
  8
0
 10
-271.250000
 20
40.000000
 11
-161.250000
 21
40.000000
  0
LINE
  8
0
 10
-271.250000
 20
25.000000
 11
-161.250000
 21
25.000000
  0
LINE
  8
0
 10
-271.250000
 20
10.000000
 11
-161.250000
 21
10.000000
  0
LINE
  8
0
 10
-271.250000
 20
-5.000000
 11
-161.250000
 21
-5.000000
  0
LINE
  8
0
 10
-271.250000
 20
-20.000000
 11
-161.250000
 21
-20.000000
  0
LINE
  8
0
 10
-271.250000
 20
-35.000000
 11
-161.250000
 21
-35.000000
  0
LINE
  8
0
 10
-211.250000
 20
115.000000
 11
-211.250000
 21
-185.000000
  0
LINE
  8
0
 10
-186.250000
 20
115.000000
 11
-186.250000
 21
-185.000000
  0
LINE
  8
0
 10
-161.250000
 20
115.000000
 11
-161.250000
 21
-185.000000
  0
LINE
  8
0
 10
-271.250000
 20
-50.000000
 11
-161.250000
 21
-50.000000
  0
LINE
  8
0
 10
-271.250000
 20
-65.000000
 11
-161.250000
 21
-65.000000
  0
LINE
  8
0
 10
-271.250000
 20
-80.000000
 11
-161.250000
 21
-80.000000
  0
LINE
  8
0
 10
-271.250000
 20
-95.000000
 11
-161.250000
 21
-95.000000
  0
LINE
  8
0
 10
-271.250000
 20
-110.000000
 11
-161.250000
 21
-110.000000
  0
LINE
  8
0
 10
-271.250000
 20
-125.000000
 11
-161.250000
 21
-125.000000
  0
LINE
  8
0
 10
-271.250000
 20
-140.000000
 11
-161.250000
 21
-140.000000
  0
LINE
  8
0
 10
-271.250000
 20
-155.000000
 11
-161.250000
 21
-155.000000
  0
LINE
  8
0
 10
-271.250000
 20
-170.000000
 11
-161.250000
 21
-170.000000
  0
LINE
  8
0
 10
-271.250000
 20
-185.000000
 11
-161.250000
 21
-185.000000
  0
LINE
  8
0
 10
-281.250000
 20
195.500000
 11
282.099854
 21
195.500000
  0
LINE
  8
0
 10
-281.250000
 20
195.500000
 11
-281.250000
 21
-195.000000
  0
LINE
  8
0
 10
282.099854
 20
195.500000
 11
282.099854
 21
-195.000000
  0
LINE
  8
0
 10
-281.250000
 20
-195.000000
 11
282.099854
 21
-195.000000
  0
LINE
  8
0
 10
162.099976
 20
-175.000000
 11
162.099976
 21
-195.000000
  0
LINE
  8
0
 10
162.099976
 20
-175.000000
 11
282.099854
 21
-175.000000
  0
LINE
  8
0
 10
162.099976
 20
175.500000
 11
282.099854
 21
175.500000
  0
LINE
  8
0
 10
-281.250000
 20
175.500000
 11
-161.250000
 21
175.500000
  0
LINE
  8
0
 10
162.099976
 20
195.500000
 11
162.099976
 21
175.500000
  0
LINE
  8
0
 10
-161.250000
 20
195.500000
 11
-161.250000
 21
175.500000
  0
ARC
  8
0
 10
26.030792
 20
104.409180
 40
2.248999
 50
316.080994
 51
223.919022
  0
ARC
  8
0
 62
     4
 10
78.530792
 20
80.409180
 40
3.000000
 50
180.000000
 51
270.000000
  0
ARC
  8
0
 62
     4
 10
69.530792
 20
62.409180
 40
3.000000
 50
0.000000
 51
90.000000
  0
CIRCLE
  8
0
 62
     4
 10
78.530792
 20
80.409180
 40
2.550000
  0
CIRCLE
  8
0
 62
     4
 10
69.530792
 20
62.409180
 40
2.550000
  0
CIRCLE
  8
0
 62
     4
 10
78.530792
 20
80.409180
 40
2.250000
  0
CIRCLE
  8
0
 62
     4
 10
69.530792
 20
62.409180
 40
2.250000
  0
ARC
  8
0
 62
     4
 10
30.530796
 20
80.409195
 40
3.000004
 50
180.000153
 51
269.999969
  0
ARC
  8
0
 62
     4
 10
21.530788
 20
62.409180
 40
3.000004
 50
0.000073
 51
89.999893
  0
CIRCLE
  8
0
 62
     4
 10
30.530800
 20
80.409180
 40
2.550000
  0
CIRCLE
  8
0
 62
     4
 10
21.530785
 20
62.409180
 40
2.550000
  0
CIRCLE
  8
0
 62
     4
 10
30.530800
 20
80.409180
 40
2.250000
  0
CIRCLE
  8
0
 62
     4
 10
21.530785
 20
62.409180
 40
2.250000
  0
ARC
  8
0
 62
     4
 10
46.530792
 20
80.409180
 40
3.000000
 50
180.000000
 51
270.000000
  0
ARC
  8
0
 62
     4
 10
37.530788
 20
62.409180
 40
3.000004
 50
0.000073
 51
89.999855
  0
CIRCLE
  8
0
 62
     4
 10
46.530792
 20
80.409180
 40
2.550000
  0
CIRCLE
  8
0
 62
     4
 10
37.530785
 20
62.409180
 40
2.550000
  0
CIRCLE
  8
0
 62
     4
 10
46.530792
 20
80.409180
 40
2.250000
  0
CIRCLE
  8
0
 62
     4
 10
37.530785
 20
62.409180
 40
2.250000
  0
CIRCLE
  8
0
 62
     4
 10
62.530792
 20
80.409180
 40
2.550000
  0
ARC
  8
0
 62
     4
 10
53.530792
 20
62.409180
 40
3.000000
 50
0.000000
 51
90.000000
  0
ARC
  8
0
 62
     4
 10
62.530792
 20
80.409180
 40
3.000000
 50
180.000000
 51
270.000000
  0
CIRCLE
  8
0
 62
     4
 10
62.530792
 20
80.409180
 40
2.250000
  0
CIRCLE
  8
0
 62
     4
 10
53.530792
 20
62.409180
 40
2.550000
  0
CIRCLE
  8
0
 62
     4
 10
53.530792
 20
62.409180
 40
2.250000
  0
ARC
  8
0
 62
     4
 10
84.530792
 20
81.448151
 40
2.338970
 50
195.853821
 51
344.146179
  0
ARC
  8
0
 62
     4
 10
95.530792
 20
81.448151
 40
2.338970
 50
195.853821
 51
344.146179
  0
CIRCLE
  8
0
 10
90.030777
 20
104.409180
 40
2.250000
  0
ARC
  8
0
 10
26.030792
 20
104.409180
 40
2.245175
 50
244.119827
 51
295.880341
  0
ARC
  8
0
 62
     4
 10
172.493729
 20
-43.158630
 40
6.000484
 50
71.791565
 51
108.208427
  0
ARC
  8
0
 62
     4
 10
190.488724
 20
-43.158585
 40
5.997977
 50
67.967873
 51
112.032112
  0
CIRCLE
  8
0
 10
201.488724
 20
-84.158600
 40
4.283000
  0
CIRCLE
  8
0
 10
201.488724
 20
-67.158600
 40
4.283000
  0
CIRCLE
  8
0
 62
     2
 10
201.488724
 20
-84.158600
 40
4.863999
  0
CIRCLE
  8
0
 62
     2
 10
201.488724
 20
-67.158600
 40
4.863999
  0
ARC
  8
0
 10
176.188736
 20
-74.663605
 40
5.991514
 50
162.366394
 51
197.633484
  0
ARC
  8
0
 62
     4
 10
191.527710
 20
-74.158600
 40
2.338977
 50
105.854362
 51
254.145630
  0
ARC
  8
0
 62
     4
 10
-86.432190
 20
-43.158630
 40
6.000486
 50
71.791496
 51
108.208359
  0
ARC
  8
0
 62
     4
 10
-68.427185
 20
-43.158585
 40
5.997977
 50
67.967873
 51
112.032112
  0
CIRCLE
  8
0
 10
-97.427185
 20
-84.158600
 40
4.283000
  0
CIRCLE
  8
0
 10
-97.427185
 20
-67.158600
 40
4.283000
  0
CIRCLE
  8
0
 62
     2
 10
-97.427185
 20
-84.158600
 40
4.863999
  0
CIRCLE
  8
0
 62
     2
 10
-97.427185
 20
-67.158600
 40
4.863999
  0
ARC
  8
0
 10
-72.127197
 20
-74.663605
 40
5.991521
 50
342.366425
 51
17.633581
  0
CIRCLE
  8
0
 10
74.030777
 20
-77.658615
 40
2.099999
  0
CIRCLE
  8
0
 10
58.030777
 20
-77.658615
 40
2.099999
  0
CIRCLE
  8
0
 10
42.030777
 20
-89.658615
 40
2.099999
  0
CIRCLE
  8
0
 10
42.030777
 20
-77.658615
 40
2.099999
  0
CIRCLE
  8
0
 10
26.030777
 20
-89.658615
 40
2.099999
  0
CIRCLE
  8
0
 10
26.030777
 20
-77.658615
 40
2.099999
  0
ARC
  8
0
 62
     4
 10
21.530777
 20
-43.158630
 40
5.998024
 50
67.968033
 51
112.031937
  0
ARC
  8
0
 62
     4
 10
30.525776
 20
-43.158646
 40
6.000485
 50
71.791527
 51
108.208389
  0
ARC
  8
0
 62
     4
 10
69.530777
 20
-43.158630
 40
5.998024
 50
67.968048
 51
112.031952
  0
ARC
  8
0
 62
     4
 10
78.525772
 20
-43.158646
 40
6.000486
 50
71.791496
 51
108.208359
  0
ARC
  8
0
 62
     4
 10
46.525772
 20
-43.158646
 40
6.000485
 50
71.791527
 51
108.208389
  0
ARC
  8
0
 62
     4
 10
37.530777
 20
-43.158630
 40
5.998024
 50
67.968048
 51
112.031914
  0
ARC
  8
0
 62
     4
 10
62.525772
 20
-43.158646
 40
6.000486
 50
71.791496
 51
108.208389
  0
ARC
  8
0
 62
     4
 10
53.530777
 20
-43.158630
 40
5.998024
 50
67.968048
 51
112.031914
  0
CIRCLE
  8
0
 10
31.530777
 20
-74.658615
 40
2.250000
  0
CIRCLE
  8
0
 10
20.530777
 20
-74.658615
 40
2.250000
  0
CIRCLE
  8
0
 10
26.030777
 20
-69.158615
 40
1.500000
  0
ARC
  8
0
 10
20.530781
 20
-74.663620
 40
2.700785
 50
222.223755
 51
137.776245
  0
ARC
  8
0
 10
31.530773
 20
-74.663620
 40
2.700787
 50
42.223728
 51
317.776276
  0
CIRCLE
  8
0
 62
     2
 10
26.030777
 20
-77.658615
 40
2.500000
  0
CIRCLE
  8
0
 62
     2
 10
26.030777
 20
-89.658615
 40
2.500000
  0
CIRCLE
  8
0
 10
47.530777
 20
-74.658615
 40
2.250000
  0
CIRCLE
  8
0
 10
36.530777
 20
-74.658615
 40
2.250000
  0
CIRCLE
  8
0
 10
42.030777
 20
-69.158615
 40
1.500000
  0
ARC
  8
0
 10
36.530781
 20
-74.663620
 40
2.700787
 50
222.223724
 51
137.776276
  0
ARC
  8
0
 10
47.530762
 20
-74.663620
 40
2.700787
 50
42.223728
 51
317.776276
  0
CIRCLE
  8
0
 62
     2
 10
42.030777
 20
-77.658615
 40
2.500000
  0
CIRCLE
  8
0
 62
     2
 10
42.030777
 20
-89.658615
 40
2.500000
  0
CIRCLE
  8
0
 10
63.530777
 20
-74.658615
 40
2.250000
  0
CIRCLE
  8
0
 10
52.530777
 20
-74.658615
 40
2.250000
  0
CIRCLE
  8
0
 62
     2
 10
58.030777
 20
-77.658615
 40
2.500000
  0
ARC
  8
0
 10
52.530777
 20
-74.663620
 40
2.700787
 50
222.223724
 51
137.776276
  0
ARC
  8
0
 10
63.530762
 20
-74.663620
 40
2.700784
 50
42.223782
 51
317.776215
  0
CIRCLE
  8
0
 10
58.030777
 20
-69.158615
 40
1.500000
  0
CIRCLE
  8
0
 10
79.530792
 20
-74.658615
 40
2.250000
  0
CIRCLE
  8
0
 10
68.530792
 20
-74.658615
 40
2.250000
  0
CIRCLE
  8
0
 62
     2
 10
74.030792
 20
-77.658615
 40
2.500000
  0
ARC
  8
0
 10
68.530792
 20
-74.663620
 40
2.700795
 50
222.223557
 51
137.776443
  0
ARC
  8
0
 10
79.530777
 20
-74.663620
 40
2.700773
 50
42.223999
 51
317.776001
  0
CIRCLE
  8
0
 10
74.030792
 20
-69.158615
 40
1.500000
  0
CIRCLE
  8
0
 10
102.030777
 20
-75.658615
 40
2.250000
  0
CIRCLE
  8
0
 10
14.030777
 20
-75.658615
 40
2.250000
  0
CIRCLE
  8
0
 62
     4
 10
95.530792
 20
-74.658615
 40
2.250000
  0
CIRCLE
  8
0
 62
     4
 10
84.530792
 20
-74.658615
 40
2.250000
  0
ARC
  8
0
 62
     4
 10
95.530777
 20
-79.658630
 40
1.999992
 50
269.999786
 51
0.000219
  0
ARC
  8
0
 62
     4
 10
84.530777
 20
-79.658615
 40
2.000008
 50
180.000214
 51
269.999786
  0
ARC
  8
0
 62
     4
 10
84.530777
 20
-68.658630
 40
2.000008
 50
90.000221
 51
179.999786
  0
ARC
  8
0
 62
     4
 10
95.530777
 20
-68.658615
 40
1.999992
 50
359.999786
 51
90.000221
  0
TEXT
  8
0
 10
-266.000000
 20
157.720001
 40
6.300000
  1
MODEL:YM5F01
 50
0.000000
 41
1.052632
 51
0.000000
  7
STANDARD
  0
TEXT
  8
0
 10
-228.642654
 20
104.449997
 40
4.500000
  1
P1
 50
0.000000
 41
1.052632
 51
0.000000
  7
STANDARD
  0
TEXT
  8
0
 10
-203.642654
 20
104.449997
 40
4.500000
  1
P2
 50
0.000000
 41
1.052632
 51
0.000000
  7
STANDARD
  0
TEXT
  8
0
 10
-176.392654
 20
104.449997
 40
4.500000
  1
L
 50
0.000000
 41
1.052632
 51
0.000000
  7
STANDARD
  0
TEXT
  8
0
 10
-263.142670
 20
104.449997
 40
4.500000
  1
TYPE
 50
0.000000
 41
1.052632
 51
0.000000
  7
STANDARD
  0
TEXT
  8
0
 10
-269.500000
 20
90.800003
 40
4.500000
  1
YM 2F01
 50
0.000000
 41
1.052632
 51
0.000000
  7
STANDARD
  0
TEXT
  8
0
 10
-269.500000
 20
75.800003
 40
4.500000
  1
YM 3F01
 50
0.000000
 41
1.052632
 51
0.000000
  7
STANDARD
  0
TEXT
  8
0
 10
-269.500000
 20
60.799999
 40
4.500000
  1
YM 4F01
 50
0.000000
 41
1.052632
 51
0.000000
  7
STANDARD
  0
TEXT
  8
0
 10
-269.500000
 20
45.799999
 40
4.500000
  1
YM 5F01
 50
0.000000
 41
1.052632
 51
0.000000
  7
STANDARD
  0
TEXT
  8
0
 10
-269.500000
 20
30.799999
 40
4.500000
  1
YM 6F01
 50
0.000000
 41
1.052632
 51
0.000000
  7
STANDARD
  0
TEXT
  8
0
 10
-269.500000
 20
15.800000
 40
4.500000
  1
YM 7F01
 50
0.000000
 41
1.052632
 51
0.000000
  7
STANDARD
  0
TEXT
  8
0
 10
-269.500000
 20
0.800000
 40
4.500000
  1
YM 8F01
 50
0.000000
 41
1.052632
 51
0.000000
  7
STANDARD
  0
TEXT
  8
0
 10
-269.500000
 20
-14.200000
 40
4.500000
  1
YM 9F01
 50
0.000000
 41
1.052632
 51
0.000000
  7
STANDARD
  0
TEXT
  8
0
 10
-269.500000
 20
-179.199997
 40
4.500000
  1
YM20F01
 50
0.000000
 41
1.052632
 51
0.000000
  7
STANDARD
  0
TEXT
  8
0
 10
-205.892654
 20
-15.550001
 40
4.500000
  1
128
 50
0.000000
 41
1.052632
 51
0.000000
  7
STANDARD
  0
TEXT
  8
0
 10
-205.892654
 20
-0.550000
 40
4.500000
  1
112
 50
0.000000
 41
1.052632
 51
0.000000
  7
STANDARD
  0
TEXT
  8
0
 10
-201.392654
 20
14.450000
 40
4.500000
  1
96
 50
0.000000
 41
1.052632
 51
0.000000
  7
STANDARD
  0
TEXT
  8
0
 10
-201.392654
 20
29.449999
 40
4.500000
  1
80
 50
0.000000
 41
1.052632
 51
0.000000
  7
STANDARD
  0
TEXT
  8
0
 10
-201.392654
 20
44.450001
 40
4.500000
  1
64
 50
0.000000
 41
1.052632
 51
0.000000
  7
STANDARD
  0
TEXT
  8
0
 10
-201.392654
 20
59.450001
 40
4.500000
  1
48
 50
0.000000
 41
1.052632
 51
0.000000
  7
STANDARD
  0
TEXT
  8
0
 10
-201.392654
 20
74.449997
 40
4.500000
  1
32
 50
0.000000
 41
1.052632
 51
0.000000
  7
STANDARD
  0
TEXT
  8
0
 10
-201.392654
 20
89.449997
 40
4.500000
  1
16
 50
0.000000
 41
1.052632
 51
0.000000
  7
STANDARD
  0
TEXT
  8
0
 10
-269.500000
 20
-29.200001
 40
4.500000
  1
YM10F01
 50
0.000000
 41
1.052632
 51
0.000000
  7
STANDARD
  0
TEXT
  8
0
 10
-269.500000
 20
-44.200001
 40
4.500000
  1
YM11F01
 50
0.000000
 41
1.052632
 51
0.000000
  7
STANDARD
  0
TEXT
  8
0
 10
-269.500000
 20
-59.200001
 40
4.500000
  1
YM12F01
 50
0.000000
 41
1.052632
 51
0.000000
  7
STANDARD
  0
TEXT
  8
0
 10
-269.500000
 20
-74.199997
 40
4.500000
  1
YM13F01
 50
0.000000
 41
1.052632
 51
0.000000
  7
STANDARD
  0
TEXT
  8
0
 10
-269.500000
 20
-89.199997
 40
4.500000
  1
YM14F01
 50
0.000000
 41
1.052632
 51
0.000000
  7
STANDARD
  0
TEXT
  8
0
 10
-269.500000
 20
-104.199997
 40
4.500000
  1
YM15F01
 50
0.000000
 41
1.052632
 51
0.000000
  7
STANDARD
  0
TEXT
  8
0
 10
-269.500000
 20
-119.199997
 40
4.500000
  1
YM16F01
 50
0.000000
 41
1.052632
 51
0.000000
  7
STANDARD
  0
TEXT
  8
0
 10
-269.500000
 20
-134.199997
 40
4.500000
  1
YM17F01
 50
0.000000
 41
1.052632
 51
0.000000
  7
STANDARD
  0
TEXT
  8
0
 10
-269.500000
 20
-149.199997
 40
4.500000
  1
YM18F01
 50
0.000000
 41
1.052632
 51
0.000000
  7
STANDARD
  0
TEXT
  8
0
 10
-269.500000
 20
-164.199997
 40
4.500000
  1
YM19F01
 50
0.000000
 41
1.052632
 51
0.000000
  7
STANDARD
  0
TEXT
  8
0
 10
-205.892654
 20
-30.550001
 40
4.500000
  1
144
 50
0.000000
 41
1.052632
 51
0.000000
  7
STANDARD
  0
TEXT
  8
0
 10
-205.892654
 20
-45.549999
 40
4.500000
  1
160
 50
0.000000
 41
1.052632
 51
0.000000
  7
STANDARD
  0
TEXT
  8
0
 10
-205.892654
 20
-60.549999
 40
4.500000
  1
176
 50
0.000000
 41
1.052632
 51
0.000000
  7
STANDARD
  0
TEXT
  8
0
 10
-205.892654
 20
-75.550003
 40
4.500000
  1
192
 50
0.000000
 41
1.052632
 51
0.000000
  7
STANDARD
  0
TEXT
  8
0
 10
-205.892654
 20
-90.550003
 40
4.500000
  1
208
 50
0.000000
 41
1.052632
 51
0.000000
  7
STANDARD
  0
TEXT
  8
0
 10
-205.892654
 20
-105.550003
 40
4.500000
  1
224
 50
0.000000
 41
1.052632
 51
0.000000
  7
STANDARD
  0
TEXT
  8
0
 10
-205.892654
 20
-120.550003
 40
4.500000
  1
240
 50
0.000000
 41
1.052632
 51
0.000000
  7
STANDARD
  0
TEXT
  8
0
 10
-205.892654
 20
-135.550003
 40
4.500000
  1
256
 50
0.000000
 41
1.052632
 51
0.000000
  7
STANDARD
  0
TEXT
  8
0
 10
-205.892654
 20
-150.550003
 40
4.500000
  1
272
 50
0.000000
 41
1.052632
 51
0.000000
  7
STANDARD
  0
TEXT
  8
0
 10
-205.892654
 20
-165.550003
 40
4.500000
  1
288
 50
0.000000
 41
1.052632
 51
0.000000
  7
STANDARD
  0
TEXT
  8
0
 10
-205.892654
 20
-180.550003
 40
4.500000
  1
304
 50
0.000000
 41
1.052632
 51
0.000000
  7
STANDARD
  0
TEXT
  8
0
 10
-228.642654
 20
89.449997
 40
4.500000
  1
40
 50
0.000000
 41
1.052632
 51
0.000000
  7
STANDARD
  0
TEXT
  8
0
 10
-228.642654
 20
74.449997
 40
4.500000
  1
56
 50
0.000000
 41
1.052632
 51
0.000000
  7
STANDARD
  0
TEXT
  8
0
 10
-228.642654
 20
59.450001
 40
4.500000
  1
72
 50
0.000000
 41
1.052632
 51
0.000000
  7
STANDARD
  0
TEXT
  8
0
 10
-228.642654
 20
44.450001
 40
4.500000
  1
88
 50
0.000000
 41
1.052632
 51
0.000000
  7
STANDARD
  0
TEXT
  8
0
 10
-230.892654
 20
29.449999
 40
4.500000
  1
104
 50
0.000000
 41
1.052632
 51
0.000000
  7
STANDARD
  0
TEXT
  8
0
 10
-230.892654
 20
14.450000
 40
4.500000
  1
120
 50
0.000000
 41
1.052632
 51
0.000000
  7
STANDARD
  0
TEXT
  8
0
 10
-230.892654
 20
-0.550000
 40
4.500000
  1
136
 50
0.000000
 41
1.052632
 51
0.000000
  7
STANDARD
  0
TEXT
  8
0
 10
-230.892654
 20
-15.550001
 40
4.500000
  1
152
 50
0.000000
 41
1.052632
 51
0.000000
  7
STANDARD
  0
TEXT
  8
0
 10
-230.892654
 20
-30.550001
 40
4.500000
  1
168
 50
0.000000
 41
1.052632
 51
0.000000
  7
STANDARD
  0
TEXT
  8
0
 10
-230.892654
 20
-45.549999
 40
4.500000
  1
184
 50
0.000000
 41
1.052632
 51
0.000000
  7
STANDARD
  0
TEXT
  8
0
 10
-230.892654
 20
-60.549999
 40
4.500000
  1
200
 50
0.000000
 41
1.052632
 51
0.000000
  7
STANDARD
  0
TEXT
  8
0
 10
-230.892654
 20
-75.550003
 40
4.500000
  1
216
 50
0.000000
 41
1.052632
 51
0.000000
  7
STANDARD
  0
TEXT
  8
0
 10
-230.892654
 20
-90.550003
 40
4.500000
  1
232
 50
0.000000
 41
1.052632
 51
0.000000
  7
STANDARD
  0
TEXT
  8
0
 10
-230.892654
 20
-105.550003
 40
4.500000
  1
248
 50
0.000000
 41
1.052632
 51
0.000000
  7
STANDARD
  0
TEXT
  8
0
 10
-230.892654
 20
-120.550003
 40
4.500000
  1
264
 50
0.000000
 41
1.052632
 51
0.000000
  7
STANDARD
  0
TEXT
  8
0
 10
-230.892654
 20
-135.550003
 40
4.500000
  1
280
 50
0.000000
 41
1.052632
 51
0.000000
  7
STANDARD
  0
TEXT
  8
0
 10
-230.892654
 20
-150.550003
 40
4.500000
  1
296
 50
0.000000
 41
1.052632
 51
0.000000
  7
STANDARD
  0
TEXT
  8
0
 10
-230.892654
 20
-165.550003
 40
4.500000
  1
312
 50
0.000000
 41
1.052632
 51
0.000000
  7
STANDARD
  0
TEXT
  8
0
 10
-230.892654
 20
-180.550003
 40
4.500000
  1
328
 50
0.000000
 41
1.052632
 51
0.000000
  7
STANDARD
  0
TEXT
  8
0
 10
-178.642654
 20
89.449997
 40
4.500000
  1
52
 50
0.000000
 41
1.052632
 51
0.000000
  7
STANDARD
  0
TEXT
  8
0
 10
-178.642654
 20
74.449997
 40
4.500000
  1
68
 50
0.000000
 41
1.052632
 51
0.000000
  7
STANDARD
  0
TEXT
  8
0
 10
-178.642654
 20
59.450001
 40
4.500000
  1
84
 50
0.000000
 41
1.052632
 51
0.000000
  7
STANDARD
  0
TEXT
  8
0
 10
-180.892654
 20
44.450001
 40
4.500000
  1
100
 50
0.000000
 41
1.052632
 51
0.000000
  7
STANDARD
  0
TEXT
  8
0
 10
-180.892654
 20
29.449999
 40
4.500000
  1
116
 50
0.000000
 41
1.052632
 51
0.000000
  7
STANDARD
  0
TEXT
  8
0
 10
-180.892654
 20
14.450000
 40
4.500000
  1
132
 50
0.000000
 41
1.052632
 51
0.000000
  7
STANDARD
  0
TEXT
  8
0
 10
-180.892654
 20
-0.550000
 40
4.500000
  1
148
 50
0.000000
 41
1.052632
 51
0.000000
  7
STANDARD
  0
TEXT
  8
0
 10
-180.892654
 20
-15.550001
 40
4.500000
  1
164
 50
0.000000
 41
1.052632
 51
0.000000
  7
STANDARD
  0
TEXT
  8
0
 10
-180.892654
 20
-30.550001
 40
4.500000
  1
180
 50
0.000000
 41
1.052632
 51
0.000000
  7
STANDARD
  0
TEXT
  8
0
 10
-180.892654
 20
-45.549999
 40
4.500000
  1
196
 50
0.000000
 41
1.052632
 51
0.000000
  7
STANDARD
  0
TEXT
  8
0
 10
-180.892654
 20
-60.549999
 40
4.500000
  1
212
 50
0.000000
 41
1.052632
 51
0.000000
  7
STANDARD
  0
TEXT
  8
0
 10
-180.892654
 20
-90.550003
 40
4.500000
  1
244
 50
0.000000
 41
1.052632
 51
0.000000
  7
STANDARD
  0
TEXT
  8
0
 10
-180.892654
 20
-105.550003
 40
4.500000
  1
260
 50
0.000000
 41
1.052632
 51
0.000000
  7
STANDARD
  0
TEXT
  8
0
 10
-180.892654
 20
-120.550003
 40
4.500000
  1
276
 50
0.000000
 41
1.052632
 51
0.000000
  7
STANDARD
  0
TEXT
  8
0
 10
-180.892654
 20
-135.550003
 40
4.500000
  1
292
 50
0.000000
 41
1.052632
 51
0.000000
  7
STANDARD
  0
TEXT
  8
0
 10
-180.892654
 20
-150.550003
 40
4.500000
  1
308
 50
0.000000
 41
1.052632
 51
0.000000
  7
STANDARD
  0
TEXT
  8
0
 10
-180.892654
 20
-165.550003
 40
4.500000
  1
324
 50
0.000000
 41
1.052632
 51
0.000000
  7
STANDARD
  0
TEXT
  8
0
 10
-180.892654
 20
-180.550003
 40
4.500000
  1
340
 50
0.000000
 41
1.052632
 51
0.000000
  7
STANDARD
  0
TEXT
  8
0
 10
-180.892654
 20
-75.550003
 40
4.500000
  1
228
 50
0.000000
 41
1.052632
 51
0.000000
  7
STANDARD
  0
TEXT
  8
0
 10
-248.142654
 20
119.449997
 40
4.500000
  1
DIMENSION LIST
 50
0.000000
 41
1.052632
 51
0.000000
  7
STANDARD
  0
TEXT
  8
0
 10
-253.399719
 20
180.830002
 40
6.300000
  1
030 SERIES
 50
0.000000
 41
1.052632
 51
0.000000
  7
STANDARD
  0
TEXT
  8
0
 10
196.250259
 20
180.830002
 40
6.300000
  1
VER. 1.0
 50
0.000000
 41
1.052632
 51
0.000000
  7
STANDARD
  0
TEXT
  8
0
 10
167.564651
 20
-192.100006
 40
9.000000
  1
KOGANEI CORP.
 50
0.000000
 41
1.052632
 51
0.000000
  7
STANDARD
  0
LINE
  8
0
 62
     2
 10
26.030762
 20
-37.458572
 11
16.030764
 21
-20.138046
  0
LINE
  8
0
 62
     2
 10
26.030762
 20
-37.458572
 11
25.254305
 21
-34.560795
  0
LINE
  8
0
 62
     2
 10
26.030762
 20
-37.458572
 11
23.909443
 21
-35.337250
  0
TEXT
  8
0
 62
     2
 10
13.623777
 20
131.173950
 40
3.200000
  1
18
 50
0.000000
 41
1.052632
 51
0.000000
  7
STANDARD
  0
LINE
  8
0
 62
     2
 10
8.030777
 20
130.173950
 11
26.030792
 21
130.173950
  0
LINE
  8
0
 62
     2
 10
8.030777
 20
130.173950
 11
10.928555
 21
130.950409
  0
LINE
  8
0
 62
     2
 10
8.030777
 20
130.173950
 11
10.928555
 21
129.397491
  0
LINE
  8
0
 62
     2
 10
26.030792
 20
130.173950
 11
23.133015
 21
129.397491
  0
LINE
  8
0
 62
     2
 10
26.030792
 20
130.173950
 11
23.133015
 21
130.950409
  0
LINE
  8
0
 62
     2
 10
8.030777
 20
99.409180
 11
8.030777
 21
131.673950
  0
LINE
  8
0
 62
     2
 10
26.030792
 20
107.909180
 11
26.030792
 21
131.673950
  0
TEXT
  8
0
 62
     2
 10
54.623775
 20
131.173950
 40
3.200000
  1
P2
 50
0.000000
 41
1.052632
 51
0.000000
  7
STANDARD
  0
LINE
  8
0
 62
     2
 10
26.030792
 20
130.173950
 11
90.030777
 21
130.173950
  0
LINE
  8
0
 62
     2
 10
26.030792
 20
130.173950
 11
28.928570
 21
130.950409
  0
LINE
  8
0
 62
     2
 10
26.030792
 20
130.173950
 11
28.928570
 21
129.397491
  0
LINE
  8
0
 62
     2
 10
90.030777
 20
130.173950
 11
87.133003
 21
129.397491
  0
LINE
  8
0
 62
     2
 10
90.030777
 20
130.173950
 11
87.133003
 21
130.950409
  0
LINE
  8
0
 62
     2
 10
26.030792
 20
107.909180
 11
26.030792
 21
131.673950
  0
LINE
  8
0
 62
     2
 10
90.030777
 20
107.909180
 11
90.030777
 21
131.673950
  0
TEXT
  8
0
 62
     2
 10
95.623779
 20
131.173950
 40
3.200000
  1
18
 50
0.000000
 41
1.052632
 51
0.000000
  7
STANDARD
  0
LINE
  8
0
 62
     2
 10
90.030777
 20
130.173950
 11
108.030777
 21
130.173950
  0
LINE
  8
0
 62
     2
 10
90.030777
 20
130.173950
 11
92.928551
 21
130.950409
  0
LINE
  8
0
 62
     2
 10
90.030777
 20
130.173950
 11
92.928551
 21
129.397491
  0
LINE
  8
0
 62
     2
 10
108.030777
 20
130.173950
 11
105.133003
 21
129.397491
  0
LINE
  8
0
 62
     2
 10
108.030777
 20
130.173950
 11
105.133003
 21
130.950409
  0
LINE
  8
0
 62
     2
 10
90.030777
 20
107.909180
 11
90.030777
 21
131.673950
  0
LINE
  8
0
 62
     2
 10
108.030777
 20
99.409180
 11
108.030777
 21
131.673950
  0
TEXT
  8
0
 62
     2
 10
56.116982
 20
142.330261
 40
3.200000
  1
L
 50
0.000000
 41
1.052632
 51
0.000000
  7
STANDARD
  0
LINE
  8
0
 62
     2
 10
108.030777
 20
141.330261
 11
8.030777
 21
141.330261
  0
LINE
  8
0
 62
     2
 10
108.030777
 20
141.330261
 11
105.133003
 21
140.553802
  0
LINE
  8
0
 62
     2
 10
108.030777
 20
141.330261
 11
105.133003
 21
142.106720
  0
LINE
  8
0
 62
     2
 10
8.030777
 20
141.330261
 11
10.928555
 21
142.106720
  0
LINE
  8
0
 62
     2
 10
8.030777
 20
141.330261
 11
10.928555
 21
140.553802
  0
LINE
  8
0
 62
     2
 10
108.030777
 20
99.409180
 11
108.030777
 21
142.830261
  0
LINE
  8
0
 62
     2
 10
8.030777
 20
99.409180
 11
8.030777
 21
142.830261
  0
TEXT
  8
0
 62
     2
 10
9.223777
 20
-127.060379
 40
3.200000
  1
6
 50
0.000000
 41
1.052632
 51
0.000000
  7
STANDARD
  0
LINE
  8
0
 62
     2
 10
8.030777
 20
-128.060379
 11
14.030777
 21
-128.060379
  0
LINE
  8
0
 62
     2
 10
8.030777
 20
-128.060379
 11
5.132999
 21
-128.836838
  0
LINE
  8
0
 62
     2
 10
8.030777
 20
-128.060379
 11
5.132999
 21
-127.283920
  0
LINE
  8
0
 62
     2
 10
8.030777
 20
-128.060379
 11
2.030777
 21
-128.060379
  0
LINE
  8
0
 62
     2
 10
14.030777
 20
-128.060379
 11
16.928555
 21
-127.283920
  0
LINE
  8
0
 62
     2
 10
14.030777
 20
-128.060379
 11
16.928555
 21
-128.836838
  0
LINE
  8
0
 62
     2
 10
14.030777
 20
-128.060379
 11
20.030777
 21
-128.060379
  0
LINE
  8
0
 62
     2
 10
8.030777
 20
-98.158600
 11
8.030777
 21
-129.560379
  0
LINE
  8
0
 62
     2
 10
14.030777
 20
-79.658600
 11
14.030777
 21
-129.560379
  0
TEXT
  8
0
 62
     2
 10
54.623775
 20
-127.060379
 40
3.200000
  1
P1
 50
0.000000
 41
1.052632
 51
0.000000
  7
STANDARD
  0
LINE
  8
0
 62
     2
 10
14.030777
 20
-128.060379
 11
102.030777
 21
-128.060379
  0
LINE
  8
0
 62
     2
 10
14.030777
 20
-128.060379
 11
16.928555
 21
-127.283920
  0
LINE
  8
0
 62
     2
 10
14.030777
 20
-128.060379
 11
16.928555
 21
-128.836838
  0
LINE
  8
0
 62
     2
 10
102.030777
 20
-128.060379
 11
99.133003
 21
-128.836838
  0
LINE
  8
0
 62
     2
 10
102.030777
 20
-128.060379
 11
99.133003
 21
-127.283920
  0
LINE
  8
0
 62
     2
 10
14.030777
 20
-79.658600
 11
14.030777
 21
-129.560379
  0
LINE
  8
0
 62
     2
 10
102.030777
 20
-79.658600
 11
102.030777
 21
-129.560379
  0
TEXT
  8
0
 62
     2
 10
103.223778
 20
-127.060379
 40
3.200000
  1
6
 50
0.000000
 41
1.052632
 51
0.000000
  7
STANDARD
  0
LINE
  8
0
 62
     2
 10
102.030777
 20
-128.060379
 11
108.030777
 21
-128.060379
  0
LINE
  8
0
 62
     2
 10
102.030777
 20
-128.060379
 11
99.133003
 21
-128.836838
  0
LINE
  8
0
 62
     2
 10
102.030777
 20
-128.060379
 11
99.133003
 21
-127.283920
  0
LINE
  8
0
 62
     2
 10
102.030777
 20
-128.060379
 11
96.030777
 21
-128.060379
  0
LINE
  8
0
 62
     2
 10
108.030777
 20
-128.060379
 11
110.928551
 21
-127.283920
  0
LINE
  8
0
 62
     2
 10
108.030777
 20
-128.060379
 11
110.928551
 21
-128.836838
  0
LINE
  8
0
 62
     2
 10
108.030777
 20
-128.060379
 11
114.030777
 21
-128.060379
  0
LINE
  8
0
 62
     2
 10
102.030777
 20
-79.658600
 11
102.030777
 21
-129.560379
  0
LINE
  8
0
 62
     2
 10
108.030777
 20
-98.158600
 11
108.030777
 21
-129.560379
  0
LINE
  8
0
 62
     2
 10
42.030781
 20
-37.458595
 11
26.030767
 21
-9.745724
  0
LINE
  8
0
 62
     2
 10
26.030767
 20
-9.745724
 11
1.599936
 21
-9.745723
  0
LINE
  8
0
 62
     2
 10
42.030781
 20
-37.458595
 11
41.254326
 21
-34.560818
  0
LINE
  8
0
 62
     2
 10
42.030781
 20
-37.458595
 11
39.909462
 21
-35.337273
  0
TEXT
  8
0
 62
     2
 10
1.849936
 20
-8.745723
 40
3.200000
  1
030-4E1
 50
0.000000
 41
1.052632
 51
0.000000
  7
STANDARD
  0
LINE
  8
0
 62
     2
 10
26.030760
 20
-37.458576
 11
16.030764
 21
-20.138048
  0
LINE
  8
0
 62
     2
 10
16.030764
 20
-20.138048
 11
-8.019528
 21
-20.138048
  0
LINE
  8
0
 62
     2
 10
26.030760
 20
-37.458576
 11
25.254305
 21
-34.560799
  0
LINE
  8
0
 62
     2
 10
26.030760
 20
-37.458576
 11
23.909441
 21
-35.337254
  0
TEXT
  8
0
 62
     2
 10
-7.769528
 20
-19.138048
 40
3.200000
  1
030-4E1
 50
0.000000
 41
1.052632
 51
0.000000
  7
STANDARD
  0
LINE
  8
0
 62
     2
 10
58.030758
 20
-37.458569
 11
74.030724
 21
-9.745760
  0
LINE
  8
0
 62
     2
 10
74.030724
 20
-9.745760
 11
91.357956
 21
-9.745760
  0
LINE
  8
0
 62
     2
 10
58.030758
 20
-37.458569
 11
60.152077
 21
-35.337246
  0
LINE
  8
0
 62
     2
 10
58.030758
 20
-37.458569
 11
58.807213
 21
-34.560791
  0
TEXT
  8
0
 62
     2
 10
74.693954
 20
-8.745760
 40
3.200000
  1
030E1
 50
0.000000
 41
1.052632
 51
0.000000
  7
STANDARD
  0
LINE
  8
0
 62
     2
 10
74.030807
 20
-37.458603
 11
84.030807
 21
-20.138075
  0
LINE
  8
0
 62
     2
 10
84.030807
 20
-20.138075
 11
101.591431
 21
-20.138071
  0
LINE
  8
0
 62
     2
 10
74.030807
 20
-37.458603
 11
76.152130
 21
-35.337280
  0
LINE
  8
0
 62
     2
 10
74.030807
 20
-37.458603
 11
74.807266
 21
-34.560825
  0
TEXT
  8
0
 62
     2
 10
84.927429
 20
-19.138071
 40
3.200000
  1
030E1
 50
0.000000
 41
1.052632
 51
0.000000
  7
STANDARD
  0
LINE
  8
0
 62
     2
 10
90.030762
 20
-66.658577
 11
97.530769
 21
-53.668201
  0
LINE
  8
0
 62
     2
 10
97.530769
 20
-53.668201
 11
108.699608
 21
-53.668201
  0
LINE
  8
0
 62
     2
 10
90.030762
 20
-66.658577
 11
92.152084
 21
-64.537254
  0
LINE
  8
0
 62
     2
 10
90.030762
 20
-66.658577
 11
90.807220
 21
-63.760799
  0
TEXT
  8
0
 62
     2
 10
98.435608
 20
-52.668201
 40
3.200000
  1
-BP
 50
0.000000
 41
1.052632
 51
0.000000
  7
STANDARD
  0
ENDSEC
  0
EOF
