  0
SECTION
  2
HEADER
  0
ENDSEC
  0
SECTION
  2
TABLES
  0
TABLE
  2
LTYPE
 70
     4
  0
LTYPE
  2
CONTINUOUS
 70
    64
  3
Solid line
 72
    65
 73
     0
 40
0.000000
  0
LTYPE
  2
DASHED
 70
    64
  3
__ __ __ __ __ __ __ __ __ __ __ __ __ __ __
 72
    65
 73
     2
 40
3.500000
 49
2.000000
 49
-1.500000
  0
LTYPE
  2
CENTER
 70
    64
  3
____ _ ____ _ ____ _ ____ _ ____ _ ____ _ ____
 72
    65
 73
     4
 40
17.500000
 49
13.000000
 49
-1.500000
 49
1.500000
 49
-1.500000
  0
LTYPE
  2
PHANTOM
 70
    64
  3
_____ _ _ _____ _ _ _____ _ _ _____ _ _ ____  
 72
    65
 73
     6
 40
15.500000
 49
8.000000
 49
-1.500000
 49
1.500000
 49
-1.500000
 49
1.500000
 49
-1.500000
  0
LTYPE
  2
DASHED1
 70
    64
  3
__ __ __ __ __ __ __ __ __ __ __ __ __ __ __
 72
    65
 73
     2
 40
1.500000
 49
1.000000
 49
-0.500000
  0
LTYPE
  2
DASHED2
 70
    64
  3
__ __ __ __ __ __ __ __ __ __ __ __ __ __ __
 72
    65
 73
     2
 40
3.500000
 49
2.500000
 49
-1.000000
  0
LTYPE
  2
DASHED3
 70
    64
  3
__ __ __ __ __ __ __ __ __ __ __ __ __ __ __
 72
    65
 73
     2
 40
6.000000
 49
4.000000
 49
-2.000000
  0
LTYPE
  2
DASHED4
 70
    64
  3
__ __ __ __ __ __ __ __ __ __ __ __ __ __ __
 72
    65
 73
     2
 40
12.000000
 49
10.000000
 49
-2.000000
  0
LTYPE
  2
DASHED5
 70
    64
  3
__ __ __ __ __ __ __ __ __ __ __ __ __ __ __
 72
    65
 73
     2
 40
17.000000
 49
15.000000
 49
-2.000000
  0
LTYPE
  2
DASHED6
 70
    64
  3
__ __ __ __ __ __ __ __ __ __ __ __ __ __ __
 72
    65
 73
     2
 40
29.000000
 49
27.000000
 49
-2.000000
  0
LTYPE
  2
PHANTOM1
 70
    64
  3
_____ _ _ _____ _ _ _____ _ _ _____ _ _ ____  
 72
    65
 73
     6
 40
31.000000
 49
25.000000
 49
-1.500000
 49
1.000000
 49
-1.000000
 49
1.000000
 49
-1.500000
  0
LTYPE
  2
PHANTOM2
 70
    64
  3
_____ _ _ _____ _ _ _____ _ _ _____ _ _ ____  
 72
    65
 73
     6
 40
36.000000
 49
27.000000
 49
-1.500000
 49
2.500000
 49
-1.000000
 49
2.500000
 49
-1.500000
  0
LTYPE
  2
PHANTOM3
 70
    64
  3
_____ _ _ _____ _ _ _____ _ _ _____ _ _ ____  
 72
    65
 73
     6
 40
78.000000
 49
64.000000
 49
-2.000000
 49
4.000000
 49
-2.000000
 49
4.000000
 49
-2.000000
  0
LTYPE
  2
CENTER1
 70
    64
  3
____ _ ____ _ ____ _ ____ _ ____ _ ____ _ ____
 72
    65
 73
     4
 40
19.000000
 49
14.000000
 49
-1.000000
 49
3.000000
 49
-1.000000
  0
LTYPE
  2
CENTER2
 70
    64
  3
____ _ ____ _ ____ _ ____ _ ____ _ ____ _ ____
 72
    65
 73
     4
 40
28.500000
 49
25.000000
 49
-1.000000
 49
1.500000
 49
-1.000000
  0
LTYPE
  2
CENTER3
 70
    64
  3
____ _ ____ _ ____ _ ____ _ ____ _ ____ _ ____
 72
    65
 73
     4
 40
31.500000
 49
27.000000
 49
-1.000000
 49
2.500000
 49
-1.000000
  0
LTYPE
  2
CENTER4
 70
    64
  3
____ _ ____ _ ____ _ ____ _ ____ _ ____ _ ____
 72
    65
 73
     4
 40
50.000000
 49
45.000000
 49
-1.000000
 49
3.000000
 49
-1.000000
  0
LTYPE
  2
CENTER5
 70
    64
  3
____ _ ____ _ ____ _ ____ _ ____ _ ____ _ ____
 72
    65
 73
     4
 40
100.000000
 49
92.000000
 49
-2.000000
 49
4.000000
 49
-2.000000
  0
LTYPE
  2
SBK1
 70
    64
  3
______ _ _ _ ______ _ _ _ ______ _ _ _ _____  
 72
    65
 73
     8
 40
60.500000
 49
45.000000
 49
-2.000000
 49
2.500000
 49
-2.000000
 49
2.500000
 49
-2.000000
 49
2.500000
 49
-2.000000
  0
LTYPE
  2
SBK2
 70
    64
  3
______ _ _ _ ______ _ _ _ ______ _ _ _ _____  
 72
    65
 73
     8
 40
84.000000
 49
64.000000
 49
-2.000000
 49
4.000000
 49
-2.000000
 49
4.000000
 49
-2.000000
 49
4.000000
 49
-2.000000
  0
LTYPE
  2
STCH
 70
    64
  3
__ __ __ __ __ __ __ __ __ __ __ __ __ __ __
 72
    65
 73
     2
 40
3.000000
 49
1.000000
 49
-2.000000
  0
LTYPE
  2
MTCH
 70
    64
  3
_____ _ _ _____ _ _ _____ _ _ _____ _ _ ____  
 72
    65
 73
     6
 40
80.000000
 49
66.000000
 49
-2.000000
 49
4.000000
 49
-2.000000
 49
4.000000
 49
-2.000000
  0
ENDTAB
  0
TABLE
  2
LAYER
 70
     1
  0
LAYER
  2
0
 70
     0
 62
     7
  6
CONTINUOUS
  0
ENDTAB
  0
TABLE
  2
STYLE
 70
     1
  0
STYLE
  2
STANDARD
 70
     0
 40
0.000000
 41
1.000000
 50
0.000000
 71
     0
 42
0.200000
  3
txt
  4
BIGFONT
  0
ENDTAB
  0
TABLE
  2
VIEW
 70
     0
  0
ENDTAB
  0
ENDSEC
  0
SECTION
  2
BLOCKS
  0
ENDSEC
  0
SECTION
  2
ENTITIES
  0
LINE
  8
0
 10
-297.000000
 20
210.000000
 11
297.000000
 21
210.000000
  0
LINE
  8
0
 10
-297.000000
 20
-210.000000
 11
297.000000
 21
-210.000000
  0
LINE
  8
0
 10
297.000000
 20
210.000000
 11
297.000000
 21
-210.000000
  0
LINE
  8
0
 10
-297.000000
 20
210.000000
 11
-297.000000
 21
-210.000000
  0
LINE
  8
0
 10
-281.250000
 20
195.500000
 11
282.099976
 21
195.500000
  0
LINE
  8
0
 10
-281.250000
 20
195.500000
 11
-281.250000
 21
-195.000000
  0
LINE
  8
0
 10
282.099976
 20
195.500000
 11
282.099976
 21
-195.000000
  0
LINE
  8
0
 10
-281.250000
 20
-195.000000
 11
282.099976
 21
-195.000000
  0
LINE
  8
0
 10
162.099976
 20
-175.000000
 11
162.099976
 21
-195.000000
  0
LINE
  8
0
 10
162.099976
 20
-175.000000
 11
282.099976
 21
-175.000000
  0
LINE
  8
0
 10
162.099976
 20
175.500000
 11
282.099976
 21
175.500000
  0
LINE
  8
0
 10
-281.250000
 20
175.500000
 11
-161.250000
 21
175.500000
  0
LINE
  8
0
 10
162.099976
 20
195.500000
 11
162.099976
 21
175.500000
  0
LINE
  8
0
 10
-161.250000
 20
195.500000
 11
-161.250000
 21
175.500000
  0
LINE
  8
0
 10
-281.250000
 20
0.250000
 11
282.099976
 21
0.250000
  0
LINE
  8
0
 10
0.424988
 20
-195.000000
 11
0.424988
 21
195.500000
  0
LINE
  8
0
 10
-281.250000
 20
-185.000000
 11
162.099976
 21
-185.000000
  0
LINE
  8
0
 10
-281.250000
 20
10.250000
 11
282.099976
 21
10.250000
  0
LINE
  8
0
  6
PHANTOM
 10
-203.080322
 20
164.448593
 11
-203.080322
 21
94.448593
  0
LINE
  8
0
  6
PHANTOM
 10
-182.080322
 20
164.448593
 11
-182.080322
 21
94.448593
  0
LINE
  8
0
  6
PHANTOM
 10
-182.080322
 20
94.448593
 11
-203.080322
 21
94.448593
  0
LINE
  8
0
  6
PHANTOM
 10
-182.080322
 20
164.448593
 11
-203.080322
 21
164.448593
  0
LINE
  8
0
  6
PHANTOM
 10
50.114090
 20
166.448593
 11
50.114090
 21
96.448593
  0
LINE
  8
0
  6
PHANTOM
 10
71.114090
 20
166.448593
 11
71.114090
 21
96.448593
  0
LINE
  8
0
  6
PHANTOM
 10
71.114090
 20
96.448593
 11
50.114090
 21
96.448593
  0
LINE
  8
0
  6
PHANTOM
 10
71.114090
 20
166.448593
 11
50.114090
 21
166.448593
  0
LINE
  8
0
  6
PHANTOM
 10
-205.109589
 20
-14.453934
 11
-205.109589
 21
-84.453934
  0
LINE
  8
0
  6
PHANTOM
 10
-184.109604
 20
-14.453934
 11
-184.109604
 21
-84.453934
  0
LINE
  8
0
  6
PHANTOM
 10
-184.109604
 20
-84.453934
 11
-205.109589
 21
-84.453934
  0
LINE
  8
0
  6
PHANTOM
 10
-184.109604
 20
-14.453934
 11
-205.109589
 21
-14.453934
  0
LINE
  8
0
  6
PHANTOM
 10
44.055595
 20
-14.453934
 11
44.055595
 21
-85.453934
  0
LINE
  8
0
  6
PHANTOM
 10
65.055603
 20
-14.453934
 11
65.055603
 21
-85.453934
  0
LINE
  8
0
  6
PHANTOM
 10
65.055618
 20
-84.453934
 11
44.055611
 21
-84.453934
  0
LINE
  8
0
  6
PHANTOM
 10
65.055603
 20
-14.453934
 11
44.055595
 21
-14.453934
  0
TEXT
  8
0
 10
174.200241
 20
180.830002
 40
6.300000
  1
DATE: SEP ,1992
 50
0.000000
 41
1.052632
 51
0.000000
  7
STANDARD
  0
TEXT
  8
0
 10
167.564667
 20
-192.100006
 40
9.000000
  1
KOGANEI CORP.
 50
0.000000
 41
1.052632
 51
0.000000
  7
STANDARD
  0
TEXT
  8
0
 10
-240.285309
 20
178.399994
 40
9.000000
  1
X80M
 50
0.000000
 41
1.052632
 51
0.000000
  7
STANDARD
  0
TEXT
  8
0
 10
-213.512238
 20
0.579999
 40
6.300000
  1
MODEL : FMWR090-4E1-J4S
 50
0.000000
 41
1.052632
 51
0.000000
  7
STANDARD
  0
TEXT
  8
0
 10
68.162750
 20
0.579999
 40
6.300000
  1
MODEL : FMWR090-4E1-J6S
 50
0.000000
 41
1.052632
 51
0.000000
  7
STANDARD
  0
TEXT
  8
0
 10
-213.512238
 20
-194.669998
 40
6.300000
  1
MODEL : FMWR090-4E1-J4U
 50
0.000000
 41
1.052632
 51
0.000000
  7
STANDARD
  0
TEXT
  8
0
 10
8.162753
 20
-194.669998
 40
6.300000
  1
MODEL : FMWR090-4E1-M5M
 50
0.000000
 41
1.052632
 51
0.000000
  7
STANDARD
  0
POINT
  8
0
 10
-71.113289
 20
94.448586
  0
POINT
  8
0
 10
-81.313286
 20
94.448586
  0
LINE
  8
0
 10
-76.213280
 20
166.236145
 11
-76.213280
 21
85.266678
  0
LINE
  8
0
 10
-72.313286
 20
86.448586
 11
-80.113289
 21
86.448586
  0
LINE
  8
0
 10
-72.313286
 20
87.648582
 11
-80.113289
 21
87.648582
  0
LINE
  8
0
 10
-78.713280
 20
89.095146
 11
-78.713280
 21
87.648582
  0
LINE
  8
0
 10
-73.713280
 20
89.095146
 11
-73.713280
 21
87.648582
  0
LINE
  8
0
 10
-81.213280
 20
94.448586
 11
-81.213280
 21
89.095161
  0
LINE
  8
0
 10
-71.213264
 20
94.448586
 11
-71.213264
 21
89.095146
  0
LINE
  8
0
 10
-71.213264
 20
89.095146
 11
-81.213280
 21
89.095146
  0
LINE
  8
0
 10
-80.113289
 20
87.648582
 11
-80.113289
 21
86.448586
  0
LINE
  8
0
 10
-72.313286
 20
87.648590
 11
-72.313286
 21
86.448593
  0
LINE
  8
0
 10
-71.113274
 20
164.448578
 11
-71.113274
 21
94.448586
  0
LINE
  8
0
 10
-71.113274
 20
164.448578
 11
-81.313286
 21
164.448578
  0
LINE
  8
0
 10
-71.113289
 20
94.448586
 11
-81.313286
 21
94.448586
  0
LINE
  8
0
 10
-81.313286
 20
139.048584
 11
-71.113274
 21
139.048584
  0
LINE
  8
0
 10
-81.313286
 20
161.548584
 11
-71.113274
 21
161.548584
  0
LINE
  8
0
 10
-80.635933
 20
140.048584
 11
-71.790627
 21
140.048584
  0
LINE
  8
0
 10
-80.635933
 20
160.548584
 11
-71.790627
 21
160.548584
  0
LINE
  8
0
 10
-80.635933
 20
160.548584
 11
-80.635933
 21
140.048584
  0
LINE
  8
0
 10
-71.790627
 20
160.548584
 11
-71.790627
 21
140.048584
  0
LINE
  8
0
 10
-77.713280
 20
154.548584
 11
-74.713280
 21
154.548584
  0
LINE
  8
0
 10
-77.713280
 20
156.548584
 11
-74.713280
 21
156.548584
  0
LINE
  8
0
 10
-77.713280
 20
156.548584
 11
-77.713280
 21
154.548584
  0
LINE
  8
0
 10
-74.713280
 20
156.548584
 11
-74.713280
 21
154.548584
  0
LINE
  8
0
 10
-79.513283
 20
157.848602
 11
-72.913277
 21
157.848602
  0
LINE
  8
0
 10
-79.513283
 20
148.248596
 11
-72.913277
 21
148.248596
  0
LINE
  8
0
 10
-79.513283
 20
157.848602
 11
-79.513283
 21
148.248596
  0
LINE
  8
0
 10
-72.913277
 20
157.848602
 11
-72.913277
 21
148.248596
  0
LINE
  8
0
 10
-78.713280
 20
149.048584
 11
-73.713280
 21
149.048584
  0
LINE
  8
0
 10
-78.713280
 20
153.048584
 11
-73.713280
 21
153.048584
  0
LINE
  8
0
 10
-78.713280
 20
153.048584
 11
-78.713280
 21
149.048584
  0
LINE
  8
0
 10
-73.713280
 20
153.048584
 11
-73.713280
 21
149.048584
  0
LINE
  8
0
 10
-81.213280
 20
127.548576
 11
-71.213280
 21
127.548576
  0
LINE
  8
0
 10
-78.813271
 20
136.748596
 11
-73.613274
 21
136.748596
  0
LINE
  8
0
 10
-71.113274
 20
127.548576
 11
-81.313286
 21
127.548576
  0
LINE
  8
0
 10
-81.313286
 20
104.348579
 11
-71.113274
 21
104.348579
  0
LINE
  8
0
 10
-81.313286
 20
98.848579
 11
-71.113274
 21
98.848579
  0
CIRCLE
  8
0
 10
-76.213280
 20
136.748596
 40
1.099999
  0
POINT
  8
0
 10
-71.113281
 20
48.448593
  0
POINT
  8
0
 10
-81.313278
 20
48.448593
  0
LINE
  8
0
 10
-71.113281
 20
48.448593
 11
-81.313278
 21
48.448593
  0
LINE
  8
0
 10
-71.113281
 20
27.448593
 11
-81.313278
 21
27.448593
  0
LINE
  8
0
 10
-71.113281
 20
48.448593
 11
-71.113281
 21
27.448593
  0
LINE
  8
0
 10
-70.313263
 20
32.748596
 11
-82.113281
 21
32.748596
  0
LINE
  8
0
 10
-70.313263
 20
43.148590
 11
-82.113281
 21
43.148590
  0
LINE
  8
0
 10
-76.213287
 20
66.948593
 11
-76.213287
 21
26.434570
  0
LINE
  8
0
 10
-72.313278
 20
44.148590
 11
-72.313278
 21
42.148590
  0
LINE
  8
0
 10
-80.113281
 20
44.148590
 11
-80.113281
 21
42.148590
  0
LINE
  8
0
 10
-72.313278
 20
33.748596
 11
-72.313278
 21
31.748596
  0
LINE
  8
0
 10
-80.113281
 20
33.748596
 11
-80.113281
 21
31.748596
  0
LINE
  8
0
 10
-80.347260
 20
65.448593
 11
-72.079315
 21
65.448593
  0
LINE
  8
0
 10
-81.213287
 20
62.448593
 11
-71.213287
 21
62.448593
  0
LINE
  8
0
 10
-81.213287
 20
64.448593
 11
-71.213287
 21
64.448593
  0
LINE
  8
0
 10
-80.780273
 20
65.198578
 11
-81.213280
 21
64.448586
  0
LINE
  8
0
 10
-71.646210
 20
65.198639
 11
-71.213196
 21
64.448631
  0
LINE
  8
0
 10
-71.213287
 20
64.448593
 11
-71.213287
 21
48.448593
  0
LINE
  8
0
 10
-81.213287
 20
64.448593
 11
-81.213287
 21
48.448593
  0
ARC
  8
0
 10
-76.213272
 20
44.148590
 40
3.900002
 50
0.000000
 51
179.999939
  0
ARC
  8
0
 10
-76.213272
 20
42.148590
 40
3.900002
 50
180.000000
 51
359.999939
  0
CIRCLE
  8
0
 10
-76.213272
 20
43.148590
 40
2.000000
  0
ARC
  8
0
 10
-76.213272
 20
33.748596
 40
3.900002
 50
0.000000
 51
179.999939
  0
ARC
  8
0
 10
-76.213272
 20
31.748596
 40
3.900002
 50
179.999969
 51
359.999939
  0
CIRCLE
  8
0
 10
-76.213272
 20
32.748596
 40
2.000000
  0
ARC
  8
0
 10
-80.347260
 20
64.948593
 40
0.500000
 50
90.000000
 51
150.000076
  0
ARC
  8
0
 10
-72.079300
 20
64.948593
 40
0.500001
 50
29.999931
 51
90.000000
  0
POINT
  8
0
 10
-182.080322
 20
94.448593
  0
POINT
  8
0
 10
-162.080322
 20
94.448593
  0
LINE
  8
0
 10
-168.080338
 20
127.548584
 11
-182.080338
 21
127.548584
  0
LINE
  8
0
 10
-187.380341
 20
94.948494
 11
-187.380325
 21
85.433601
  0
LINE
  8
0
 10
-182.480301
 20
86.448593
 11
-192.280304
 21
86.448586
  0
LINE
  8
0
 10
-182.480331
 20
87.648605
 11
-182.480331
 21
86.448608
  0
LINE
  8
0
 10
-192.280334
 20
87.648582
 11
-192.280334
 21
86.448586
  0
LINE
  8
0
 10
-182.480301
 20
87.648590
 11
-192.280304
 21
87.648582
  0
LINE
  8
0
 10
-189.880325
 20
89.095146
 11
-189.880325
 21
87.648582
  0
LINE
  8
0
 10
-184.880325
 20
89.095146
 11
-184.880325
 21
87.648582
  0
LINE
  8
0
 10
-192.380341
 20
94.448586
 11
-192.380325
 21
89.095161
  0
LINE
  8
0
 10
-182.380341
 20
94.448586
 11
-182.380325
 21
89.095154
  0
LINE
  8
0
 10
-182.380310
 20
89.095154
 11
-192.380310
 21
89.095146
  0
LINE
  8
0
 10
-197.780334
 20
94.948494
 11
-197.780319
 21
85.433601
  0
LINE
  8
0
 10
-192.880310
 20
86.448586
 11
-202.680328
 21
86.448586
  0
LINE
  8
0
 10
-192.880325
 20
87.648590
 11
-192.880325
 21
86.448593
  0
LINE
  8
0
 10
-202.680359
 20
87.648582
 11
-202.680359
 21
86.448586
  0
LINE
  8
0
 10
-192.880310
 20
87.648582
 11
-202.680328
 21
87.648582
  0
LINE
  8
0
 10
-200.280334
 20
89.095146
 11
-200.280334
 21
87.648582
  0
LINE
  8
0
 10
-195.280319
 20
89.095146
 11
-195.280319
 21
87.648582
  0
LINE
  8
0
 10
-202.780334
 20
94.448570
 11
-202.780334
 21
89.095146
  0
LINE
  8
0
 10
-192.780334
 20
94.448586
 11
-192.780319
 21
89.095146
  0
LINE
  8
0
 10
-192.780304
 20
89.095146
 11
-202.780334
 21
89.095146
  0
LINE
  8
0
 10
-168.080322
 20
98.848587
 11
-182.080338
 21
98.848587
  0
LINE
  8
0
 10
-168.080338
 20
104.348587
 11
-182.080338
 21
104.348587
  0
LINE
  8
0
 10
-166.080338
 20
139.048584
 11
-182.080338
 21
139.048584
  0
LINE
  8
0
 10
-168.080338
 20
161.548584
 11
-168.080322
 21
98.848587
  0
LINE
  8
0
 10
-165.080338
 20
160.341476
 11
-165.080338
 21
140.255707
  0
LINE
  8
0
 10
-166.080353
 20
139.048584
 11
-165.226791
 21
139.902130
  0
LINE
  8
0
 10
-165.226807
 20
160.695007
 11
-166.080368
 21
161.548553
  0
LINE
  8
0
 10
-182.080338
 20
161.548599
 11
-166.080338
 21
161.548599
  0
LINE
  8
0
 10
-166.080338
 20
161.548584
 11
-166.080338
 21
139.048599
  0
ARC
  8
0
 10
-165.580338
 20
160.341476
 40
0.500000
 50
0.000000
 51
45.001236
  0
ARC
  8
0
 10
-165.580338
 20
140.255707
 40
0.500001
 50
314.998749
 51
0.000000
  0
POINT
  8
0
 10
182.081146
 20
96.448685
  0
POINT
  8
0
 10
171.881149
 20
96.448685
  0
POINT
  8
0
 10
171.881149
 20
96.448685
  0
POINT
  8
0
 10
171.881149
 20
96.448685
  0
POINT
  8
0
 10
171.881149
 20
96.448685
  0
LINE
  8
0
 10
176.981155
 20
168.236252
 11
176.981155
 21
83.259888
  0
LINE
  8
0
 10
180.481140
 20
88.195267
 11
180.481140
 21
86.748680
  0
LINE
  8
0
 10
181.881149
 20
85.548683
 11
172.081146
 21
85.548683
  0
LINE
  8
0
 10
172.081131
 20
86.748680
 11
172.081131
 21
85.548683
  0
LINE
  8
0
 10
181.881149
 20
86.748680
 11
172.081146
 21
86.748680
  0
LINE
  8
0
 10
171.981140
 20
96.448685
 11
171.981140
 21
88.195259
  0
LINE
  8
0
 10
181.981155
 20
96.448685
 11
181.981155
 21
88.195251
  0
LINE
  8
0
 10
181.881134
 20
86.748688
 11
181.881134
 21
85.548691
  0
LINE
  8
0
 10
181.981155
 20
88.195267
 11
171.981140
 21
88.195267
  0
LINE
  8
0
 10
173.481140
 20
88.195267
 11
173.481140
 21
86.748680
  0
LINE
  8
0
 10
182.081161
 20
166.448685
 11
182.081161
 21
96.448685
  0
LINE
  8
0
 10
182.081161
 20
166.448685
 11
171.881149
 21
166.448685
  0
LINE
  8
0
 10
182.081146
 20
96.448685
 11
171.881149
 21
96.448685
  0
LINE
  8
0
 10
171.881149
 20
141.048691
 11
182.081161
 21
141.048691
  0
LINE
  8
0
 10
171.881149
 20
163.548691
 11
182.081161
 21
163.548691
  0
LINE
  8
0
 10
172.558502
 20
142.048691
 11
181.403809
 21
142.048691
  0
LINE
  8
0
 10
172.558502
 20
162.548691
 11
181.403809
 21
162.548691
  0
LINE
  8
0
 10
172.558502
 20
162.548691
 11
172.558502
 21
142.048691
  0
LINE
  8
0
 10
181.403809
 20
162.548691
 11
181.403809
 21
142.048691
  0
LINE
  8
0
 10
175.481155
 20
156.548691
 11
178.481155
 21
156.548691
  0
LINE
  8
0
 10
175.481155
 20
158.548691
 11
178.481155
 21
158.548691
  0
LINE
  8
0
 10
175.481155
 20
158.548691
 11
175.481155
 21
156.548691
  0
LINE
  8
0
 10
178.481155
 20
158.548691
 11
178.481155
 21
156.548691
  0
LINE
  8
0
 10
173.681152
 20
159.848694
 11
180.281158
 21
159.848694
  0
LINE
  8
0
 10
173.681152
 20
150.248688
 11
180.281158
 21
150.248688
  0
LINE
  8
0
 10
173.681152
 20
159.848694
 11
173.681152
 21
150.248688
  0
LINE
  8
0
 10
180.281158
 20
159.848694
 11
180.281158
 21
150.248688
  0
LINE
  8
0
 10
174.481155
 20
151.048691
 11
179.481155
 21
151.048691
  0
LINE
  8
0
 10
174.481155
 20
155.048691
 11
179.481155
 21
155.048691
  0
LINE
  8
0
 10
174.481155
 20
155.048691
 11
174.481155
 21
151.048691
  0
LINE
  8
0
 10
179.481155
 20
155.048691
 11
179.481155
 21
151.048691
  0
LINE
  8
0
 10
171.981155
 20
129.548676
 11
181.981155
 21
129.548676
  0
LINE
  8
0
 10
174.381165
 20
138.748688
 11
179.581161
 21
138.748688
  0
LINE
  8
0
 10
182.081161
 20
129.548676
 11
171.881149
 21
129.548676
  0
LINE
  8
0
 10
171.881149
 20
106.348679
 11
182.081161
 21
106.348679
  0
LINE
  8
0
 10
171.881149
 20
100.848679
 11
182.081161
 21
100.848679
  0
LINE
  8
0
 10
172.681152
 20
101.748688
 11
174.481155
 21
101.748688
  0
LINE
  8
0
 10
175.181152
 20
102.348679
 11
175.181152
 21
100.848679
  0
LINE
  8
0
 10
171.881165
 20
102.348679
 11
175.181152
 21
102.348679
  0
ARC
  8
0
 10
174.481155
 20
102.348679
 40
0.599998
 50
270.000000
 51
0.000000
  0
ARC
  8
0
 10
172.681152
 20
102.348679
 40
0.600006
 50
180.000000
 51
270.000000
  0
CIRCLE
  8
0
 10
176.981155
 20
138.748688
 40
1.099999
  0
POINT
  8
0
 10
182.081161
 20
45.548706
  0
POINT
  8
0
 10
171.881165
 20
45.548706
  0
LINE
  8
0
 10
182.081161
 20
45.548706
 11
171.881165
 21
45.548706
  0
LINE
  8
0
 10
182.081161
 20
24.548706
 11
171.881165
 21
24.548706
  0
LINE
  8
0
 10
182.081161
 20
45.548706
 11
182.081161
 21
24.548706
  0
LINE
  8
0
 10
182.881165
 20
29.848709
 11
171.081161
 21
29.848709
  0
LINE
  8
0
 10
182.881165
 20
40.248703
 11
171.081161
 21
40.248703
  0
LINE
  8
0
 10
176.981155
 20
64.048706
 11
176.981155
 21
23.534683
  0
LINE
  8
0
 10
172.847183
 20
62.548706
 11
181.115128
 21
62.548706
  0
LINE
  8
0
 10
171.981155
 20
59.548706
 11
181.981155
 21
59.548706
  0
LINE
  8
0
 10
171.981155
 20
61.548706
 11
181.981155
 21
61.548706
  0
LINE
  8
0
 10
172.414169
 20
62.298698
 11
171.981155
 21
61.548698
  0
LINE
  8
0
 10
181.548218
 20
62.298752
 11
181.981232
 21
61.548748
  0
LINE
  8
0
 10
181.981155
 20
61.548706
 11
181.981155
 21
45.548706
  0
LINE
  8
0
 10
171.981155
 20
61.548706
 11
171.981155
 21
45.548706
  0
CIRCLE
  8
0
 10
176.981155
 20
40.248703
 40
3.000000
  0
CIRCLE
  8
0
 10
176.981155
 20
40.248703
 40
4.900000
  0
CIRCLE
  8
0
 10
176.981155
 20
29.848709
 40
3.000000
  0
CIRCLE
  8
0
 10
176.981155
 20
29.848709
 40
4.900000
  0
ARC
  8
0
 10
172.847183
 20
62.048706
 40
0.500000
 50
90.000000
 51
150.000076
  0
ARC
  8
0
 10
181.115128
 20
62.048706
 40
0.500001
 50
29.999931
 51
90.000000
  0
POINT
  8
0
 10
71.114120
 20
96.448601
  0
POINT
  8
0
 10
91.114105
 20
96.448601
  0
LINE
  8
0
 10
65.814102
 20
96.948502
 11
65.814102
 21
84.533607
  0
LINE
  8
0
 10
55.414093
 20
96.948502
 11
55.414093
 21
84.533607
  0
LINE
  8
0
 10
69.314087
 20
88.195175
 11
69.314087
 21
86.748596
  0
LINE
  8
0
 10
70.714096
 20
85.548592
 11
60.914093
 21
85.548592
  0
LINE
  8
0
 10
60.914078
 20
86.748589
 11
60.914078
 21
85.548592
  0
LINE
  8
0
 10
70.714096
 20
86.748589
 11
60.914093
 21
86.748589
  0
LINE
  8
0
 10
60.814087
 20
96.448593
 11
60.814087
 21
88.195168
  0
LINE
  8
0
 10
70.814102
 20
96.448593
 11
70.814102
 21
88.195160
  0
LINE
  8
0
 10
70.714081
 20
86.748596
 11
70.714081
 21
85.548599
  0
LINE
  8
0
 10
70.814102
 20
88.195175
 11
60.814102
 21
88.195175
  0
LINE
  8
0
 10
62.314087
 20
88.195175
 11
62.314087
 21
86.748589
  0
LINE
  8
0
 10
58.914093
 20
88.195175
 11
58.914093
 21
86.748589
  0
LINE
  8
0
 10
60.314087
 20
85.548592
 11
50.514084
 21
85.548592
  0
LINE
  8
0
 10
50.514084
 20
86.748581
 11
50.514084
 21
85.548584
  0
LINE
  8
0
 10
60.314087
 20
86.748589
 11
50.514084
 21
86.748589
  0
LINE
  8
0
 10
50.414078
 20
96.448578
 11
50.414078
 21
88.195160
  0
LINE
  8
0
 10
60.414093
 20
96.448593
 11
60.414093
 21
88.195160
  0
LINE
  8
0
 10
60.314087
 20
86.748596
 11
60.314087
 21
85.548599
  0
LINE
  8
0
 10
60.414108
 20
88.195175
 11
50.414093
 21
88.195175
  0
LINE
  8
0
 10
51.914093
 20
88.195175
 11
51.914093
 21
86.748581
  0
LINE
  8
0
 10
85.114090
 20
100.848587
 11
71.114090
 21
100.848587
  0
LINE
  8
0
 10
85.114105
 20
106.348587
 11
71.114105
 21
106.348587
  0
LINE
  8
0
 10
87.114082
 20
141.048584
 11
71.114082
 21
141.048584
  0
LINE
  8
0
 10
85.114082
 20
163.548599
 11
85.114090
 21
100.848587
  0
LINE
  8
0
 10
88.114082
 20
162.341492
 11
88.114082
 21
142.255707
  0
LINE
  8
0
 10
87.114098
 20
141.048584
 11
87.967651
 21
141.902145
  0
LINE
  8
0
 10
87.967621
 20
162.695007
 11
87.114067
 21
163.548569
  0
LINE
  8
0
 10
71.114082
 20
163.548599
 11
87.114082
 21
163.548599
  0
LINE
  8
0
 10
87.114082
 20
163.548599
 11
87.114082
 21
141.048599
  0
LINE
  8
0
 10
85.114082
 20
129.548584
 11
71.114082
 21
129.548584
  0
ARC
  8
0
 10
87.614082
 20
142.255707
 40
0.499995
 50
315.000610
 51
0.000000
  0
ARC
  8
0
 10
87.614082
 20
162.341492
 40
0.500000
 50
0.000000
 51
44.999382
  0
POINT
  8
0
 10
-73.142548
 20
-84.453842
  0
POINT
  8
0
 10
-83.342545
 20
-84.453842
  0
LINE
  8
0
 10
-78.242538
 20
-12.666275
 11
-78.242538
 21
-107.853836
  0
LINE
  8
0
 10
-72.342529
 20
-93.453842
 11
-84.142532
 21
-93.453842
  0
LINE
  8
0
 10
-74.042557
 20
-89.453812
 11
-73.242554
 21
-88.564919
  0
LINE
  8
0
 10
-77.242538
 20
-89.553848
 11
-79.242538
 21
-89.553848
  0
LINE
  8
0
 10
-77.242538
 20
-97.353851
 11
-79.242538
 21
-97.353851
  0
LINE
  8
0
 10
-74.242538
 20
-89.453842
 11
-74.242538
 21
-90.753845
  0
LINE
  8
0
 10
-82.242538
 20
-89.453842
 11
-82.242538
 21
-90.753845
  0
LINE
  8
0
 10
-74.242538
 20
-90.753845
 11
-74.428284
 21
-90.753845
  0
LINE
  8
0
 10
-82.056793
 20
-90.753845
 11
-82.242538
 21
-90.753845
  0
LINE
  8
0
 10
-74.042542
 20
-89.453842
 11
-82.442520
 21
-89.453842
  0
LINE
  8
0
 10
-83.242523
 20
-88.564957
 11
-73.242538
 21
-88.564957
  0
LINE
  8
0
 10
-82.442535
 20
-89.453842
 11
-83.242538
 21
-88.564957
  0
LINE
  8
0
 10
-82.242538
 20
-98.168152
 11
-82.242538
 21
-99.453796
  0
LINE
  8
0
 10
-74.242538
 20
-98.168152
 11
-74.242538
 21
-99.453842
  0
LINE
  8
0
 10
-82.242523
 20
-99.453842
 11
-81.734512
 21
-99.453842
  0
LINE
  8
0
 10
-84.142532
 20
-102.453842
 11
-72.342529
 21
-102.453842
  0
LINE
  8
0
 10
-73.242538
 20
-84.453842
 11
-73.242538
 21
-98.168167
  0
LINE
  8
0
 10
-83.242523
 20
-84.453842
 11
-83.242523
 21
-98.168152
  0
LINE
  8
0
 10
-83.242523
 20
-98.168152
 11
-73.242523
 21
-98.168152
  0
LINE
  8
0
 10
-79.242538
 20
-98.553833
 11
-77.242538
 21
-98.553833
  0
LINE
  8
0
 10
-79.242538
 20
-106.353836
 11
-77.242538
 21
-106.353836
  0
LINE
  8
0
 10
-74.750549
 20
-99.453842
 11
-74.242523
 21
-99.453842
  0
LINE
  8
0
 10
-73.142532
 20
-14.453842
 11
-73.142532
 21
-84.453842
  0
LINE
  8
0
 10
-73.142532
 20
-14.453842
 11
-83.342537
 21
-14.453842
  0
LINE
  8
0
 10
-73.142548
 20
-84.453842
 11
-83.342545
 21
-84.453842
  0
LINE
  8
0
 10
-83.342545
 20
-39.853836
 11
-73.142532
 21
-39.853836
  0
LINE
  8
0
 10
-83.342545
 20
-17.353836
 11
-73.142532
 21
-17.353836
  0
LINE
  8
0
 10
-82.665192
 20
-38.853836
 11
-73.819885
 21
-38.853836
  0
LINE
  8
0
 10
-82.665192
 20
-18.353836
 11
-73.819885
 21
-18.353836
  0
LINE
  8
0
 10
-82.665192
 20
-18.353836
 11
-82.665192
 21
-38.853836
  0
LINE
  8
0
 10
-73.819885
 20
-18.353836
 11
-73.819885
 21
-38.853836
  0
LINE
  8
0
 10
-79.742538
 20
-24.353836
 11
-76.742538
 21
-24.353836
  0
LINE
  8
0
 10
-79.742538
 20
-22.353836
 11
-76.742538
 21
-22.353836
  0
LINE
  8
0
 10
-79.742538
 20
-22.353836
 11
-79.742538
 21
-24.353836
  0
LINE
  8
0
 10
-76.742538
 20
-22.353836
 11
-76.742538
 21
-24.353836
  0
LINE
  8
0
 10
-81.542542
 20
-21.053833
 11
-74.942535
 21
-21.053833
  0
LINE
  8
0
 10
-81.542542
 20
-30.653839
 11
-74.942535
 21
-30.653839
  0
LINE
  8
0
 10
-81.542542
 20
-21.053833
 11
-81.542542
 21
-30.653839
  0
LINE
  8
0
 10
-74.942535
 20
-21.053833
 11
-74.942535
 21
-30.653839
  0
LINE
  8
0
 10
-80.742538
 20
-29.853836
 11
-75.742538
 21
-29.853836
  0
LINE
  8
0
 10
-80.742538
 20
-25.853836
 11
-75.742538
 21
-25.853836
  0
LINE
  8
0
 10
-80.742538
 20
-25.853836
 11
-80.742538
 21
-29.853836
  0
LINE
  8
0
 10
-75.742538
 20
-25.853836
 11
-75.742538
 21
-29.853836
  0
LINE
  8
0
 10
-83.242538
 20
-51.353851
 11
-73.242538
 21
-51.353851
  0
LINE
  8
0
 10
-80.842529
 20
-42.153839
 11
-75.642532
 21
-42.153839
  0
LINE
  8
0
 10
-73.242538
 20
-51.353851
 11
-83.242538
 21
-51.353851
  0
LINE
  8
0
 10
-83.342545
 20
-74.553848
 11
-73.142532
 21
-74.553848
  0
LINE
  8
0
 10
-83.342545
 20
-80.053848
 11
-73.142532
 21
-80.053848
  0
CIRCLE
  8
0
 10
-78.242538
 20
-42.153839
 40
1.099999
  0
ARC
  8
0
 10
-77.242538
 20
-93.453842
 40
3.900002
 50
270.000122
 51
90.000114
  0
CIRCLE
  8
0
 10
-78.242523
 20
-93.453842
 40
2.000000
  0
ARC
  8
0
 10
-79.242538
 20
-93.453842
 40
3.900002
 50
90.000114
 51
270.000000
  0
ARC
  8
0
 10
-79.242538
 20
-102.453842
 40
3.900002
 50
90.000000
 51
270.000000
  0
CIRCLE
  8
0
 10
-78.242538
 20
-102.453842
 40
2.000000
  0
ARC
  8
0
 10
-77.242538
 20
-102.453842
 40
3.900002
 50
270.000000
 51
89.999886
  0
POINT
  8
0
 10
-83.342545
 20
-147.918213
  0
POINT
  8
0
 10
-73.142532
 20
-147.918213
  0
LINE
  8
0
 10
-73.142532
 20
-147.918213
 11
-74.842545
 21
-147.918213
  0
LINE
  8
0
 10
-73.142532
 20
-168.918213
 11
-83.342529
 21
-168.918213
  0
LINE
  8
0
 10
-73.142532
 20
-148.218216
 11
-73.342545
 21
-148.218216
  0
LINE
  8
0
 10
-73.142532
 20
-147.918213
 11
-73.142532
 21
-168.918213
  0
LINE
  8
0
 10
-82.376511
 20
-130.918213
 11
-74.108566
 21
-130.918213
  0
LINE
  8
0
 10
-83.242538
 20
-133.918213
 11
-73.242538
 21
-133.918213
  0
LINE
  8
0
 10
-83.242538
 20
-131.918213
 11
-73.242538
 21
-131.918213
  0
LINE
  8
0
 10
-82.809532
 20
-131.168213
 11
-83.242538
 21
-131.918213
  0
LINE
  8
0
 10
-73.675468
 20
-131.168182
 11
-73.242455
 21
-131.918182
  0
LINE
  8
0
 10
-73.242538
 20
-131.918213
 11
-73.242538
 21
-147.918213
  0
LINE
  8
0
 10
-83.242538
 20
-131.918213
 11
-83.242538
 21
-147.918213
  0
LINE
  8
0
 10
-78.242538
 20
-170.918213
 11
-78.242538
 21
-129.418213
  0
LINE
  8
0
 10
-74.842545
 20
-147.868225
 11
-74.842545
 21
-148.218216
  0
LINE
  8
0
 10
-81.642548
 20
-147.868225
 11
-81.642548
 21
-148.218216
  0
LINE
  8
0
 10
-74.842529
 20
-147.868225
 11
-81.642540
 21
-147.868225
  0
LINE
  8
0
 10
-74.242538
 20
-147.368225
 11
-82.242538
 21
-147.368225
  0
LINE
  8
0
 10
-74.842552
 20
-147.868195
 11
-74.242561
 21
-147.368195
  0
LINE
  8
0
 10
-82.242538
 20
-147.368225
 11
-81.642532
 21
-147.868225
  0
LINE
  8
0
 10
-74.242538
 20
-147.368225
 11
-74.242538
 21
-140.418213
  0
LINE
  8
0
 10
-82.242538
 20
-147.368225
 11
-82.242538
 21
-140.418213
  0
LINE
  8
0
 10
-74.242538
 20
-140.418213
 11
-82.242538
 21
-140.418213
  0
LINE
  8
0
 10
-82.142548
 20
-140.418213
 11
-82.142548
 21
-139.618225
  0
LINE
  8
0
 10
-74.342529
 20
-139.618210
 11
-82.142532
 21
-139.618210
  0
LINE
  8
0
 10
-74.342545
 20
-140.418213
 11
-74.342545
 21
-139.618225
  0
LINE
  8
0
 10
-75.742538
 20
-139.618225
 11
-75.742538
 21
-139.018219
  0
LINE
  8
0
 10
-73.242538
 20
-139.018219
 11
-83.242538
 21
-139.018219
  0
LINE
  8
0
 10
-80.742538
 20
-139.618225
 11
-80.742538
 21
-139.018219
  0
LINE
  8
0
 10
-73.242538
 20
-137.818222
 11
-83.242538
 21
-137.818222
  0
LINE
  8
0
 10
-82.142548
 20
-150.818207
 11
-82.142548
 21
-150.018219
  0
LINE
  8
0
 10
-74.842545
 20
-158.268219
 11
-74.842545
 21
-163.618210
  0
LINE
  8
0
 10
-81.642548
 20
-158.268219
 11
-81.642548
 21
-163.618210
  0
LINE
  8
0
 10
-73.342545
 20
-149.418213
 11
-83.142548
 21
-149.418213
  0
LINE
  8
0
 10
-74.242554
 20
-157.768204
 11
-74.242554
 21
-150.818207
  0
LINE
  8
0
 10
-74.242538
 20
-150.818207
 11
-82.242538
 21
-150.818207
  0
LINE
  8
0
 10
-74.842545
 20
-158.268204
 11
-81.642548
 21
-158.268204
  0
LINE
  8
0
 10
-74.242538
 20
-157.768204
 11
-82.242538
 21
-157.768204
  0
LINE
  8
0
 10
-82.242554
 20
-157.768219
 11
-81.642548
 21
-158.268234
  0
LINE
  8
0
 10
-74.842560
 20
-158.268204
 11
-74.242561
 21
-157.768204
  0
LINE
  8
0
 10
-74.342545
 20
-150.018204
 11
-82.142548
 21
-150.018204
  0
LINE
  8
0
 10
-74.342545
 20
-150.818207
 11
-74.342545
 21
-150.018219
  0
LINE
  8
0
 10
-82.242554
 20
-157.768204
 11
-82.242554
 21
-150.818207
  0
LINE
  8
0
 10
-83.142548
 20
-149.418213
 11
-83.142548
 21
-148.218216
  0
LINE
  8
0
 10
-73.342545
 20
-149.418213
 11
-73.342545
 21
-148.218216
  0
LINE
  8
0
 10
-73.342545
 20
-148.218216
 11
-83.142548
 21
-148.218216
  0
LINE
  8
0
 10
-81.642548
 20
-149.418213
 11
-81.642548
 21
-150.018204
  0
LINE
  8
0
 10
-74.842545
 20
-149.418213
 11
-74.842545
 21
-150.018204
  0
LINE
  8
0
 10
-81.642548
 20
-147.918213
 11
-83.342529
 21
-147.918213
  0
LINE
  8
0
 10
-83.142548
 20
-148.218216
 11
-83.342529
 21
-148.218216
  0
ARC
  8
0
 10
-82.376511
 20
-131.418213
 40
0.500000
 50
90.000000
 51
150.000076
  0
ARC
  8
0
 10
-74.108566
 20
-131.418213
 40
0.500001
 50
29.999931
 51
90.000000
  0
ARC
  8
0
 10
-78.242538
 20
-163.618210
 40
3.400002
 50
180.000000
 51
0.000000
  0
POINT
  8
0
 10
-184.109589
 20
-84.453926
  0
POINT
  8
0
 10
-164.109604
 20
-84.453926
  0
LINE
  8
0
 10
-184.409592
 20
-88.565048
 11
-194.409592
 21
-88.565048
  0
LINE
  8
0
 10
-176.609604
 20
-95.953926
 11
-175.209579
 21
-95.953926
  0
LINE
  8
0
 10
-175.209579
 20
-89.553932
 11
-174.009583
 21
-89.553932
  0
LINE
  8
0
 10
-193.409592
 20
-88.565048
 11
-193.409592
 21
-94.353935
  0
LINE
  8
0
 10
-185.409592
 20
-88.565048
 11
-185.409592
 21
-90.553932
  0
LINE
  8
0
 10
-190.309586
 20
-97.453934
 11
-176.609589
 21
-97.453926
  0
LINE
  8
0
 10
-183.709595
 20
-89.453934
 11
-176.609589
 21
-89.453926
  0
LINE
  8
0
 10
-185.409592
 20
-90.553932
 11
-183.709595
 21
-90.553932
  0
LINE
  8
0
 10
-183.709595
 20
-89.453934
 11
-183.709595
 21
-97.453926
  0
LINE
  8
0
 10
-176.609604
 20
-89.453926
 11
-176.609604
 21
-97.453926
  0
LINE
  8
0
 10
-174.009598
 20
-89.553917
 11
-174.009598
 21
-97.353920
  0
LINE
  8
0
 10
-175.209595
 20
-89.553917
 11
-175.209595
 21
-97.353920
  0
LINE
  8
0
 10
-176.609604
 20
-90.953926
 11
-175.209579
 21
-90.953926
  0
LINE
  8
0
 10
-175.209579
 20
-97.353928
 11
-174.009583
 21
-97.353928
  0
LINE
  8
0
 10
-184.409592
 20
-84.453934
 11
-184.409592
 21
-88.565048
  0
LINE
  8
0
 10
-194.409592
 20
-84.453934
 11
-194.409592
 21
-88.565048
  0
LINE
  8
0
 10
-203.809601
 20
-98.168221
 11
-203.809601
 21
-103.353943
  0
LINE
  8
0
 10
-195.809601
 20
-98.168221
 11
-195.809601
 21
-99.453934
  0
LINE
  8
0
 10
-200.709579
 20
-106.453934
 11
-187.009583
 21
-106.453934
  0
LINE
  8
0
 10
-194.109589
 20
-98.453934
 11
-187.009583
 21
-98.453934
  0
LINE
  8
0
 10
-195.809601
 20
-99.553940
 11
-194.109604
 21
-99.553940
  0
LINE
  8
0
 10
-194.109604
 20
-98.453934
 11
-194.109604
 21
-106.453934
  0
LINE
  8
0
 10
-187.009598
 20
-98.453918
 11
-187.009598
 21
-106.453918
  0
LINE
  8
0
 10
-184.409607
 20
-98.553932
 11
-184.409607
 21
-106.353928
  0
LINE
  8
0
 10
-185.609604
 20
-98.553932
 11
-185.609604
 21
-106.353928
  0
LINE
  8
0
 10
-187.009598
 20
-99.953934
 11
-185.609589
 21
-99.953926
  0
LINE
  8
0
 10
-187.009598
 20
-104.953934
 11
-185.609604
 21
-104.953934
  0
LINE
  8
0
 10
-185.609589
 20
-98.553932
 11
-184.409576
 21
-98.553932
  0
LINE
  8
0
 10
-185.609573
 20
-106.353928
 11
-184.409576
 21
-106.353928
  0
LINE
  8
0
 10
-194.809601
 20
-84.453934
 11
-194.809601
 21
-98.168221
  0
LINE
  8
0
 10
-204.809601
 20
-84.453949
 11
-204.809601
 21
-98.168213
  0
LINE
  8
0
 10
-204.809586
 20
-98.168221
 11
-194.809586
 21
-98.168221
  0
LINE
  8
0
 10
-170.109604
 20
-80.053932
 11
-184.109604
 21
-80.053940
  0
LINE
  8
0
 10
-168.109604
 20
-39.853935
 11
-184.109619
 21
-39.853939
  0
LINE
  8
0
 10
-170.109619
 20
-17.353935
 11
-170.109604
 21
-80.053932
  0
LINE
  8
0
 10
-167.109619
 20
-18.561043
 11
-167.109619
 21
-38.646812
  0
LINE
  8
0
 10
-168.109604
 20
-39.853939
 11
-167.256058
 21
-39.000385
  0
LINE
  8
0
 10
-167.256104
 20
-18.207504
 11
-168.109665
 21
-17.353951
  0
LINE
  8
0
 10
-184.109619
 20
-28.353939
 11
-184.209625
 21
-28.353939
  0
LINE
  8
0
 10
-184.109619
 20
-17.353920
 11
-168.109619
 21
-17.353920
  0
LINE
  8
0
 10
-168.109619
 20
-17.353935
 11
-168.109619
 21
-39.853920
  0
LINE
  8
0
 10
-170.109604
 20
-51.353935
 11
-184.109604
 21
-51.353939
  0
LINE
  8
0
 10
-170.109589
 20
-74.553932
 11
-184.109589
 21
-74.553940
  0
ARC
  8
0
 10
-200.709579
 20
-103.353943
 40
3.099991
 50
180.000000
 51
270.000000
  0
ARC
  8
0
 10
-167.609619
 20
-18.561043
 40
0.500000
 50
0.000000
 51
45.000618
  0
ARC
  8
0
 10
-190.309586
 20
-94.353928
 40
3.099991
 50
180.000137
 51
270.000000
  0
ARC
  8
0
 10
-167.609619
 20
-38.646812
 40
0.500006
 50
315.000610
 51
0.000000
  0
POINT
  8
0
 10
183.722626
 20
-86.753845
  0
POINT
  8
0
 10
173.522614
 20
-86.753845
  0
LINE
  8
0
 10
178.622620
 20
-13.966278
 11
178.622620
 21
-90.253845
  0
LINE
  8
0
 10
173.622620
 20
-86.753845
 11
173.622620
 21
-88.753845
  0
LINE
  8
0
 10
183.622635
 20
-86.753845
 11
183.622635
 21
-88.753845
  0
LINE
  8
0
 10
183.722626
 20
-15.753845
 11
183.722626
 21
-86.753845
  0
LINE
  8
0
 10
174.422623
 20
-80.453857
 11
176.222626
 21
-80.453857
  0
LINE
  8
0
 10
176.922623
 20
-79.853851
 11
176.922623
 21
-81.353851
  0
LINE
  8
0
 10
183.722626
 20
-15.753845
 11
173.522614
 21
-15.753845
  0
LINE
  8
0
 10
183.722610
 20
-85.453857
 11
173.522614
 21
-85.453857
  0
LINE
  8
0
 10
183.722610
 20
-85.753845
 11
173.522614
 21
-85.753845
  0
LINE
  8
0
 10
173.522614
 20
-41.153839
 11
183.722626
 21
-41.153839
  0
LINE
  8
0
 10
173.522614
 20
-18.653839
 11
183.722626
 21
-18.653839
  0
LINE
  8
0
 10
175.122620
 20
-22.153839
 11
182.122620
 21
-22.153839
  0
LINE
  8
0
 10
175.122620
 20
-32.153839
 11
182.122620
 21
-32.153839
  0
LINE
  8
0
 10
175.122620
 20
-22.153839
 11
175.122620
 21
-32.153839
  0
LINE
  8
0
 10
182.122620
 20
-22.153839
 11
182.122620
 21
-32.153839
  0
LINE
  8
0
 10
174.199966
 20
-40.153839
 11
183.045273
 21
-40.153839
  0
LINE
  8
0
 10
174.199966
 20
-19.653839
 11
183.045273
 21
-19.653839
  0
LINE
  8
0
 10
174.199966
 20
-19.653839
 11
174.199966
 21
-40.153839
  0
LINE
  8
0
 10
183.045273
 20
-19.653839
 11
183.045273
 21
-40.153839
  0
LINE
  8
0
 10
177.122620
 20
-25.653839
 11
180.122620
 21
-25.653839
  0
LINE
  8
0
 10
177.122620
 20
-23.653839
 11
180.122620
 21
-23.653839
  0
LINE
  8
0
 10
177.122620
 20
-23.653839
 11
177.122620
 21
-25.653839
  0
LINE
  8
0
 10
180.122620
 20
-23.653839
 11
180.122620
 21
-25.653839
  0
LINE
  8
0
 10
176.122620
 20
-31.153839
 11
181.122620
 21
-31.153839
  0
LINE
  8
0
 10
176.122620
 20
-27.153839
 11
181.122620
 21
-27.153839
  0
LINE
  8
0
 10
176.122620
 20
-27.153839
 11
176.122620
 21
-31.153839
  0
LINE
  8
0
 10
181.122620
 20
-27.153839
 11
181.122620
 21
-31.153839
  0
LINE
  8
0
 10
173.622620
 20
-52.653854
 11
183.622620
 21
-52.653854
  0
LINE
  8
0
 10
176.022629
 20
-43.453842
 11
181.222626
 21
-43.453842
  0
LINE
  8
0
 10
183.622620
 20
-52.653854
 11
173.622620
 21
-52.653854
  0
LINE
  8
0
 10
173.522614
 20
-75.853851
 11
183.722626
 21
-75.853851
  0
LINE
  8
0
 10
173.522614
 20
-81.353851
 11
183.722626
 21
-81.353851
  0
LINE
  8
0
 10
173.522614
 20
-79.853851
 11
176.922623
 21
-79.853851
  0
LINE
  8
0
 10
183.722626
 20
-86.753845
 11
173.522614
 21
-86.753845
  0
LINE
  8
0
 10
183.622635
 20
-88.753845
 11
173.622620
 21
-88.753845
  0
ARC
  8
0
 10
174.422623
 20
-79.853851
 40
0.600006
 50
180.000000
 51
270.000000
  0
ARC
  8
0
 10
176.222626
 20
-79.853851
 40
0.599998
 50
270.000000
 51
0.000000
  0
CIRCLE
  8
0
 10
178.622620
 20
-43.453842
 40
1.099999
  0
POINT
  8
0
 10
184.022644
 20
-135.453857
  0
POINT
  8
0
 10
173.822647
 20
-135.453857
  0
LINE
  8
0
 10
184.022644
 20
-135.453857
 11
173.822647
 21
-135.453857
  0
LINE
  8
0
 10
184.022644
 20
-156.453857
 11
173.822647
 21
-156.453857
  0
LINE
  8
0
 10
184.022644
 20
-135.453857
 11
184.022644
 21
-156.453857
  0
LINE
  8
0
 10
184.822647
 20
-151.153854
 11
173.022644
 21
-151.153854
  0
LINE
  8
0
 10
184.822647
 20
-140.753860
 11
173.022644
 21
-140.753860
  0
LINE
  8
0
 10
178.922638
 20
-116.953857
 11
178.922638
 21
-157.467880
  0
LINE
  8
0
 10
174.788666
 20
-118.453857
 11
183.056610
 21
-118.453857
  0
LINE
  8
0
 10
173.922638
 20
-121.453857
 11
183.922638
 21
-121.453857
  0
LINE
  8
0
 10
173.922638
 20
-119.453857
 11
183.922638
 21
-119.453857
  0
LINE
  8
0
 10
174.355652
 20
-118.703865
 11
173.922638
 21
-119.453865
  0
LINE
  8
0
 10
183.489700
 20
-118.703812
 11
183.922714
 21
-119.453812
  0
LINE
  8
0
 10
183.922638
 20
-119.453857
 11
183.922638
 21
-135.453857
  0
LINE
  8
0
 10
173.922638
 20
-119.453857
 11
173.922638
 21
-135.453857
  0
CIRCLE
  8
0
 10
178.922638
 20
-140.753860
 40
2.500000
  0
CIRCLE
  8
0
 10
178.922638
 20
-140.753860
 40
5.000000
  0
CIRCLE
  8
0
 10
178.922638
 20
-151.153854
 40
5.000000
  0
ARC
  8
0
 10
174.788666
 20
-118.953857
 40
0.500000
 50
90.000000
 51
150.000076
  0
ARC
  8
0
 10
183.056610
 20
-118.953857
 40
0.500001
 50
29.999931
 51
90.000000
  0
CIRCLE
  8
0
 10
178.922638
 20
-151.153854
 40
2.500000
  0
POINT
  8
0
 10
65.055603
 20
-85.453941
  0
POINT
  8
0
 10
85.055603
 20
-85.453941
  0
LINE
  8
0
 10
59.755615
 20
-83.954025
 11
59.755615
 21
-88.953934
  0
LINE
  8
0
 10
54.755600
 20
-85.453934
 11
54.755600
 21
-87.453934
  0
LINE
  8
0
 10
64.755615
 20
-85.453934
 11
64.755615
 21
-87.453934
  0
LINE
  8
0
 10
49.355606
 20
-83.954025
 11
49.355606
 21
-88.953934
  0
LINE
  8
0
 10
44.355606
 20
-85.453949
 11
44.355606
 21
-87.453949
  0
LINE
  8
0
 10
54.355606
 20
-85.453934
 11
54.355606
 21
-87.453934
  0
LINE
  8
0
 10
54.355621
 20
-87.453934
 11
44.355621
 21
-87.453934
  0
LINE
  8
0
 10
64.755630
 20
-87.453934
 11
54.755615
 21
-87.453934
  0
LINE
  8
0
 10
81.055603
 20
-39.853943
 11
65.055611
 21
-39.853943
  0
LINE
  8
0
 10
79.055611
 20
-17.353928
 11
79.055603
 21
-80.053940
  0
LINE
  8
0
 10
82.055611
 20
-18.561035
 11
82.055603
 21
-38.646820
  0
LINE
  8
0
 10
81.055611
 20
-39.853954
 11
81.909164
 21
-39.000401
  0
LINE
  8
0
 10
81.909149
 20
-18.207512
 11
81.055595
 21
-17.353958
  0
LINE
  8
0
 10
65.055611
 20
-17.353928
 11
81.055611
 21
-17.353928
  0
LINE
  8
0
 10
81.055611
 20
-17.353928
 11
81.055603
 21
-39.853928
  0
LINE
  8
0
 10
79.055603
 20
-51.353943
 11
65.055603
 21
-51.353943
  0
LINE
  8
0
 10
79.055618
 20
-74.553940
 11
65.055618
 21
-74.553940
  0
LINE
  8
0
 10
79.055603
 20
-80.053940
 11
65.055603
 21
-80.053940
  0
LINE
  8
0
 10
65.055618
 20
-85.453934
 11
44.055618
 21
-85.453934
  0
ARC
  8
0
 10
81.555611
 20
-18.561035
 40
0.500000
 50
0.000000
 51
45.000000
  0
ARC
  8
0
 10
81.555603
 20
-38.646820
 40
0.500006
 50
315.000610
 51
0.000000
  0
ENDSEC
  0
EOF
