  0
SECTION
  2
HEADER
  9
$ACADVER
  1
AC1006
  9
$INSBASE
 10
0.0
 20
0.0
 30
0.0
  9
$EXTMIN
 10
0.0
 20
0.0
  9
$EXTMAX
 10
370.873566
 20
254.558472
  9
$LIMMIN
 10
0.0
 20
0.0
  9
$LIMMAX
 10
12.0
 20
9.0
  9
$ORTHOMODE
 70
     0
  9
$REGENMODE
 70
     1
  9
$FILLMODE
 70
     1
  9
$QTEXTMODE
 70
     0
  9
$MIRRTEXT
 70
     1
  9
$DRAGMODE
 70
     2
  9
$LTSCALE
 40
1.0
  9
$OSMODE
 70
     0
  9
$ATTMODE
 70
     1
  9
$TEXTSIZE
 40
0.2
  9
$TRACEWID
 40
0.05
  9
$TEXTSTYLE
  7
STANDARD
  9
$CLAYER
  8
0
  9
$CELTYPE
  6
BYLAYER
  9
$CECOLOR
 62
   256
  9
$DIMSCALE
 40
1.0
  9
$DIMASZ
 40
0.18
  9
$DIMEXO
 40
0.0625
  9
$DIMDLI
 40
0.38
  9
$DIMRND
 40
0.0
  9
$DIMDLE
 40
0.0
  9
$DIMEXE
 40
0.18
  9
$DIMTP
 40
0.0
  9
$DIMTM
 40
0.0
  9
$DIMTXT
 40
0.18
  9
$DIMCEN
 40
0.09
  9
$DIMTSZ
 40
0.0
  9
$DIMTOL
 70
     0
  9
$DIMLIM
 70
     0
  9
$DIMTIH
 70
     1
  9
$DIMTOH
 70
     1
  9
$DIMSE1
 70
     0
  9
$DIMSE2
 70
     0
  9
$DIMTAD
 70
     0
  9
$DIMZIN
 70
     0
  9
$DIMBLK
  1

  9
$DIMASO
 70
     1
  9
$DIMSHO
 70
     0
  9
$DIMPOST
  1

  9
$DIMAPOST
  1

  9
$DIMALT
 70
     0
  9
$DIMALTD
 70
     2
  9
$DIMALTF
 40
25.4
  9
$DIMLFAC
 40
1.0
  9
$DIMTOFL
 70
     0
  9
$DIMTVP
 40
0.0
  9
$DIMTIX
 70
     0
  9
$DIMSOXD
 70
     0
  9
$DIMSAH
 70
     0
  9
$DIMBLK1
  1

  9
$DIMBLK2
  1

  9
$LUNITS
 70
     2
  9
$LUPREC
 70
     4
  9
$AXISMODE
 70
     0
  9
$AXISUNIT
 10
0.0
 20
0.0
  9
$SKETCHINC
 40
0.1
  9
$FILLETRAD
 40
0.0
  9
$AUNITS
 70
     0
  9
$AUPREC
 70
     0
  9
$MENU
  1
acad
  9
$ELEVATION
 40
0.0
  9
$THICKNESS
 40
0.0
  9
$LIMCHECK
 70
     0
  9
$BLIPMODE
 70
     1
  9
$CHAMFERA
 40
0.0
  9
$CHAMFERB
 40
0.0
  9
$SKPOLY
 70
     0
  9
$TDCREATE
 40
2448820.5976157407
  9
$TDUPDATE
 40
2448820.5976157407
  9
$TDINDWG
 40
0.0000000000
  9
$TDUSRTIMER
 40
0.0000000000
  9
$USRTIMER
 70
     1
  9
$ANGBASE
 50
0.0
  9
$ANGDIR
 70
     0
  9
$PDMODE
 70
     0
  9
$PDSIZE
 40
0.0
  9
$PLINEWID
 40
0.0
  9
$COORDS
 70
     0
  9
$SPLFRAME
 70
     0
  9
$SPLINETYPE
 70
     6
  9
$SPLINESEGS
 70
     8
  9
$ATTDIA
 70
     0
  9
$ATTREQ
 70
     1
  9
$HANDLING
 70
     0
  9
$HANDSEED
  5
0
  9
$SURFTAB1
 70
     6
  9
$SURFTAB2
 70
     6
  9
$SURFTYPE
 70
     6
  9
$SURFU
 70
     6
  9
$SURFV
 70
     6
  9
$FLATLAND
 70
     0
  9
$UCSNAME
  2

  9
$UCSORG
 10
0.0
 20
0.0
 30
0.0
  9
$UCSXDIR
 10
1.0
 20
0.0
 30
0.0
  9
$UCSYDIR
 10
0.0
 20
1.0
 30
0.0
  9
$USERI1
 70
     0
  9
$USERI2
 70
     0
  9
$USERI3
 70
     0
  9
$USERI4
 70
     0
  9
$USERI5
 70
     0
  9
$USERR1
 40
0.0
  9
$USERR2
 40
0.0
  9
$USERR3
 40
0.0
  9
$USERR4
 40
0.0
  9
$USERR5
 40
0.0
  9
$WORLDVIEW
 70
     1
  0
ENDSEC
  0
SECTION
  2
TABLES
  0
TABLE
  2
VPORT
 70
     3
  0
VPORT
  2
*ACTIVE
 70
     0
 10
0.0
 20
0.0
 11
1.0
 21
1.0
 12
207.983153
 22
127.279236
 13
0.0
 23
0.0
 14
1.0
 24
1.0
 15
0.0
 25
0.0
 16
0.0
 26
0.0
 36
1.0
 17
0.0
 27
0.0
 37
0.0
 40
254.558472
 41
1.63407
 42
50.0
 43
0.0
 44
0.0
 50
0.0
 51
0.0
 71
     0
 72
   100
 73
     1
 74
     1
 75
     0
 76
     0
 77
     0
 78
     0
  0
ENDTAB
  0
TABLE
  2
LTYPE
 70
    22
  0
LTYPE
  2
CONTINUOUS
 70
    64
  3
Solid line
 72
    65
 73
     0
 40
0.0
  0
LTYPE
  2
DASHED
 70
    64
  3
__ __ __ __ __ __ __ __ __ __ __ __ __ __ __
 72
    65
 73
     2
 40
3.5
 49
2.0
 49
-1.5
  0
LTYPE
  2
CENTER
 70
    64
  3
____ _ ____ _ ____ _ ____ _ ____ _ ____ _ ____
 72
    65
 73
     4
 40
17.5
 49
13.0
 49
-1.5
 49
1.5
 49
-1.5
  0
LTYPE
  2
PHANTOM
 70
    64
  3
_____ _ _ _____ _ _ _____ _ _ _____ _ _ ____  
 72
    65
 73
     6
 40
15.5
 49
8.0
 49
-1.5
 49
1.5
 49
-1.5
 49
1.5
 49
-1.5
  0
LTYPE
  2
DASHED1
 70
    64
  3
__ __ __ __ __ __ __ __ __ __ __ __ __ __ __
 72
    65
 73
     2
 40
1.5
 49
1.0
 49
-0.5
  0
LTYPE
  2
DASHED2
 70
    64
  3
__ __ __ __ __ __ __ __ __ __ __ __ __ __ __
 72
    65
 73
     2
 40
3.5
 49
2.5
 49
-1.0
  0
LTYPE
  2
DASHED3
 70
    64
  3
__ __ __ __ __ __ __ __ __ __ __ __ __ __ __
 72
    65
 73
     2
 40
6.0
 49
4.0
 49
-2.0
  0
LTYPE
  2
DASHED4
 70
    64
  3
__ __ __ __ __ __ __ __ __ __ __ __ __ __ __
 72
    65
 73
     2
 40
12.0
 49
10.0
 49
-2.0
  0
LTYPE
  2
DASHED5
 70
    64
  3
__ __ __ __ __ __ __ __ __ __ __ __ __ __ __
 72
    65
 73
     2
 40
17.0
 49
15.0
 49
-2.0
  0
LTYPE
  2
DASHED6
 70
    64
  3
__ __ __ __ __ __ __ __ __ __ __ __ __ __ __
 72
    65
 73
     2
 40
29.0
 49
27.0
 49
-2.0
  0
LTYPE
  2
PHANTOM1
 70
    64
  3
_____ _ _ _____ _ _ _____ _ _ _____ _ _ ____  
 72
    65
 73
     6
 40
31.0
 49
25.0
 49
-1.5
 49
1.0
 49
-1.0
 49
1.0
 49
-1.5
  0
LTYPE
  2
PHANTOM2
 70
    64
  3
_____ _ _ _____ _ _ _____ _ _ _____ _ _ ____  
 72
    65
 73
     6
 40
36.0
 49
27.0
 49
-1.5
 49
2.5
 49
-1.0
 49
2.5
 49
-1.5
  0
LTYPE
  2
PHANTOM3
 70
    64
  3
_____ _ _ _____ _ _ _____ _ _ _____ _ _ ____  
 72
    65
 73
     6
 40
78.0
 49
64.0
 49
-2.0
 49
4.0
 49
-2.0
 49
4.0
 49
-2.0
  0
LTYPE
  2
CENTER1
 70
    64
  3
____ _ ____ _ ____ _ ____ _ ____ _ ____ _ ____
 72
    65
 73
     4
 40
19.0
 49
14.0
 49
-1.0
 49
3.0
 49
-1.0
  0
LTYPE
  2
CENTER2
 70
    64
  3
____ _ ____ _ ____ _ ____ _ ____ _ ____ _ ____
 72
    65
 73
     4
 40
28.5
 49
25.0
 49
-1.0
 49
1.5
 49
-1.0
  0
LTYPE
  2
CENTER3
 70
    64
  3
____ _ ____ _ ____ _ ____ _ ____ _ ____ _ ____
 72
    65
 73
     4
 40
31.5
 49
27.0
 49
-1.0
 49
2.5
 49
-1.0
  0
LTYPE
  2
CENTER4
 70
    64
  3
____ _ ____ _ ____ _ ____ _ ____ _ ____ _ ____
 72
    65
 73
     4
 40
50.0
 49
45.0
 49
-1.0
 49
3.0
 49
-1.0
  0
LTYPE
  2
CENTER5
 70
    64
  3
____ _ ____ _ ____ _ ____ _ ____ _ ____ _ ____
 72
    65
 73
     4
 40
100.0
 49
92.0
 49
-2.0
 49
4.0
 49
-2.0
  0
LTYPE
  2
SBK1
 70
    64
  3
______ _ _ _ ______ _ _ _ ______ _ _ _ _____  
 72
    65
 73
     8
 40
60.5
 49
45.0
 49
-2.0
 49
2.5
 49
-2.0
 49
2.5
 49
-2.0
 49
2.5
 49
-2.0
  0
LTYPE
  2
SBK2
 70
    64
  3
______ _ _ _ ______ _ _ _ ______ _ _ _ _____  
 72
    65
 73
     8
 40
84.0
 49
64.0
 49
-2.0
 49
4.0
 49
-2.0
 49
4.0
 49
-2.0
 49
4.0
 49
-2.0
  0
LTYPE
  2
STCH
 70
    64
  3
__ __ __ __ __ __ __ __ __ __ __ __ __ __ __
 72
    65
 73
     2
 40
3.0
 49
1.0
 49
-2.0
  0
LTYPE
  2
MTCH
 70
    64
  3
_____ _ _ _____ _ _ _____ _ _ _____ _ _ ____  
 72
    65
 73
     6
 40
80.0
 49
66.0
 49
-2.0
 49
4.0
 49
-2.0
 49
4.0
 49
-2.0
  0
ENDTAB
  0
TABLE
  2
LAYER
 70
     1
  0
LAYER
  2
0
 70
     0
 62
     7
  6
CONTINUOUS
  0
ENDTAB
  0
TABLE
  2
STYLE
 70
     1
  0
STYLE
  2
STANDARD
 70
     0
 40
0.0
 41
1.0
 50
0.0
 71
     0
 42
0.2
  3
txt
  4
BIGFONT
  0
ENDTAB
  0
TABLE
  2
VIEW
 70
     0
  0
ENDTAB
  0
TABLE
  2
UCS
 70
     0
  0
ENDTAB
  0
TABLE
  2
DWGMGR
 70
     0
  0
ENDTAB
  0
ENDSEC
  0
SECTION
  2
BLOCKS
  0
ENDSEC
  0
SECTION
  2
ENTITIES
  0
POINT
  8
0
 10
40.436783
 20
127.279251
 30
0.0
  0
POINT
  8
0
 10
55.436783
 20
127.279251
 30
0.0
  0
POINT
  8
0
 10
150.436783
 20
127.279236
 30
0.0
  0
POINT
  8
0
 10
247.436783
 20
127.279236
 30
0.0
  0
POINT
  8
0
 10
315.436798
 20
127.279251
 30
0.0
  0
POINT
  8
0
 10
330.436798
 20
127.279251
 30
0.0
  0
LINE
  8
0
 62
     3
 10
0.0
 20
0.0
 30
0.0
 11
0.0
 21
254.558472
 31
0.0
  0
LINE
  8
0
 62
     3
 10
370.873566
 20
254.558472
 30
0.0
 11
370.873566
 21
0.0
 31
0.0
  0
LINE
  8
0
 62
     3
 10
0.0
 20
0.0
 30
0.0
 11
370.873566
 21
0.0
 31
0.0
  0
LINE
  8
0
 62
     3
 10
0.0
 20
254.558472
 30
0.0
 11
370.873566
 21
254.558472
 31
0.0
  0
LINE
  8
0
 62
     3
 10
0.0
 20
240.257431
 30
0.0
 11
76.272194
 21
240.257431
 31
0.0
  0
LINE
  8
0
 62
     3
 10
76.272194
 20
240.257431
 30
0.0
 11
76.272194
 21
254.558472
 31
0.0
  0
LINE
  8
0
 62
     3
 10
294.601379
 20
14.301025
 30
0.0
 11
370.873566
 21
14.301025
 31
0.0
  0
LINE
  8
0
 62
     3
 10
294.601379
 20
240.257431
 30
0.0
 11
370.873566
 21
240.257431
 31
0.0
  0
LINE
  8
0
 62
     3
 10
294.601379
 20
254.558472
 30
0.0
 11
294.601379
 21
240.257431
 31
0.0
  0
LINE
  8
0
 62
     3
 10
294.601379
 20
14.301025
 30
0.0
 11
294.601379
 21
0.0
 31
0.0
  0
LINE
  8
0
 10
140.436783
 20
132.279236
 30
0.0
 11
141.436783
 21
131.279236
 31
0.0
  0
LINE
  8
0
 10
146.436783
 20
131.279251
 30
0.0
 11
147.436783
 21
132.279266
 31
0.0
  0
LINE
  8
0
 10
150.436783
 20
148.279236
 30
0.0
 11
150.436783
 21
106.279236
 31
0.0
  0
LINE
  8
0
 10
121.436783
 20
131.279236
 30
0.0
 11
121.436783
 21
123.279236
 31
0.0
  0
LINE
  8
0
 10
247.436783
 20
141.67923
 30
0.0
 11
247.436783
 21
112.879234
 31
0.0
  0
LINE
  8
0
 10
150.436783
 20
148.279236
 30
0.0
 11
180.436783
 21
148.279236
 31
0.0
  0
LINE
  8
0
 10
150.436783
 20
106.279236
 30
0.0
 11
180.436783
 21
106.279236
 31
0.0
  0
LINE
  8
0
 10
150.436783
 20
146.650604
 30
0.0
 11
180.436783
 21
146.650604
 31
0.0
  0
LINE
  8
0
 10
150.436783
 20
107.907867
 30
0.0
 11
180.436783
 21
107.907867
 31
0.0
  0
LINE
  8
0
 10
180.436783
 20
148.279236
 30
0.0
 11
180.436783
 21
106.279236
 31
0.0
  0
LINE
  8
0
 10
149.436783
 20
133.279236
 30
0.0
 11
149.436783
 21
121.279236
 31
0.0
  0
LINE
  8
0
 10
149.436783
 20
133.279236
 30
0.0
 11
150.436783
 21
133.279236
 31
0.0
  0
LINE
  8
0
 10
149.436783
 20
121.279236
 30
0.0
 11
150.436783
 21
121.279236
 31
0.0
  0
LINE
  8
0
 10
122.436783
 20
132.279236
 30
0.0
 11
127.935959
 21
132.279236
 31
0.0
  0
LINE
  8
0
 10
122.436783
 20
122.279236
 30
0.0
 11
127.935959
 21
122.279236
 31
0.0
  0
LINE
  8
0
 10
121.811783
 20
122.904236
 30
0.0
 11
127.935959
 21
122.904236
 31
0.0
  0
LINE
  8
0
 10
121.811783
 20
131.654236
 30
0.0
 11
127.935959
 21
131.654236
 31
0.0
  0
LINE
  8
0
 10
139.436783
 20
132.279236
 30
0.0
 11
139.436783
 21
122.279236
 31
0.0
  0
LINE
  8
0
 10
122.436783
 20
122.279236
 30
0.0
 11
121.436783
 21
123.279236
 31
0.0
  0
LINE
  8
0
 10
122.43679
 20
132.279221
 30
0.0
 11
121.43679
 21
131.279221
 31
0.0
  0
LINE
  8
0
 10
122.436783
 20
132.279236
 30
0.0
 11
122.436783
 21
122.279236
 31
0.0
  0
LINE
  8
0
 10
139.436783
 20
122.904236
 30
0.0
 11
140.466995
 21
122.309441
 31
0.0
  0
LINE
  8
0
 10
139.436752
 20
131.654297
 30
0.0
 11
140.466949
 21
132.249069
 31
0.0
  0
LINE
  8
0
 10
127.935959
 20
134.279236
 30
0.0
 11
127.935959
 21
120.279205
 31
0.0
  0
LINE
  8
0
 10
133.935959
 20
122.279236
 30
0.0
 11
140.436783
 21
122.279236
 31
0.0
  0
LINE
  8
0
 10
133.935959
 20
122.904236
 30
0.0
 11
139.436783
 21
122.904236
 31
0.0
  0
LINE
  8
0
 10
133.935959
 20
131.654236
 30
0.0
 11
139.436783
 21
131.654236
 31
0.0
  0
LINE
  8
0
 10
133.935959
 20
132.279236
 30
0.0
 11
140.436783
 21
132.279236
 31
0.0
  0
LINE
  8
0
 10
127.935921
 20
134.279282
 30
0.0
 11
128.561127
 21
135.362167
 31
0.0
  0
LINE
  8
0
 10
133.935959
 20
134.279236
 30
0.0
 11
133.935959
 21
120.279213
 31
0.0
  0
LINE
  8
0
 10
133.310745
 20
131.320679
 30
0.0
 11
128.561157
 21
131.320679
 31
0.0
  0
LINE
  8
0
 10
133.935944
 20
134.279221
 30
0.0
 11
133.31073
 21
135.362122
 31
0.0
  0
LINE
  8
0
 10
133.310745
 20
135.362122
 30
0.0
 11
128.561157
 21
135.362122
 31
0.0
  0
LINE
  8
0
 10
127.935913
 20
120.279213
 30
0.0
 11
128.561127
 21
119.196312
 31
0.0
  0
LINE
  8
0
 10
133.310745
 20
123.237793
 30
0.0
 11
128.561157
 21
123.237793
 31
0.0
  0
LINE
  8
0
 10
133.935959
 20
120.279221
 30
0.0
 11
133.310745
 21
119.19632
 31
0.0
  0
LINE
  8
0
 10
133.310745
 20
119.196342
 30
0.0
 11
128.561142
 21
119.196342
 31
0.0
  0
LINE
  8
0
 10
238.436783
 20
141.67923
 30
0.0
 11
238.436783
 21
112.879234
 31
0.0
  0
LINE
  8
0
 10
180.436783
 20
112.879234
 30
0.0
 11
247.436783
 21
112.879234
 31
0.0
  0
LINE
  8
0
 10
180.436783
 20
141.67923
 30
0.0
 11
247.436783
 21
141.67923
 31
0.0
  0
LINE
  8
0
 10
141.436783
 20
131.279236
 30
0.0
 11
146.436783
 21
131.279236
 31
0.0
  0
LINE
  8
0
 10
146.436768
 20
123.279228
 30
0.0
 11
147.436768
 21
122.279228
 31
0.0
  0
LINE
  8
0
 10
140.436783
 20
122.279236
 30
0.0
 11
141.436783
 21
123.279236
 31
0.0
  0
LINE
  8
0
 10
147.436783
 20
122.279236
 30
0.0
 11
149.436783
 21
122.279236
 31
0.0
  0
LINE
  8
0
 10
141.436783
 20
123.279236
 30
0.0
 11
146.436783
 21
123.279236
 31
0.0
  0
LINE
  8
0
 10
147.436783
 20
132.279236
 30
0.0
 11
149.436783
 21
132.279236
 31
0.0
  0
LINE
  8
0
  6
CENTER
 10
118.436783
 20
127.279236
 30
0.0
 11
250.436783
 21
127.279236
 31
0.0
  0
LINE
  8
0
  6
CENTER
 10
159.436783
 20
147.279236
 30
0.0
 11
159.436783
 21
133.279236
 31
0.0
  0
LINE
  8
0
  6
CENTER
 10
152.436783
 20
140.279236
 30
0.0
 11
166.436783
 21
140.279236
 31
0.0
  0
LINE
  8
0
  6
CENTER
 10
159.436783
 20
121.279236
 30
0.0
 11
159.436783
 21
107.279236
 31
0.0
  0
LINE
  8
0
  6
CENTER
 10
152.436783
 20
114.279236
 30
0.0
 11
166.436783
 21
114.279236
 31
0.0
  0
LINE
  8
0
  6
CENTER
 10
163.936783
 20
119.779236
 30
0.0
 11
180.936783
 21
119.779236
 31
0.0
  0
LINE
  8
0
  6
CENTER
 10
172.436783
 20
128.279236
 30
0.0
 11
172.436783
 21
111.279236
 31
0.0
  0
LINE
  8
0
  6
CENTER
 10
163.936783
 20
134.779236
 30
0.0
 11
180.936783
 21
134.779236
 31
0.0
  0
LINE
  8
0
  6
CENTER
 10
172.436783
 20
143.279236
 30
0.0
 11
172.436783
 21
126.279236
 31
0.0
  0
LINE
  8
0
 10
125.186378
 20
122.279243
 30
0.0
 11
115.948776
 21
106.279243
 31
0.0
  0
LINE
  8
0
 10
174.936783
 20
139.10936
 30
0.0
 11
186.004501
 21
158.279221
 31
0.0
  0
LINE
  8
0
 10
174.936783
 20
139.10936
 30
0.0
 11
175.713242
 21
142.007141
 31
0.0
  0
LINE
  8
0
 10
124.409912
 20
119.381454
 30
0.0
 11
125.186363
 21
122.279236
 31
0.0
  0
LINE
  8
0
 10
123.065048
 20
120.157936
 30
0.0
 11
125.186371
 21
122.279259
 31
0.0
  0
LINE
  8
0
 10
174.936783
 20
139.109375
 30
0.0
 11
177.058105
 21
141.230698
 31
0.0
  0
LINE
  8
0
 10
85.948776
 20
106.279243
 30
0.0
 11
115.948776
 21
106.279243
 31
0.0
  0
LINE
  8
0
 10
186.004517
 20
158.279236
 30
0.0
 11
213.00708
 21
158.279236
 31
0.0
  0
LINE
  8
0
  6
CENTER
 10
22.436783
 20
127.279251
 30
0.0
 11
58.436783
 21
127.279251
 31
0.0
  0
LINE
  8
0
  6
CENTER
 10
40.436783
 20
151.279251
 30
0.0
 11
40.436783
 21
103.279251
 31
0.0
  0
LINE
  8
0
 10
33.436756
 20
123.23774
 30
0.0
 11
40.436741
 21
119.196297
 31
0.0
  0
LINE
  8
0
 10
40.436775
 20
119.196388
 30
0.0
 11
47.436775
 21
123.237839
 31
0.0
  0
LINE
  8
0
 10
47.436783
 20
123.237793
 30
0.0
 11
47.436783
 21
131.320694
 31
0.0
  0
LINE
  8
0
 10
47.436771
 20
131.320679
 30
0.0
 11
40.436787
 21
135.362122
 31
0.0
  0
LINE
  8
0
 10
40.436665
 20
135.362366
 30
0.0
 11
33.436695
 21
131.320938
 31
0.0
  0
LINE
  8
0
 10
33.436783
 20
131.320679
 30
0.0
 11
33.436783
 21
123.237793
 31
0.0
  0
LINE
  8
0
  6
DASHED
 10
25.436783
 20
108.779251
 30
0.0
 11
31.936783
 21
108.779251
 31
0.0
  0
LINE
  8
0
  6
DASHED
 10
25.436783
 20
119.779251
 30
0.0
 11
31.936783
 21
119.779251
 31
0.0
  0
LINE
  8
0
  6
DASHED
 10
31.936783
 20
110.979248
 30
0.0
 11
48.936783
 21
110.979248
 31
0.0
  0
LINE
  8
0
  6
DASHED
 10
31.936783
 20
117.579247
 30
0.0
 11
48.936783
 21
117.579247
 31
0.0
  0
LINE
  8
0
  6
DASHED
 10
31.936783
 20
119.779251
 30
0.0
 11
31.936783
 21
108.779251
 31
0.0
  0
LINE
  8
0
  6
DASHED
 10
48.936783
 20
119.779251
 30
0.0
 11
48.936783
 21
108.779251
 31
0.0
  0
LINE
  8
0
  6
DASHED
 10
48.936783
 20
119.779251
 30
0.0
 11
55.436783
 21
119.779251
 31
0.0
  0
LINE
  8
0
  6
DASHED
 10
48.936783
 20
108.779251
 30
0.0
 11
55.436783
 21
108.779251
 31
0.0
  0
LINE
  8
0
  6
CENTER
 10
23.436783
 20
114.279251
 30
0.0
 11
57.436783
 21
114.279251
 31
0.0
  0
LINE
  8
0
  6
DASHED
 10
25.436783
 20
145.779251
 30
0.0
 11
31.936783
 21
145.779251
 31
0.0
  0
LINE
  8
0
  6
DASHED
 10
31.936783
 20
145.779251
 30
0.0
 11
31.936783
 21
134.779251
 31
0.0
  0
LINE
  8
0
  6
CENTER
 10
23.436783
 20
140.279251
 30
0.0
 11
57.436783
 21
140.279251
 31
0.0
  0
LINE
  8
0
  6
DASHED
 10
25.436783
 20
134.779251
 30
0.0
 11
31.936783
 21
134.779251
 31
0.0
  0
LINE
  8
0
  6
DASHED
 10
31.936783
 20
136.979248
 30
0.0
 11
48.936783
 21
136.979248
 31
0.0
  0
LINE
  8
0
  6
DASHED
 10
31.936783
 20
143.579254
 30
0.0
 11
48.936783
 21
143.579254
 31
0.0
  0
LINE
  8
0
  6
DASHED
 10
48.936783
 20
145.779251
 30
0.0
 11
48.936783
 21
134.779251
 31
0.0
  0
LINE
  8
0
  6
DASHED
 10
48.936783
 20
145.779251
 30
0.0
 11
55.436783
 21
145.779251
 31
0.0
  0
LINE
  8
0
  6
DASHED
 10
48.936783
 20
134.779251
 30
0.0
 11
55.436783
 21
134.779251
 31
0.0
  0
LINE
  8
0
 10
25.436783
 20
146.65062
 30
0.0
 11
25.436783
 21
107.907875
 31
0.0
  0
LINE
  8
0
 10
27.817352
 20
148.279251
 30
0.0
 11
53.056213
 21
148.279251
 31
0.0
  0
LINE
  8
0
 10
55.436783
 20
146.65062
 30
0.0
 11
55.436783
 21
107.907875
 31
0.0
  0
LINE
  8
0
 10
27.817352
 20
106.279251
 30
0.0
 11
53.056213
 21
106.279251
 31
0.0
  0
LINE
  8
0
  6
CENTER
 10
297.436798
 20
127.279251
 30
0.0
 11
333.436798
 21
127.279251
 31
0.0
  0
LINE
  8
0
  6
CENTER
 10
315.436798
 20
151.279251
 30
0.0
 11
315.436798
 21
103.279251
 31
0.0
  0
LINE
  8
0
 10
300.436798
 20
146.65062
 30
0.0
 11
300.436798
 21
107.907883
 31
0.0
  0
LINE
  8
0
 10
330.436798
 20
146.65062
 30
0.0
 11
330.436798
 21
107.907883
 31
0.0
  0
LINE
  8
0
 10
302.817383
 20
148.279251
 30
0.0
 11
328.056213
 21
148.279251
 31
0.0
  0
LINE
  8
0
 10
302.817383
 20
106.279251
 30
0.0
 11
328.056213
 21
106.279251
 31
0.0
  0
LINE
  8
0
  6
DASHED
 10
300.436798
 20
128.079254
 30
0.0
 11
302.236816
 21
128.079254
 31
0.0
  0
LINE
  8
0
  6
DASHED
 10
302.236816
 20
141.479248
 30
0.0
 11
302.236816
 21
128.079254
 31
0.0
  0
LINE
  8
0
  6
DASHED
 10
302.236847
 20
129.779266
 30
0.0
 11
307.436829
 21
130.279266
 31
0.0
  0
LINE
  8
0
  6
DASHED
 10
302.236816
 20
130.523254
 30
0.0
 11
308.936798
 21
130.523254
 31
0.0
  0
LINE
  8
0
  6
DASHED
 10
307.436798
 20
139.279251
 30
0.0
 11
307.436798
 21
130.279251
 31
0.0
  0
LINE
  8
0
  6
CENTER
 10
297.843109
 20
134.779251
 30
0.0
 11
310.93158
 21
134.779251
 31
0.0
  0
LINE
  8
0
  6
DASHED
 10
302.236816
 20
139.035248
 30
0.0
 11
308.936798
 21
139.035248
 31
0.0
  0
LINE
  8
0
  6
DASHED
 10
302.236847
 20
139.779358
 30
0.0
 11
307.436859
 21
139.279358
 31
0.0
  0
LINE
  8
0
  6
DASHED
 10
300.436798
 20
141.479248
 30
0.0
 11
302.236816
 21
141.479248
 31
0.0
  0
LINE
  8
0
  6
CENTER
 10
322.936798
 20
103.685555
 30
0.0
 11
322.936798
 21
115.156212
 31
0.0
  0
LINE
  8
0
  6
DASHED
 10
300.436798
 20
113.079247
 30
0.0
 11
302.236816
 21
113.079247
 31
0.0
  0
LINE
  8
0
  6
DASHED
 10
302.236847
 20
114.779243
 30
0.0
 11
307.436829
 21
115.279243
 31
0.0
  0
LINE
  8
0
  6
DASHED
 10
302.236816
 20
115.523247
 30
0.0
 11
308.936798
 21
115.523247
 31
0.0
  0
LINE
  8
0
  6
DASHED
 10
302.236816
 20
126.479248
 30
0.0
 11
302.236816
 21
113.079247
 31
0.0
  0
LINE
  8
0
  6
DASHED
 10
307.436798
 20
124.279251
 30
0.0
 11
307.436798
 21
115.279251
 31
0.0
  0
LINE
  8
0
  6
CENTER
 10
297.843109
 20
119.779251
 30
0.0
 11
310.93158
 21
119.779251
 31
0.0
  0
LINE
  8
0
  6
DASHED
 10
302.236816
 20
124.779266
 30
0.0
 11
307.436859
 21
124.279266
 31
0.0
  0
LINE
  8
0
  6
DASHED
 10
302.236816
 20
124.035248
 30
0.0
 11
308.936798
 21
124.035248
 31
0.0
  0
LINE
  8
0
  6
DASHED
 10
300.436798
 20
126.479248
 30
0.0
 11
302.236816
 21
126.479248
 31
0.0
  0
LINE
  8
0
  6
DASHED
 10
318.436798
 20
112.279251
 30
0.0
 11
327.436798
 21
112.279251
 31
0.0
  0
LINE
  8
0
  6
DASHED
 10
318.686798
 20
106.279251
 30
0.0
 11
318.686798
 21
113.779251
 31
0.0
  0
LINE
  8
0
  6
DASHED
 10
327.186798
 20
106.279251
 30
0.0
 11
327.186798
 21
113.779251
 31
0.0
  0
LINE
  8
0
  6
DASHED
 10
317.93689
 20
106.279243
 30
0.0
 11
318.43689
 21
112.279243
 31
0.0
  0
LINE
  8
0
  6
DASHED
 10
327.937073
 20
106.279282
 30
0.0
 11
327.437073
 21
112.279282
 31
0.0
  0
LINE
  8
0
  6
DASHED
 10
302.93692
 20
106.279251
 30
0.0
 11
303.43692
 21
112.279251
 31
0.0
  0
LINE
  8
0
  6
DASHED
 10
303.686798
 20
106.279251
 30
0.0
 11
303.686798
 21
113.779251
 31
0.0
  0
LINE
  8
0
  6
DASHED
 10
303.436798
 20
112.279251
 30
0.0
 11
312.436798
 21
112.279251
 31
0.0
  0
LINE
  8
0
  6
CENTER
 10
307.936798
 20
103.685555
 30
0.0
 11
307.936798
 21
115.156212
 31
0.0
  0
LINE
  8
0
  6
DASHED
 10
312.186798
 20
106.279251
 30
0.0
 11
312.186798
 21
113.779251
 31
0.0
  0
LINE
  8
0
  6
DASHED
 10
312.937042
 20
106.279282
 30
0.0
 11
312.437042
 21
112.279282
 31
0.0
  0
ARC
  8
0
 10
130.357773
 20
121.217064
 30
0.0
 40
3.578178
 50
325.616119
 51
34.383732
  0
ARC
  8
0
 10
131.514145
 20
121.217064
 30
0.0
 40
3.578178
 50
145.616135
 51
214.383728
  0
ARC
  8
0
 10
130.357773
 20
133.3414
 30
0.0
 40
3.578178
 50
325.616119
 51
34.383732
  0
ARC
  8
0
 10
120.561012
 20
127.279236
 30
0.0
 40
13.374937
 50
342.412292
 51
17.587687
  0
ARC
  8
0
 10
141.310898
 20
127.279236
 30
0.0
 40
13.374945
 50
162.412308
 51
197.587662
  0
ARC
  8
0
 10
131.514145
 20
133.3414
 30
0.0
 40
3.578178
 50
145.616135
 51
214.383728
  0
CIRCLE
  8
0
 10
172.436783
 20
119.779236
 30
0.0
 40
4.25
  0
CIRCLE
  8
0
 10
172.436783
 20
134.779236
 30
0.0
 40
4.25
  0
CIRCLE
  8
0
 10
172.436783
 20
134.779236
 30
0.0
 40
5.0
  0
CIRCLE
  8
0
 10
172.436783
 20
119.779236
 30
0.0
 40
5.0
  0
CIRCLE
  8
0
 10
172.436783
 20
119.779236
 30
0.0
 40
6.7
  0
CIRCLE
  8
0
 10
172.436783
 20
134.779236
 30
0.0
 40
6.7
  0
CIRCLE
  8
0
 10
159.436783
 20
140.279236
 30
0.0
 40
5.5
  0
CIRCLE
  8
0
 10
159.436783
 20
114.279236
 30
0.0
 40
5.5
  0
CIRCLE
  8
0
 10
159.436783
 20
114.279236
 30
0.0
 40
3.3
  0
CIRCLE
  8
0
 10
159.436783
 20
140.279236
 30
0.0
 40
3.3
  0
ARC
  8
0
 10
40.436783
 20
127.279251
 30
0.0
 40
24.5
 50
301.002716
 51
307.752014
  0
ARC
  8
0
 10
40.436783
 20
127.279251
 30
0.0
 40
24.500004
 50
232.247986
 51
238.997253
  0
CIRCLE
  8
0
 10
40.436783
 20
127.279251
 30
0.0
 40
7.0
  0
CIRCLE
  8
0
 10
40.436783
 20
127.279251
 30
0.0
 40
5.0
  0
CIRCLE
  8
0
 10
40.436783
 20
127.279251
 30
0.0
 40
4.375
  0
ARC
  8
0
 10
40.436783
 20
127.279251
 30
0.0
 40
24.500004
 50
121.002739
 51
127.752022
  0
ARC
  8
0
 10
40.436783
 20
127.279251
 30
0.0
 40
24.499998
 50
52.247997
 51
58.99728
  0
ARC
  8
0
 10
315.436798
 20
127.279251
 30
0.0
 40
24.500008
 50
301.002747
 51
307.752014
  0
CIRCLE
  8
0
 10
315.436798
 20
127.279251
 30
0.0
 40
14.4
  0
ARC
  8
0
 10
315.436798
 20
127.279251
 30
0.0
 40
24.500008
 50
121.002754
 51
127.752007
  0
ARC
  8
0
 10
315.436798
 20
127.279251
 30
0.0
 40
24.499998
 50
52.247997
 51
58.99725
  0
ARC
  8
0
 10
315.436798
 20
127.279251
 30
0.0
 40
24.499998
 50
232.248001
 51
238.997238
  0
TEXT
  8
0
 10
298.79776
 20
244.589584
 30
0.0
 40
4.242641
  1
DATE : JAN ,1992
 41
1.052631
  0
TEXT
  8
0
 10
2.257077
 20
243.907959
 30
0.0
 40
5.0
  1
TWIN PORT CYLINDER
 41
0.831919
  0
TEXT
  8
0
 10
12.035715
 20
221.757431
 30
0.0
 40
5.0
  1
MODEL : TWDA 25xSt-RB(15)
 41
1.052632
  0
TEXT
  8
0
 10
86.948776
 20
106.629234
 30
0.0
 40
3.5
  1
M10x1.25
 41
1.052632
  0
TEXT
  8
0
 10
187.004517
 20
158.629242
 30
0.0
 40
3.5
  1
4-Rc1/8
 41
1.052632
  0
TEXT
  8
0
 10
302.273193
 20
3.650512
 30
0.0
 40
5.0
  1
KOGANEI,CORP
 41
1.052632
  0
ENDSEC
  0
EOF
