  0
SECTION
  2
HEADER
  0
ENDSEC
  0
SECTION
  2
TABLES
  0
TABLE
  2
LTYPE
 70
     4
  0
LTYPE
  2
CONTINUOUS
 70
    64
  3
Solid line
 72
    65
 73
     0
 40
0.000000
  0
LTYPE
  2
DASHED
 70
    64
  3
__ __ __ __ __ __ __ __ __ __ __ __ __ __ __
 72
    65
 73
     2
 40
3.500000
 49
2.000000
 49
-1.500000
  0
LTYPE
  2
CENTER
 70
    64
  3
____ _ ____ _ ____ _ ____ _ ____ _ ____ _ ____
 72
    65
 73
     4
 40
17.500000
 49
13.000000
 49
-1.500000
 49
1.500000
 49
-1.500000
  0
LTYPE
  2
PHANTOM
 70
    64
  3
_____ _ _ _____ _ _ _____ _ _ _____ _ _ ____  
 72
    65
 73
     6
 40
15.500000
 49
8.000000
 49
-1.500000
 49
1.500000
 49
-1.500000
 49
1.500000
 49
-1.500000
  0
LTYPE
  2
DASHED1
 70
    64
  3
__ __ __ __ __ __ __ __ __ __ __ __ __ __ __
 72
    65
 73
     2
 40
1.500000
 49
1.000000
 49
-0.500000
  0
LTYPE
  2
DASHED2
 70
    64
  3
__ __ __ __ __ __ __ __ __ __ __ __ __ __ __
 72
    65
 73
     2
 40
3.500000
 49
2.500000
 49
-1.000000
  0
LTYPE
  2
DASHED3
 70
    64
  3
__ __ __ __ __ __ __ __ __ __ __ __ __ __ __
 72
    65
 73
     2
 40
6.000000
 49
4.000000
 49
-2.000000
  0
LTYPE
  2
DASHED4
 70
    64
  3
__ __ __ __ __ __ __ __ __ __ __ __ __ __ __
 72
    65
 73
     2
 40
12.000000
 49
10.000000
 49
-2.000000
  0
LTYPE
  2
DASHED5
 70
    64
  3
__ __ __ __ __ __ __ __ __ __ __ __ __ __ __
 72
    65
 73
     2
 40
17.000000
 49
15.000000
 49
-2.000000
  0
LTYPE
  2
DASHED6
 70
    64
  3
__ __ __ __ __ __ __ __ __ __ __ __ __ __ __
 72
    65
 73
     2
 40
29.000000
 49
27.000000
 49
-2.000000
  0
LTYPE
  2
PHANTOM1
 70
    64
  3
_____ _ _ _____ _ _ _____ _ _ _____ _ _ ____  
 72
    65
 73
     6
 40
31.000000
 49
25.000000
 49
-1.500000
 49
1.000000
 49
-1.000000
 49
1.000000
 49
-1.500000
  0
LTYPE
  2
PHANTOM2
 70
    64
  3
_____ _ _ _____ _ _ _____ _ _ _____ _ _ ____  
 72
    65
 73
     6
 40
36.000000
 49
27.000000
 49
-1.500000
 49
2.500000
 49
-1.000000
 49
2.500000
 49
-1.500000
  0
LTYPE
  2
PHANTOM3
 70
    64
  3
_____ _ _ _____ _ _ _____ _ _ _____ _ _ ____  
 72
    65
 73
     6
 40
78.000000
 49
64.000000
 49
-2.000000
 49
4.000000
 49
-2.000000
 49
4.000000
 49
-2.000000
  0
LTYPE
  2
CENTER1
 70
    64
  3
____ _ ____ _ ____ _ ____ _ ____ _ ____ _ ____
 72
    65
 73
     4
 40
19.000000
 49
14.000000
 49
-1.000000
 49
3.000000
 49
-1.000000
  0
LTYPE
  2
CENTER2
 70
    64
  3
____ _ ____ _ ____ _ ____ _ ____ _ ____ _ ____
 72
    65
 73
     4
 40
28.500000
 49
25.000000
 49
-1.000000
 49
1.500000
 49
-1.000000
  0
LTYPE
  2
CENTER3
 70
    64
  3
____ _ ____ _ ____ _ ____ _ ____ _ ____ _ ____
 72
    65
 73
     4
 40
31.500000
 49
27.000000
 49
-1.000000
 49
2.500000
 49
-1.000000
  0
LTYPE
  2
CENTER4
 70
    64
  3
____ _ ____ _ ____ _ ____ _ ____ _ ____ _ ____
 72
    65
 73
     4
 40
50.000000
 49
45.000000
 49
-1.000000
 49
3.000000
 49
-1.000000
  0
LTYPE
  2
CENTER5
 70
    64
  3
____ _ ____ _ ____ _ ____ _ ____ _ ____ _ ____
 72
    65
 73
     4
 40
100.000000
 49
92.000000
 49
-2.000000
 49
4.000000
 49
-2.000000
  0
LTYPE
  2
SBK1
 70
    64
  3
______ _ _ _ ______ _ _ _ ______ _ _ _ _____  
 72
    65
 73
     8
 40
60.500000
 49
45.000000
 49
-2.000000
 49
2.500000
 49
-2.000000
 49
2.500000
 49
-2.000000
 49
2.500000
 49
-2.000000
  0
LTYPE
  2
SBK2
 70
    64
  3
______ _ _ _ ______ _ _ _ ______ _ _ _ _____  
 72
    65
 73
     8
 40
84.000000
 49
64.000000
 49
-2.000000
 49
4.000000
 49
-2.000000
 49
4.000000
 49
-2.000000
 49
4.000000
 49
-2.000000
  0
LTYPE
  2
STCH
 70
    64
  3
__ __ __ __ __ __ __ __ __ __ __ __ __ __ __
 72
    65
 73
     2
 40
3.000000
 49
1.000000
 49
-2.000000
  0
LTYPE
  2
MTCH
 70
    64
  3
_____ _ _ _____ _ _ _____ _ _ _____ _ _ ____  
 72
    65
 73
     6
 40
80.000000
 49
66.000000
 49
-2.000000
 49
4.000000
 49
-2.000000
 49
4.000000
 49
-2.000000
  0
ENDTAB
  0
TABLE
  2
LAYER
 70
     1
  0
LAYER
  2
0
 70
     0
 62
     7
  6
CONTINUOUS
  0
ENDTAB
  0
TABLE
  2
STYLE
 70
     1
  0
STYLE
  2
STANDARD
 70
     0
 40
0.000000
 41
1.000000
 50
0.000000
 71
     0
 42
0.200000
  3
txt
  4
BIGFONT
  0
ENDTAB
  0
TABLE
  2
VIEW
 70
     0
  0
ENDTAB
  0
ENDSEC
  0
SECTION
  2
BLOCKS
  0
ENDSEC
  0
SECTION
  2
ENTITIES
  0
POINT
  8
0
 10
50.436813
 20
122.279236
  0
POINT
  8
0
 10
64.436813
 20
122.279236
  0
POINT
  8
0
 10
160.436798
 20
122.279236
  0
POINT
  8
0
 10
233.436798
 20
122.279236
  0
POINT
  8
0
 10
295.436737
 20
122.279236
  0
POINT
  8
0
 10
309.436737
 20
122.279236
  0
LINE
  8
0
 62
     3
 10
0.000000
 20
0.000000
 11
0.000000
 21
254.558472
  0
LINE
  8
0
 62
     3
 10
370.873566
 20
254.558472
 11
370.873566
 21
0.000000
  0
LINE
  8
0
 62
     3
 10
0.000000
 20
0.000000
 11
370.873566
 21
0.000000
  0
LINE
  8
0
 62
     3
 10
0.000000
 20
254.558472
 11
370.873566
 21
254.558472
  0
LINE
  8
0
 62
     3
 10
0.000000
 20
240.257431
 11
76.272194
 21
240.257431
  0
LINE
  8
0
 62
     3
 10
76.272194
 20
240.257431
 11
76.272194
 21
254.558472
  0
LINE
  8
0
 62
     3
 10
294.601379
 20
14.301025
 11
370.873566
 21
14.301025
  0
LINE
  8
0
 62
     3
 10
294.601379
 20
240.257431
 11
370.873566
 21
240.257431
  0
LINE
  8
0
 62
     3
 10
294.601379
 20
254.558472
 11
294.601379
 21
240.257431
  0
LINE
  8
0
 62
     3
 10
294.601379
 20
14.301025
 11
294.601379
 21
0.000000
  0
LINE
  8
0
 10
160.436798
 20
136.279236
 11
160.436798
 21
108.279236
  0
LINE
  8
0
 10
233.436798
 20
134.079239
 11
233.436798
 21
110.479240
  0
LINE
  8
0
 10
129.436798
 20
125.279243
 11
129.436798
 21
119.279236
  0
LINE
  8
0
 10
160.436798
 20
136.279236
 11
170.436798
 21
136.279236
  0
LINE
  8
0
 10
160.436798
 20
108.279236
 11
170.436798
 21
108.279236
  0
LINE
  8
0
 10
170.436798
 20
136.279236
 11
170.436798
 21
108.279236
  0
LINE
  8
0
 10
226.436798
 20
134.079239
 11
226.436798
 21
110.479240
  0
LINE
  8
0
 10
170.436798
 20
110.479240
 11
233.436798
 21
110.479240
  0
LINE
  8
0
 10
170.436798
 20
134.079239
 11
233.436798
 21
134.079239
  0
LINE
  8
0
 10
159.436798
 20
127.279236
 11
159.436798
 21
117.279236
  0
LINE
  8
0
 10
159.436798
 20
127.279236
 11
160.436798
 21
127.279236
  0
LINE
  8
0
 10
159.436798
 20
117.279236
 11
160.436798
 21
117.279236
  0
LINE
  8
0
 10
130.436798
 20
126.279236
 11
134.798294
 21
126.279236
  0
LINE
  8
0
 10
130.436798
 20
118.279236
 11
134.798294
 21
118.279236
  0
LINE
  8
0
 10
129.936798
 20
118.779236
 11
134.798294
 21
118.779236
  0
LINE
  8
0
 10
129.936798
 20
125.779236
 11
134.798294
 21
125.779236
  0
LINE
  8
0
 10
144.436798
 20
126.279236
 11
144.436798
 21
118.279236
  0
LINE
  8
0
 10
130.436798
 20
118.279243
 11
129.436798
 21
119.279243
  0
LINE
  8
0
 10
130.436783
 20
126.279228
 11
129.436768
 21
125.279228
  0
LINE
  8
0
 10
130.436798
 20
126.279236
 11
130.436798
 21
118.279236
  0
LINE
  8
0
 10
144.436798
 20
125.779213
 11
145.302826
 21
126.279213
  0
LINE
  8
0
 10
144.436813
 20
118.779251
 11
145.302841
 21
118.279251
  0
LINE
  8
0
 10
134.798309
 20
128.279236
 11
134.798309
 21
116.279251
  0
LINE
  8
0
 10
139.798294
 20
118.279236
 11
145.436798
 21
118.279236
  0
LINE
  8
0
 10
139.798294
 20
118.779236
 11
144.436798
 21
118.779236
  0
LINE
  8
0
 10
139.798294
 20
125.779236
 11
144.436798
 21
125.779236
  0
LINE
  8
0
 10
139.798294
 20
126.279236
 11
145.436798
 21
126.279236
  0
LINE
  8
0
 10
134.798325
 20
128.279221
 11
135.334213
 21
129.207413
  0
LINE
  8
0
 10
139.798309
 20
128.279236
 11
139.798309
 21
116.279205
  0
LINE
  8
0
 10
139.262390
 20
125.743340
 11
135.334198
 21
125.743340
  0
LINE
  8
0
 10
139.262390
 20
129.207443
 11
135.334213
 21
129.207443
  0
LINE
  8
0
 10
139.798294
 20
128.279236
 11
139.262390
 21
129.207428
  0
LINE
  8
0
 10
134.798309
 20
116.279243
 11
135.334213
 21
115.351044
  0
LINE
  8
0
 10
139.262390
 20
118.815140
 11
135.334198
 21
118.815140
  0
LINE
  8
0
 10
139.262390
 20
115.351036
 11
135.334198
 21
115.351036
  0
LINE
  8
0
 10
139.798340
 20
116.279198
 11
139.262436
 21
115.350998
  0
LINE
  8
0
 10
146.436798
 20
125.279236
 11
151.436798
 21
125.279236
  0
LINE
  8
0
 10
146.436798
 20
119.279236
 11
151.436798
 21
119.279236
  0
LINE
  8
0
 10
152.436798
 20
126.279236
 11
159.436798
 21
126.279236
  0
LINE
  8
0
 10
152.436798
 20
118.279236
 11
159.436798
 21
118.279236
  0
LINE
  8
0
 10
145.436783
 20
118.279236
 11
146.436783
 21
119.279236
  0
LINE
  8
0
 10
145.436798
 20
126.279236
 11
146.436798
 21
125.279236
  0
LINE
  8
0
 10
151.436783
 20
125.279213
 11
152.436783
 21
126.279213
  0
LINE
  8
0
 10
152.436768
 20
118.279221
 11
151.436768
 21
119.279221
  0
LINE
  8
0
  6
CENTER
 10
126.436798
 20
122.279236
 11
236.436798
 21
122.279236
  0
LINE
  8
0
 10
132.617554
 20
118.279236
 11
123.957298
 21
103.279251
  0
LINE
  8
0
 10
131.841095
 20
115.381447
 11
132.617554
 21
118.279221
  0
LINE
  8
0
 10
130.496216
 20
116.157921
 11
132.617538
 21
118.279243
  0
LINE
  8
0
 10
107.075745
 20
103.279236
 11
123.957291
 21
103.279236
  0
LINE
  8
0
  6
CENTER
 10
33.436813
 20
122.279236
 11
67.436813
 21
122.279236
  0
LINE
  8
0
  6
CENTER
 10
50.436813
 20
139.279236
 11
50.436813
 21
105.279236
  0
LINE
  8
0
  6
CENTER
 10
39.936813
 20
129.279236
 11
46.936813
 21
129.279236
  0
LINE
  8
0
  6
CENTER
 10
53.936813
 20
129.279236
 11
60.936813
 21
129.279236
  0
LINE
  8
0
  6
CENTER
 10
39.936813
 20
115.279236
 11
46.936813
 21
115.279236
  0
LINE
  8
0
  6
CENTER
 10
53.936813
 20
115.279236
 11
60.936813
 21
115.279236
  0
LINE
  8
0
  6
CENTER
 10
43.436813
 20
118.779236
 11
43.436813
 21
111.779236
  0
LINE
  8
0
  6
CENTER
 10
43.436813
 20
132.779236
 11
43.436813
 21
125.779236
  0
LINE
  8
0
  6
CENTER
 10
57.436813
 20
132.779236
 11
57.436813
 21
125.779236
  0
LINE
  8
0
  6
CENTER
 10
57.436813
 20
118.779236
 11
57.436813
 21
111.779236
  0
LINE
  8
0
 10
44.436771
 20
118.815163
 11
50.436775
 21
115.351059
  0
LINE
  8
0
 10
50.436825
 20
115.351006
 11
56.436821
 21
118.815102
  0
LINE
  8
0
 10
56.436813
 20
118.815132
 11
56.436813
 21
125.743332
  0
LINE
  8
0
 10
56.436874
 20
125.743378
 11
50.436882
 21
129.207474
  0
LINE
  8
0
 10
50.436852
 20
129.207428
 11
44.436848
 21
125.743324
  0
LINE
  8
0
 10
44.436813
 20
125.743362
 11
44.436813
 21
118.815155
  0
LINE
  8
0
 10
58.436813
 20
131.011307
 11
70.138519
 21
151.279251
  0
LINE
  8
0
 10
58.436852
 20
131.011276
 11
59.213306
 21
133.909058
  0
LINE
  8
0
 10
58.436821
 20
131.011307
 11
60.558144
 21
133.132629
  0
LINE
  8
0
 10
70.138527
 20
151.279221
 11
100.138527
 21
151.279221
  0
LINE
  8
0
  6
CENTER
 10
278.436737
 20
122.279236
 11
312.436768
 21
122.279236
  0
LINE
  8
0
  6
CENTER
 10
295.436737
 20
139.279236
 11
295.436737
 21
105.279236
  0
LINE
  8
0
  6
CENTER
 10
301.936737
 20
125.279236
 11
301.936737
 21
119.279236
  0
LINE
  8
0
  6
CENTER
 10
288.936737
 20
125.279236
 11
288.936737
 21
119.279236
  0
LINE
  8
0
  6
CENTER
 10
291.436737
 20
115.779236
 11
299.436737
 21
115.779236
  0
LINE
  8
0
  6
CENTER
 10
291.436737
 20
128.779236
 11
299.436737
 21
128.779236
  0
LINE
  8
0
 10
296.686768
 20
130.944305
 11
311.313904
 21
156.279221
  0
LINE
  8
0
 10
302.936737
 20
124.011307
 11
312.906403
 21
141.279251
  0
LINE
  8
0
 10
302.936768
 20
124.011276
 11
303.713226
 21
126.909042
  0
LINE
  8
0
 10
296.686707
 20
130.944305
 11
297.463165
 21
133.842072
  0
LINE
  8
0
 10
296.686829
 20
130.944305
 11
298.808136
 21
133.065628
  0
LINE
  8
0
 10
302.936859
 20
124.011284
 11
305.058167
 21
126.132599
  0
LINE
  8
0
 10
312.906433
 20
141.279236
 11
342.906433
 21
141.279236
  0
LINE
  8
0
 10
311.313904
 20
156.279236
 11
341.313904
 21
156.279236
  0
ARC
  8
0
 10
128.334137
 20
122.279236
 40
11.464149
 50
342.412109
 51
17.587852
  0
ARC
  8
0
 10
136.731293
 20
127.475388
 40
3.066993
 50
325.615875
 51
34.383999
  0
ARC
  8
0
 10
136.731293
 20
117.083084
 40
3.066993
 50
325.615875
 51
34.384113
  0
ARC
  8
0
 10
137.865295
 20
117.083084
 40
3.066997
 50
145.615768
 51
214.384109
  0
ARC
  8
0
 10
137.865295
 20
127.475388
 40
3.066997
 50
145.615768
 51
214.384109
  0
ARC
  8
0
 10
146.262451
 20
122.279236
 40
11.464149
 50
162.412109
 51
197.587845
  0
CIRCLE
  8
0
 10
57.436813
 20
115.279236
 40
1.650000
  0
CIRCLE
  8
0
 10
50.436813
 20
122.279236
 40
6.000000
  0
CIRCLE
  8
0
 10
50.436813
 20
122.279236
 40
4.000000
  0
CIRCLE
  8
0
 10
50.436813
 20
122.279236
 40
3.500000
  0
CIRCLE
  8
0
 10
50.436813
 20
122.279236
 40
14.000000
  0
CIRCLE
  8
0
 10
43.436813
 20
129.279236
 40
2.000000
  0
CIRCLE
  8
0
 10
43.436813
 20
115.279236
 40
2.000000
  0
CIRCLE
  8
0
 10
57.436813
 20
115.279236
 40
2.000000
  0
CIRCLE
  8
0
 10
57.436813
 20
129.279236
 40
2.000000
  0
CIRCLE
  8
0
 10
57.436813
 20
129.279236
 40
1.650000
  0
CIRCLE
  8
0
 10
43.436813
 20
129.279236
 40
1.650000
  0
CIRCLE
  8
0
 10
43.436813
 20
115.279236
 40
1.650000
  0
CIRCLE
  8
0
 10
295.436737
 20
122.279236
 40
11.800000
  0
CIRCLE
  8
0
 10
295.436737
 20
122.279236
 40
14.000000
  0
CIRCLE
  8
0
 10
301.936737
 20
122.279236
 40
1.650000
  0
CIRCLE
  8
0
 10
288.936737
 20
122.279236
 40
1.650000
  0
CIRCLE
  8
0
 10
295.436737
 20
128.779236
 40
2.100000
  0
CIRCLE
  8
0
 10
295.436737
 20
115.779236
 40
2.100000
  0
CIRCLE
  8
0
 10
295.436737
 20
115.779236
 40
2.500000
  0
CIRCLE
  8
0
 10
295.436737
 20
128.779236
 40
2.500000
  0
CIRCLE
  8
0
 10
301.936737
 20
122.279236
 40
2.000000
  0
CIRCLE
  8
0
 10
288.936737
 20
122.279236
 40
2.000000
  0
TEXT
  8
0
 10
298.797760
 20
244.589584
 40
4.242641
  1
DATE : JAN ,1992
 50
0.000000
 41
1.052631
 51
0.000000
  7
STANDARD
  0
TEXT
  8
0
 10
2.257077
 20
243.907959
 40
5.000000
  1
TWIN PORT CYLINDER
 50
0.000000
 41
0.831919
 51
0.000000
  7
STANDARD
  0
TEXT
  8
0
 10
12.035715
 20
221.757431
 40
5.000000
  1
MODEL : TWDA 20xSt-HA(15)
 50
0.000000
 41
1.052632
 51
0.000000
  7
STANDARD
  0
TEXT
  8
0
 10
108.457291
 20
103.629234
 40
3.500000
  1
M8x1
 50
0.000000
 41
1.052632
 51
0.000000
  7
STANDARD
  0
TEXT
  8
0
 10
70.638535
 20
151.629227
 40
3.500000
  1
4-M4x0.7
 50
0.000000
 41
1.052632
 51
0.000000
  7
STANDARD
  0
TEXT
  8
0
 10
312.313904
 20
156.629242
 40
3.500000
  1
2-M5x0.8
 50
0.000000
 41
1.052632
 51
0.000000
  7
STANDARD
  0
TEXT
  8
0
 10
313.906464
 20
142.129242
 40
3.500000
  1
2-M4x0.7
 50
0.000000
 41
1.052632
 51
0.000000
  7
STANDARD
  0
TEXT
  8
0
 10
302.273193
 20
3.650512
 40
5.000000
  1
KOGANEI,CORP
 50
0.000000
 41
1.052632
 51
0.000000
  7
STANDARD
  0
ENDSEC
  0
EOF
