  0
SECTION
  2
HEADER
  0
ENDSEC
  0
SECTION
  2
TABLES
  0
TABLE
  2
LTYPE
 70
     4
  0
LTYPE
  2
CONTINUOUS
 70
    64
  3
Solid line
 72
    65
 73
     0
 40
0.000000
  0
LTYPE
  2
DASHED
 70
    64
  3
__ __ __ __ __ __ __ __ __ __ __ __ __ __ __
 72
    65
 73
     2
 40
3.500000
 49
2.000000
 49
-1.500000
  0
LTYPE
  2
CENTER
 70
    64
  3
____ _ ____ _ ____ _ ____ _ ____ _ ____ _ ____
 72
    65
 73
     4
 40
17.500000
 49
13.000000
 49
-1.500000
 49
1.500000
 49
-1.500000
  0
LTYPE
  2
PHANTOM
 70
    64
  3
_____ _ _ _____ _ _ _____ _ _ _____ _ _ ____  
 72
    65
 73
     6
 40
15.500000
 49
8.000000
 49
-1.500000
 49
1.500000
 49
-1.500000
 49
1.500000
 49
-1.500000
  0
LTYPE
  2
DASHED1
 70
    64
  3
__ __ __ __ __ __ __ __ __ __ __ __ __ __ __
 72
    65
 73
     2
 40
1.500000
 49
1.000000
 49
-0.500000
  0
LTYPE
  2
DASHED2
 70
    64
  3
__ __ __ __ __ __ __ __ __ __ __ __ __ __ __
 72
    65
 73
     2
 40
3.500000
 49
2.500000
 49
-1.000000
  0
LTYPE
  2
DASHED3
 70
    64
  3
__ __ __ __ __ __ __ __ __ __ __ __ __ __ __
 72
    65
 73
     2
 40
6.000000
 49
4.000000
 49
-2.000000
  0
LTYPE
  2
DASHED4
 70
    64
  3
__ __ __ __ __ __ __ __ __ __ __ __ __ __ __
 72
    65
 73
     2
 40
12.000000
 49
10.000000
 49
-2.000000
  0
LTYPE
  2
DASHED5
 70
    64
  3
__ __ __ __ __ __ __ __ __ __ __ __ __ __ __
 72
    65
 73
     2
 40
17.000000
 49
15.000000
 49
-2.000000
  0
LTYPE
  2
DASHED6
 70
    64
  3
__ __ __ __ __ __ __ __ __ __ __ __ __ __ __
 72
    65
 73
     2
 40
29.000000
 49
27.000000
 49
-2.000000
  0
LTYPE
  2
PHANTOM1
 70
    64
  3
_____ _ _ _____ _ _ _____ _ _ _____ _ _ ____  
 72
    65
 73
     6
 40
31.000000
 49
25.000000
 49
-1.500000
 49
1.000000
 49
-1.000000
 49
1.000000
 49
-1.500000
  0
LTYPE
  2
PHANTOM2
 70
    64
  3
_____ _ _ _____ _ _ _____ _ _ _____ _ _ ____  
 72
    65
 73
     6
 40
36.000000
 49
27.000000
 49
-1.500000
 49
2.500000
 49
-1.000000
 49
2.500000
 49
-1.500000
  0
LTYPE
  2
PHANTOM3
 70
    64
  3
_____ _ _ _____ _ _ _____ _ _ _____ _ _ ____  
 72
    65
 73
     6
 40
78.000000
 49
64.000000
 49
-2.000000
 49
4.000000
 49
-2.000000
 49
4.000000
 49
-2.000000
  0
LTYPE
  2
CENTER1
 70
    64
  3
____ _ ____ _ ____ _ ____ _ ____ _ ____ _ ____
 72
    65
 73
     4
 40
19.000000
 49
14.000000
 49
-1.000000
 49
3.000000
 49
-1.000000
  0
LTYPE
  2
CENTER2
 70
    64
  3
____ _ ____ _ ____ _ ____ _ ____ _ ____ _ ____
 72
    65
 73
     4
 40
28.500000
 49
25.000000
 49
-1.000000
 49
1.500000
 49
-1.000000
  0
LTYPE
  2
CENTER3
 70
    64
  3
____ _ ____ _ ____ _ ____ _ ____ _ ____ _ ____
 72
    65
 73
     4
 40
31.500000
 49
27.000000
 49
-1.000000
 49
2.500000
 49
-1.000000
  0
LTYPE
  2
CENTER4
 70
    64
  3
____ _ ____ _ ____ _ ____ _ ____ _ ____ _ ____
 72
    65
 73
     4
 40
50.000000
 49
45.000000
 49
-1.000000
 49
3.000000
 49
-1.000000
  0
LTYPE
  2
CENTER5
 70
    64
  3
____ _ ____ _ ____ _ ____ _ ____ _ ____ _ ____
 72
    65
 73
     4
 40
100.000000
 49
92.000000
 49
-2.000000
 49
4.000000
 49
-2.000000
  0
LTYPE
  2
SBK1
 70
    64
  3
______ _ _ _ ______ _ _ _ ______ _ _ _ _____  
 72
    65
 73
     8
 40
60.500000
 49
45.000000
 49
-2.000000
 49
2.500000
 49
-2.000000
 49
2.500000
 49
-2.000000
 49
2.500000
 49
-2.000000
  0
LTYPE
  2
SBK2
 70
    64
  3
______ _ _ _ ______ _ _ _ ______ _ _ _ _____  
 72
    65
 73
     8
 40
84.000000
 49
64.000000
 49
-2.000000
 49
4.000000
 49
-2.000000
 49
4.000000
 49
-2.000000
 49
4.000000
 49
-2.000000
  0
LTYPE
  2
STCH
 70
    64
  3
__ __ __ __ __ __ __ __ __ __ __ __ __ __ __
 72
    65
 73
     2
 40
3.000000
 49
1.000000
 49
-2.000000
  0
LTYPE
  2
MTCH
 70
    64
  3
_____ _ _ _____ _ _ _____ _ _ _____ _ _ ____  
 72
    65
 73
     6
 40
80.000000
 49
66.000000
 49
-2.000000
 49
4.000000
 49
-2.000000
 49
4.000000
 49
-2.000000
  0
ENDTAB
  0
TABLE
  2
LAYER
 70
     1
  0
LAYER
  2
0
 70
     0
 62
     7
  6
CONTINUOUS
  0
ENDTAB
  0
TABLE
  2
STYLE
 70
     1
  0
STYLE
  2
STANDARD
 70
     0
 40
0.000000
 41
1.000000
 50
0.000000
 71
     0
 42
0.200000
  3
txt
  4
BIGFONT
  0
ENDTAB
  0
TABLE
  2
VIEW
 70
     0
  0
ENDTAB
  0
ENDSEC
  0
SECTION
  2
BLOCKS
  0
ENDSEC
  0
SECTION
  2
ENTITIES
  0
POINT
  8
0
 10
262.247223
 20
180.000046
  0
POINT
  8
0
 10
54.999969
 20
245.000061
  0
POINT
  8
0
 10
74.999969
 20
245.000061
  0
POINT
  8
0
 10
122.880020
 20
245.000046
  0
POINT
  8
0
 10
129.880020
 20
245.000046
  0
POINT
  8
0
 10
229.831482
 20
245.000046
  0
POINT
  8
0
 10
254.831482
 20
245.000046
  0
POINT
  8
0
 10
306.181458
 20
245.000046
  0
POINT
  8
0
 10
314.181458
 20
245.000046
  0
POINT
  8
0
 10
406.662964
 20
245.000046
  0
POINT
  8
0
 10
434.662964
 20
245.000046
  0
POINT
  8
0
 10
483.333282
 20
245.000061
  0
POINT
  8
0
 10
492.333282
 20
245.000061
  0
POINT
  8
0
 10
90.000031
 20
75.000015
  0
POINT
  8
0
 10
123.000031
 20
75.000015
  0
POINT
  8
0
 10
191.279999
 20
74.999992
  0
POINT
  8
0
 10
200.279999
 20
74.999992
  0
POINT
  8
0
 10
347.247192
 20
75.000031
  0
POINT
  8
0
 10
389.247192
 20
75.000031
  0
POINT
  8
0
 10
458.297241
 20
75.000000
  0
POINT
  8
0
 10
468.297241
 20
75.000000
  0
LINE
  8
0
 62
     3
 10
0.000000
 20
0.000000
 11
0.000000
 21
360.000092
  0
LINE
  8
0
 62
     3
 10
524.494446
 20
360.000092
 11
524.494446
 21
0.000000
  0
LINE
  8
0
 62
     3
 10
0.000000
 20
0.000000
 11
524.494446
 21
0.000000
  0
LINE
  8
0
 62
     3
 10
0.000000
 20
360.000092
 11
524.494446
 21
360.000092
  0
LINE
  8
0
 62
     3
 10
0.000000
 20
339.775330
 11
107.865173
 21
339.775330
  0
LINE
  8
0
 62
     3
 10
107.865173
 20
339.775330
 11
107.865173
 21
360.000092
  0
LINE
  8
0
 62
     3
 10
416.629272
 20
20.224701
 11
524.494446
 21
20.224701
  0
LINE
  8
0
 62
     3
 10
416.629272
 20
339.775330
 11
524.494446
 21
339.775330
  0
LINE
  8
0
 62
     3
 10
416.629272
 20
360.000092
 11
416.629272
 21
339.775330
  0
LINE
  8
0
 62
     3
 10
416.629272
 20
20.224701
 11
416.629272
 21
0.000000
  0
LINE
  8
0
 10
0.000000
 20
180.000046
 11
524.494446
 21
180.000046
  0
LINE
  8
0
 10
262.247223
 20
0.000000
 11
262.247223
 21
180.000046
  0
LINE
  8
0
 10
174.831482
 20
180.000046
 11
174.831482
 21
360.000092
  0
LINE
  8
0
 10
349.662964
 20
180.000046
 11
349.662964
 21
360.000092
  0
LINE
  8
0
 10
48.999954
 20
256.000061
 11
60.999954
 21
256.000061
  0
LINE
  8
0
 10
48.999954
 20
234.000061
 11
60.999954
 21
234.000061
  0
LINE
  8
0
 10
74.999969
 20
249.000061
 11
74.999969
 21
241.000061
  0
LINE
  8
0
 10
34.999969
 20
249.000061
 11
34.999969
 21
241.000061
  0
LINE
  8
0
 10
60.999958
 20
256.000092
 11
74.999962
 21
249.000092
  0
LINE
  8
0
 10
74.999992
 20
241.000000
 11
60.999992
 21
234.000000
  0
LINE
  8
0
 10
48.999969
 20
234.000031
 11
34.999973
 21
241.000031
  0
LINE
  8
0
 10
35.000023
 20
248.999924
 11
49.000027
 21
255.999924
  0
LINE
  8
0
 10
47.749958
 20
250.278412
 11
48.999969
 21
249.556717
  0
LINE
  8
0
 10
48.999928
 20
249.556747
 11
50.249928
 21
250.278442
  0
LINE
  8
0
 10
50.249954
 20
250.278366
 11
50.249954
 21
251.721741
  0
LINE
  8
0
 10
50.249981
 20
251.721756
 11
48.999985
 21
252.443451
  0
LINE
  8
0
 10
48.999908
 20
252.443604
 11
47.749897
 21
251.721909
  0
LINE
  8
0
 10
47.749954
 20
251.721771
 11
47.749954
 21
250.278381
  0
LINE
  8
0
 10
50.249954
 20
239.721741
 11
50.249954
 21
238.278366
  0
LINE
  8
0
 10
48.999905
 20
240.443375
 11
50.249905
 21
239.721680
  0
LINE
  8
0
 10
47.749882
 20
239.721786
 11
48.999897
 21
240.443481
  0
LINE
  8
0
 10
47.749954
 20
238.278336
 11
47.749954
 21
239.721725
  0
LINE
  8
0
 10
48.999962
 20
237.556656
 11
47.749950
 21
238.278351
  0
LINE
  8
0
 10
50.250019
 20
238.278198
 11
49.000019
 21
237.556519
  0
LINE
  8
0
 10
59.749985
 20
250.278366
 11
59.749985
 21
251.721741
  0
LINE
  8
0
 10
60.999977
 20
249.556641
 11
59.749977
 21
250.278336
  0
LINE
  8
0
 10
62.250000
 20
250.278427
 11
60.999973
 21
249.556717
  0
LINE
  8
0
 10
62.249985
 20
251.721771
 11
62.249985
 21
250.278381
  0
LINE
  8
0
 10
60.999958
 20
252.443481
 11
62.249969
 21
251.721786
  0
LINE
  8
0
 10
59.750053
 20
251.721603
 11
61.000053
 21
252.443298
  0
LINE
  8
0
 10
59.749985
 20
239.721741
 11
59.749985
 21
238.278366
  0
LINE
  8
0
 10
61.000000
 20
240.443283
 11
59.750004
 21
239.721603
  0
LINE
  8
0
 10
62.250069
 20
239.721741
 11
61.000057
 21
240.443436
  0
LINE
  8
0
 10
62.249985
 20
238.278336
 11
62.249985
 21
239.721725
  0
LINE
  8
0
 10
60.999977
 20
237.556702
 11
62.249989
 21
238.278397
  0
LINE
  8
0
 10
59.749931
 20
238.278290
 11
60.999931
 21
237.556610
  0
LINE
  8
0
  6
CENTER
 10
38.999969
 20
249.000061
 11
38.999969
 21
241.000061
  0
LINE
  8
0
  6
CENTER
 10
77.999954
 20
245.000061
 11
31.999954
 21
245.000061
  0
LINE
  8
0
  6
CENTER
 10
48.999954
 20
255.500061
 11
48.999954
 21
246.500061
  0
LINE
  8
0
  6
CENTER
 10
44.499954
 20
251.000061
 11
53.499954
 21
251.000061
  0
LINE
  8
0
  6
CENTER
 10
54.999969
 20
259.000061
 11
54.999969
 21
231.000061
  0
LINE
  8
0
  6
CENTER
 10
70.999969
 20
249.000061
 11
70.999969
 21
241.000061
  0
LINE
  8
0
  6
CENTER
 10
65.499985
 20
251.000061
 11
56.499985
 21
251.000061
  0
LINE
  8
0
  6
CENTER
 10
60.999985
 20
255.500061
 11
60.999985
 21
246.500061
  0
LINE
  8
0
  6
CENTER
 10
60.999985
 20
234.500046
 11
60.999985
 21
243.500046
  0
LINE
  8
0
  6
CENTER
 10
65.499985
 20
239.000046
 11
56.499985
 21
239.000046
  0
LINE
  8
0
  6
CENTER
 10
44.499954
 20
239.000046
 11
53.499954
 21
239.000046
  0
LINE
  8
0
  6
CENTER
 10
48.999954
 20
234.500046
 11
48.999954
 21
243.500046
  0
LINE
  8
0
 10
122.879990
 20
241.000046
 11
128.879990
 21
241.000046
  0
LINE
  8
0
 10
128.880020
 20
256.000061
 11
128.880020
 21
234.000046
  0
LINE
  8
0
 10
122.880051
 20
249.000046
 11
128.880051
 21
249.000046
  0
LINE
  8
0
 10
129.880020
 20
256.000031
 11
129.880020
 21
234.000031
  0
LINE
  8
0
 10
122.880020
 20
256.000092
 11
122.880020
 21
234.000092
  0
LINE
  8
0
 10
122.880096
 20
256.000031
 11
129.880096
 21
256.000031
  0
LINE
  8
0
 10
122.879944
 20
234.000031
 11
129.879944
 21
234.000031
  0
LINE
  8
0
  6
CENTER
 10
119.880020
 20
245.000046
 11
132.880020
 21
245.000046
  0
LINE
  8
0
 10
232.967743
 20
239.035294
 11
231.657608
 21
240.345428
  0
LINE
  8
0
 10
235.796219
 20
241.863724
 11
234.486069
 21
243.173874
  0
LINE
  8
0
 10
222.831482
 20
259.000061
 11
236.831482
 21
259.000061
  0
LINE
  8
0
 10
222.831482
 20
231.000046
 11
236.831482
 21
231.000046
  0
LINE
  8
0
 10
254.831482
 20
250.000046
 11
254.831482
 21
240.000046
  0
LINE
  8
0
 10
204.831482
 20
250.000046
 11
204.831482
 21
240.000046
  0
LINE
  8
0
 10
204.831467
 20
250.000137
 11
222.831497
 21
259.000153
  0
LINE
  8
0
 10
236.831558
 20
259.000153
 11
254.831558
 21
250.000153
  0
LINE
  8
0
 10
204.831497
 20
240.000092
 11
222.831512
 21
231.000076
  0
LINE
  8
0
 10
236.831482
 20
231.000092
 11
254.831512
 21
240.000107
  0
LINE
  8
0
 10
221.331482
 20
251.134018
 11
222.831482
 21
250.267990
  0
LINE
  8
0
 10
222.831482
 20
250.268021
 11
224.331497
 21
251.134048
  0
LINE
  8
0
 10
224.331482
 20
251.134018
 11
224.331482
 21
252.866074
  0
LINE
  8
0
 10
224.331467
 20
252.866074
 11
222.831467
 21
253.732101
  0
LINE
  8
0
 10
222.831451
 20
253.732147
 11
221.331451
 21
252.866119
  0
LINE
  8
0
 10
221.331482
 20
252.866074
 11
221.331482
 21
251.134018
  0
LINE
  8
0
 10
223.866776
 20
248.136368
 11
225.176926
 21
246.826233
  0
LINE
  8
0
 10
226.695221
 20
250.964783
 11
228.005371
 21
249.654648
  0
LINE
  8
0
 10
221.331482
 20
238.866058
 11
222.831482
 21
239.732086
  0
LINE
  8
0
 10
222.831558
 20
239.732178
 11
224.331558
 21
238.866150
  0
LINE
  8
0
 10
224.331482
 20
238.866074
 11
224.331482
 21
237.134018
  0
LINE
  8
0
 10
224.331451
 20
237.134003
 11
222.831451
 21
236.267975
  0
LINE
  8
0
 10
222.831467
 20
236.267975
 11
221.331451
 21
237.134003
  0
LINE
  8
0
 10
221.331482
 20
237.134018
 11
221.331482
 21
238.866074
  0
LINE
  8
0
 10
226.695175
 20
239.035309
 11
228.005325
 21
240.345459
  0
LINE
  8
0
 10
223.866760
 20
241.863739
 11
225.176895
 21
243.173874
  0
LINE
  8
0
 10
238.331512
 20
251.134033
 11
236.831497
 21
250.268005
  0
LINE
  8
0
 10
236.831528
 20
250.268082
 11
235.331528
 21
251.134109
  0
LINE
  8
0
 10
235.331482
 20
251.134018
 11
235.331482
 21
252.866074
  0
LINE
  8
0
 10
235.331497
 20
252.866089
 11
236.831497
 21
253.732117
  0
LINE
  8
0
 10
236.831467
 20
253.732086
 11
238.331467
 21
252.866058
  0
LINE
  8
0
 10
238.331482
 20
252.866074
 11
238.331482
 21
251.134018
  0
LINE
  8
0
 10
232.967773
 20
250.964752
 11
231.657639
 21
249.654617
  0
LINE
  8
0
 10
235.796204
 20
248.136337
 11
234.486069
 21
246.826202
  0
LINE
  8
0
 10
236.831482
 20
236.267990
 11
238.331482
 21
237.134018
  0
LINE
  8
0
 10
238.331482
 20
237.134018
 11
238.331482
 21
238.866074
  0
LINE
  8
0
 10
238.331482
 20
238.866043
 11
236.831482
 21
239.732071
  0
LINE
  8
0
 10
236.831467
 20
239.732086
 11
235.331467
 21
238.866058
  0
LINE
  8
0
 10
235.331482
 20
238.866074
 11
235.331482
 21
237.134018
  0
LINE
  8
0
 10
235.331482
 20
237.134033
 11
236.831482
 21
236.268005
  0
LINE
  8
0
  6
CENTER
 10
229.831482
 20
262.000061
 11
229.831482
 21
228.000046
  0
LINE
  8
0
  6
CENTER
 10
201.831482
 20
245.000046
 11
257.831482
 21
245.000046
  0
LINE
  8
0
  6
CENTER
 10
249.831482
 20
249.500046
 11
249.831482
 21
240.500046
  0
LINE
  8
0
  6
CENTER
 10
209.831482
 20
249.500046
 11
209.831482
 21
240.500046
  0
LINE
  8
0
  6
CENTER
 10
217.331482
 20
252.000046
 11
228.331482
 21
252.000046
  0
LINE
  8
0
  6
CENTER
 10
222.831482
 20
257.500061
 11
222.831482
 21
246.500046
  0
LINE
  8
0
  6
CENTER
 10
236.831482
 20
257.500061
 11
236.831482
 21
246.500046
  0
LINE
  8
0
  6
CENTER
 10
242.331482
 20
252.000046
 11
231.331482
 21
252.000046
  0
LINE
  8
0
  6
CENTER
 10
236.831482
 20
232.500046
 11
236.831482
 21
243.500046
  0
LINE
  8
0
  6
CENTER
 10
242.331482
 20
238.000046
 11
231.331482
 21
238.000046
  0
LINE
  8
0
  6
CENTER
 10
222.831482
 20
232.500046
 11
222.831482
 21
243.500046
  0
LINE
  8
0
  6
CENTER
 10
217.331482
 20
238.000046
 11
228.331482
 21
238.000046
  0
LINE
  8
0
 10
306.181458
 20
250.000046
 11
313.181458
 21
250.000046
  0
LINE
  8
0
 10
306.181458
 20
240.000046
 11
313.181458
 21
240.000046
  0
LINE
  8
0
 10
306.181458
 20
231.000046
 11
314.181458
 21
231.000046
  0
LINE
  8
0
 10
306.181458
 20
259.000061
 11
314.181458
 21
259.000061
  0
LINE
  8
0
 10
306.181458
 20
259.000031
 11
306.181458
 21
231.000031
  0
LINE
  8
0
 10
314.181458
 20
259.000061
 11
314.181458
 21
231.000046
  0
LINE
  8
0
 10
313.181458
 20
259.000061
 11
313.181458
 21
231.000046
  0
LINE
  8
0
  6
CENTER
 10
303.181458
 20
245.000046
 11
317.181458
 21
245.000046
  0
LINE
  8
0
 10
413.574799
 20
241.623703
 11
412.287506
 21
242.910980
  0
LINE
  8
0
 10
410.039276
 20
238.088150
 11
408.752014
 21
239.375427
  0
LINE
  8
0
 10
398.662964
 20
229.000046
 11
414.662964
 21
229.000046
  0
LINE
  8
0
 10
398.662964
 20
261.000061
 11
414.662964
 21
261.000061
  0
LINE
  8
0
 10
434.662964
 20
251.000046
 11
434.662964
 21
239.000046
  0
LINE
  8
0
 10
378.662964
 20
251.000046
 11
378.662964
 21
239.000046
  0
LINE
  8
0
 10
378.662964
 20
251.000046
 11
398.662964
 21
261.000031
  0
LINE
  8
0
 10
378.662964
 20
239.000031
 11
398.662964
 21
229.000031
  0
LINE
  8
0
 10
434.662994
 20
251.000031
 11
414.662994
 21
261.000031
  0
LINE
  8
0
 10
434.662964
 20
239.000046
 11
414.662964
 21
229.000046
  0
LINE
  8
0
 10
396.662994
 20
251.845383
 11
398.663025
 21
250.690674
  0
LINE
  8
0
 10
398.663025
 20
250.690674
 11
400.663025
 21
251.845367
  0
LINE
  8
0
 10
400.662964
 20
251.845352
 11
400.662964
 21
254.154755
  0
LINE
  8
0
 10
400.663025
 20
254.154800
 11
398.663055
 21
255.309494
  0
LINE
  8
0
 10
398.663025
 20
255.309464
 11
396.663025
 21
254.154770
  0
LINE
  8
0
 10
396.662964
 20
254.154755
 11
396.662964
 21
251.845337
  0
LINE
  8
0
 10
399.751190
 20
248.376450
 11
401.038483
 21
247.089172
  0
LINE
  8
0
 10
403.286774
 20
251.911987
 11
404.574036
 21
250.624710
  0
LINE
  8
0
 10
400.662994
 20
235.845352
 11
398.662994
 21
234.690659
  0
LINE
  8
0
 10
398.663025
 20
234.690720
 11
396.662994
 21
235.845428
  0
LINE
  8
0
 10
396.662964
 20
235.845337
 11
396.662964
 21
238.154755
  0
LINE
  8
0
 10
396.662964
 20
238.154755
 11
398.662994
 21
239.309464
  0
LINE
  8
0
 10
398.662903
 20
239.309326
 11
400.662903
 21
238.154617
  0
LINE
  8
0
 10
400.662964
 20
238.154739
 11
400.662964
 21
235.845337
  0
LINE
  8
0
 10
399.751099
 20
241.623718
 11
401.038391
 21
242.910995
  0
LINE
  8
0
 10
403.286652
 20
238.088196
 11
404.573914
 21
239.375443
  0
LINE
  8
0
 10
412.662964
 20
254.154739
 11
414.662964
 21
255.309433
  0
LINE
  8
0
 10
414.662994
 20
255.309479
 11
416.662994
 21
254.154770
  0
LINE
  8
0
 10
416.663025
 20
254.154755
 11
416.663025
 21
251.845337
  0
LINE
  8
0
 10
416.662964
 20
251.845306
 11
414.662933
 21
250.690598
  0
LINE
  8
0
 10
414.662933
 20
250.690552
 11
412.662903
 21
251.845261
  0
LINE
  8
0
 10
412.662994
 20
251.845352
 11
412.662994
 21
254.154755
  0
LINE
  8
0
 10
413.574799
 20
248.376358
 11
412.287506
 21
247.089081
  0
LINE
  8
0
 10
410.039276
 20
251.911896
 11
408.751984
 21
250.624619
  0
LINE
  8
0
 10
412.662933
 20
235.845245
 11
414.662933
 21
234.690536
  0
LINE
  8
0
 10
414.662994
 20
234.690659
 11
416.663025
 21
235.845367
  0
LINE
  8
0
 10
414.662994
 20
239.309448
 11
412.662994
 21
238.154739
  0
LINE
  8
0
 10
412.662994
 20
238.154739
 11
412.662994
 21
235.845337
  0
LINE
  8
0
 10
416.663025
 20
235.845337
 11
416.663025
 21
238.154755
  0
LINE
  8
0
 10
416.662903
 20
238.154709
 11
414.662933
 21
239.309418
  0
LINE
  8
0
  6
CENTER
 10
384.662964
 20
250.000046
 11
384.662964
 21
240.000046
  0
LINE
  8
0
  6
CENTER
 10
375.662964
 20
245.000046
 11
437.662964
 21
245.000046
  0
LINE
  8
0
  6
CENTER
 10
398.662964
 20
231.000046
 11
398.662964
 21
243.000046
  0
LINE
  8
0
  6
CENTER
 10
392.662964
 20
237.000046
 11
404.662964
 21
237.000046
  0
LINE
  8
0
  6
CENTER
 10
392.662964
 20
253.000046
 11
404.662964
 21
253.000046
  0
LINE
  8
0
  6
CENTER
 10
398.662964
 20
259.000061
 11
398.662964
 21
247.000046
  0
LINE
  8
0
  6
CENTER
 10
414.662964
 20
259.000061
 11
414.662964
 21
247.000046
  0
LINE
  8
0
  6
CENTER
 10
420.662964
 20
253.000046
 11
408.662964
 21
253.000046
  0
LINE
  8
0
  6
CENTER
 10
414.662964
 20
231.000046
 11
414.662964
 21
243.000046
  0
LINE
  8
0
  6
CENTER
 10
420.662964
 20
237.000046
 11
408.662964
 21
237.000046
  0
LINE
  8
0
  6
CENTER
 10
428.662964
 20
250.000046
 11
428.662964
 21
240.000046
  0
LINE
  8
0
  6
CENTER
 10
406.662964
 20
264.000061
 11
406.662964
 21
226.000046
  0
LINE
  8
0
 10
483.333313
 20
239.000061
 11
491.333313
 21
239.000061
  0
LINE
  8
0
 10
491.333282
 20
229.000061
 11
491.333282
 21
261.000061
  0
LINE
  8
0
 10
483.333313
 20
229.000061
 11
492.333313
 21
229.000061
  0
LINE
  8
0
 10
483.333313
 20
251.000061
 11
491.333313
 21
251.000061
  0
LINE
  8
0
 10
483.333282
 20
229.000061
 11
483.333282
 21
261.000061
  0
LINE
  8
0
 10
492.333282
 20
229.000061
 11
492.333282
 21
261.000061
  0
LINE
  8
0
 10
483.333313
 20
261.000061
 11
492.333313
 21
261.000061
  0
LINE
  8
0
  6
CENTER
 10
480.333313
 20
245.000061
 11
495.333313
 21
245.000061
  0
LINE
  8
0
 10
98.000000
 20
86.154709
 11
98.000000
 21
83.845306
  0
LINE
  8
0
 10
100.000031
 20
87.309433
 11
98.000031
 21
86.154724
  0
LINE
  8
0
 10
59.000031
 20
95.000015
 11
121.000031
 21
95.000015
  0
LINE
  8
0
 10
59.000031
 20
55.000015
 11
121.000031
 21
55.000015
  0
LINE
  8
0
 10
123.000031
 20
93.000015
 11
123.000031
 21
57.000015
  0
LINE
  8
0
 10
57.000031
 20
93.000015
 11
57.000031
 21
57.000015
  0
LINE
  8
0
 10
57.000042
 20
57.000027
 11
59.000042
 21
55.000027
  0
LINE
  8
0
 10
57.000042
 20
93.000008
 11
59.000042
 21
95.000015
  0
LINE
  8
0
 10
121.000023
 20
95.000015
 11
123.000023
 21
93.000015
  0
LINE
  8
0
 10
123.000015
 20
57.000004
 11
121.000023
 21
55.000011
  0
LINE
  8
0
 10
78.000046
 20
63.845261
 11
80.000038
 21
62.690567
  0
LINE
  8
0
 10
80.000038
 20
62.690628
 11
82.000046
 21
63.845329
  0
LINE
  8
0
 10
82.000061
 20
63.845322
 11
82.000061
 21
66.154724
  0
LINE
  8
0
 10
82.000031
 20
66.154732
 11
80.000031
 21
67.309433
  0
LINE
  8
0
 10
79.999992
 20
67.309433
 11
78.000008
 21
66.154739
  0
LINE
  8
0
 10
78.000046
 20
66.154678
 11
78.000046
 21
63.845291
  0
LINE
  8
0
  6
CENTER
 10
63.000031
 20
80.000015
 11
63.000031
 21
70.000015
  0
LINE
  8
0
 10
98.000038
 20
66.154755
 11
100.000038
 21
67.309456
  0
LINE
  8
0
 10
100.000092
 20
67.309410
 11
102.000076
 21
66.154724
  0
LINE
  8
0
 10
102.000015
 20
66.154678
 11
102.000015
 21
63.845291
  0
LINE
  8
0
 10
102.000000
 20
63.845310
 11
100.000015
 21
62.690617
  0
LINE
  8
0
 10
100.000053
 20
62.690609
 11
98.000046
 21
63.845310
  0
LINE
  8
0
 10
98.000000
 20
63.845322
 11
98.000000
 21
66.154724
  0
LINE
  8
0
 10
82.000000
 20
83.845253
 11
80.000000
 21
82.690552
  0
LINE
  8
0
 10
79.999969
 20
82.690552
 11
77.999985
 21
83.845253
  0
LINE
  8
0
 10
78.000046
 20
83.845352
 11
78.000046
 21
86.154739
  0
LINE
  8
0
 10
78.000099
 20
86.154770
 11
80.000069
 21
87.309456
  0
LINE
  8
0
 10
79.999992
 20
87.309433
 11
82.000015
 21
86.154732
  0
LINE
  8
0
 10
82.000061
 20
86.154709
 11
82.000061
 21
83.845306
  0
LINE
  8
0
 10
101.999962
 20
86.154709
 11
99.999977
 21
87.309402
  0
LINE
  8
0
 10
98.000031
 20
83.845314
 11
100.000031
 21
82.690613
  0
LINE
  8
0
 10
100.000061
 20
82.690590
 11
102.000031
 21
83.845284
  0
LINE
  8
0
 10
102.000015
 20
83.845352
 11
102.000015
 21
86.154739
  0
LINE
  8
0
  6
CENTER
 10
54.000031
 20
75.000015
 11
126.000031
 21
75.000015
  0
LINE
  8
0
  6
CENTER
 10
90.000031
 20
98.000015
 11
90.000031
 21
52.000015
  0
LINE
  8
0
  6
CENTER
 10
80.000031
 20
79.000015
 11
80.000031
 21
91.000015
  0
LINE
  8
0
  6
CENTER
 10
74.000031
 20
85.000015
 11
86.000031
 21
85.000015
  0
LINE
  8
0
  6
CENTER
 10
80.000031
 20
71.000015
 11
80.000031
 21
59.000015
  0
LINE
  8
0
  6
CENTER
 10
74.000031
 20
65.000015
 11
86.000031
 21
65.000015
  0
LINE
  8
0
  6
CENTER
 10
106.000031
 20
65.000015
 11
94.000031
 21
65.000015
  0
LINE
  8
0
  6
CENTER
 10
100.000031
 20
71.000015
 11
100.000031
 21
59.000015
  0
LINE
  8
0
  6
CENTER
 10
100.000031
 20
79.000015
 11
100.000031
 21
91.000015
  0
LINE
  8
0
  6
CENTER
 10
106.000031
 20
85.000015
 11
94.000031
 21
85.000015
  0
LINE
  8
0
  6
CENTER
 10
117.000031
 20
80.000015
 11
117.000031
 21
70.000015
  0
LINE
  8
0
 10
191.280029
 20
56.999992
 11
200.280029
 21
56.999992
  0
LINE
  8
0
 10
191.280029
 20
54.999992
 11
200.280029
 21
54.999992
  0
LINE
  8
0
 10
191.279984
 20
92.999992
 11
200.279984
 21
92.999992
  0
LINE
  8
0
  6
CENTER
 10
188.279999
 20
74.999992
 11
203.279999
 21
74.999992
  0
LINE
  8
0
 10
191.279999
 20
54.999985
 11
191.279999
 21
94.999985
  0
LINE
  8
0
 10
200.279999
 20
54.999992
 11
200.279999
 21
94.999992
  0
LINE
  8
0
 10
191.279984
 20
94.999992
 11
200.279984
 21
94.999992
  0
LINE
  8
0
 10
360.247101
 20
90.886909
 11
357.747101
 21
89.443527
  0
LINE
  8
0
 10
362.747131
 20
89.443359
 11
360.247131
 21
90.886734
  0
LINE
  8
0
 10
307.247192
 20
50.000031
 11
387.247192
 21
50.000031
  0
LINE
  8
0
 10
307.247192
 20
100.000031
 11
387.247192
 21
100.000031
  0
LINE
  8
0
 10
389.247192
 20
98.000031
 11
389.247192
 21
52.000031
  0
LINE
  8
0
 10
305.247192
 20
98.000031
 11
305.247192
 21
52.000031
  0
LINE
  8
0
 10
305.247223
 20
52.000034
 11
307.247192
 21
50.000053
  0
LINE
  8
0
 10
305.247162
 20
98.000031
 11
307.247162
 21
100.000031
  0
LINE
  8
0
 10
389.247162
 20
97.999985
 11
387.247162
 21
99.999985
  0
LINE
  8
0
 10
389.247131
 20
52.000088
 11
387.247131
 21
50.000092
  0
LINE
  8
0
 10
331.747253
 20
60.556652
 11
334.247223
 21
59.113277
  0
LINE
  8
0
 10
334.247192
 20
59.113258
 11
336.747192
 21
60.556633
  0
LINE
  8
0
 10
336.747192
 20
60.556656
 11
336.747192
 21
63.443405
  0
LINE
  8
0
 10
336.747223
 20
63.443390
 11
334.247223
 21
64.886765
  0
LINE
  8
0
 10
334.247253
 20
64.886703
 11
331.747253
 21
63.443329
  0
LINE
  8
0
 10
331.747223
 20
63.443398
 11
331.747223
 21
60.556648
  0
LINE
  8
0
 10
336.747223
 20
86.556625
 11
334.247253
 21
85.113258
  0
LINE
  8
0
 10
334.247131
 20
85.113274
 11
331.747131
 21
86.556641
  0
LINE
  8
0
 10
331.747223
 20
86.556664
 11
331.747223
 21
89.443413
  0
LINE
  8
0
 10
336.747192
 20
89.443405
 11
336.747192
 21
86.556656
  0
LINE
  8
0
 10
334.247131
 20
90.886787
 11
336.747162
 21
89.443405
  0
LINE
  8
0
 10
331.747101
 20
89.443474
 11
334.247101
 21
90.886841
  0
LINE
  8
0
 10
357.747253
 20
63.443363
 11
360.247253
 21
64.886742
  0
LINE
  8
0
 10
360.247162
 20
64.886757
 11
362.747162
 21
63.443382
  0
LINE
  8
0
 10
362.747192
 20
63.443398
 11
362.747192
 21
60.556648
  0
LINE
  8
0
 10
357.747192
 20
60.556656
 11
357.747192
 21
63.443405
  0
LINE
  8
0
 10
360.247162
 20
59.113255
 11
357.747162
 21
60.556629
  0
LINE
  8
0
 10
362.747070
 20
60.556789
 11
360.247070
 21
59.113419
  0
LINE
  8
0
 10
357.747162
 20
86.556618
 11
360.247131
 21
85.113258
  0
LINE
  8
0
 10
360.247131
 20
85.113411
 11
362.747131
 21
86.556786
  0
LINE
  8
0
 10
362.747192
 20
86.556664
 11
362.747192
 21
89.443413
  0
LINE
  8
0
 10
357.747192
 20
89.443405
 11
357.747192
 21
86.556656
  0
LINE
  8
0
  6
CENTER
 10
347.247192
 20
103.000031
 11
347.247192
 21
47.000031
  0
LINE
  8
0
  6
CENTER
 10
302.247192
 20
75.000031
 11
392.247192
 21
75.000031
  0
LINE
  8
0
  6
CENTER
 10
381.247192
 20
82.500031
 11
381.247192
 21
67.500031
  0
LINE
  8
0
  6
CENTER
 10
313.247192
 20
82.500031
 11
313.247192
 21
67.500031
  0
LINE
  8
0
  6
CENTER
 10
326.747192
 20
88.000031
 11
341.747192
 21
88.000031
  0
LINE
  8
0
  6
CENTER
 10
334.247192
 20
80.500031
 11
334.247192
 21
95.500031
  0
LINE
  8
0
  6
CENTER
 10
326.747192
 20
62.000031
 11
341.747192
 21
62.000031
  0
LINE
  8
0
  6
CENTER
 10
334.247192
 20
69.500031
 11
334.247192
 21
54.500031
  0
LINE
  8
0
  6
CENTER
 10
360.247192
 20
69.500031
 11
360.247192
 21
54.500031
  0
LINE
  8
0
  6
CENTER
 10
367.747192
 20
62.000031
 11
352.747192
 21
62.000031
  0
LINE
  8
0
  6
CENTER
 10
360.247192
 20
80.500031
 11
360.247192
 21
95.500031
  0
LINE
  8
0
  6
CENTER
 10
367.747192
 20
88.000031
 11
352.747192
 21
88.000031
  0
LINE
  8
0
 10
458.297180
 20
98.000000
 11
468.297180
 21
98.000000
  0
LINE
  8
0
 10
458.297180
 20
52.000000
 11
468.297180
 21
52.000000
  0
LINE
  8
0
 10
458.297180
 20
100.000000
 11
468.297180
 21
100.000000
  0
LINE
  8
0
 10
458.297180
 20
50.000000
 11
468.297180
 21
50.000000
  0
LINE
  8
0
 10
458.297241
 20
50.000000
 11
458.297241
 21
100.000000
  0
LINE
  8
0
 10
468.297241
 20
50.000000
 11
468.297241
 21
100.000000
  0
LINE
  8
0
  6
CENTER
 10
455.297180
 20
75.000000
 11
471.297180
 21
75.000000
  0
CIRCLE
  8
0
 10
48.999954
 20
251.000061
 40
2.750000
  0
CIRCLE
  8
0
 10
70.999954
 20
245.000061
 40
2.250000
  0
CIRCLE
  8
0
 10
54.999954
 20
245.000061
 40
4.000000
  0
CIRCLE
  8
0
 10
38.999985
 20
245.000061
 40
2.250000
  0
CIRCLE
  8
0
 10
60.999985
 20
239.000046
 40
3.250000
  0
CIRCLE
  8
0
 10
60.999985
 20
239.000046
 40
2.750000
  0
CIRCLE
  8
0
 10
60.999985
 20
251.000061
 40
3.250000
  0
CIRCLE
  8
0
 10
60.999985
 20
251.000061
 40
2.750000
  0
CIRCLE
  8
0
 10
48.999954
 20
239.000046
 40
3.250000
  0
CIRCLE
  8
0
 10
48.999954
 20
239.000046
 40
2.750000
  0
CIRCLE
  8
0
 10
48.999954
 20
251.000061
 40
3.250000
  0
ARC
  8
0
 10
236.831482
 20
238.000046
 40
4.000006
 50
164.999985
 51
105.000008
  0
CIRCLE
  8
0
 10
236.831482
 20
238.000046
 40
3.500000
  0
ARC
  8
0
 10
236.831482
 20
252.000046
 40
4.000006
 50
254.999985
 51
195.000015
  0
CIRCLE
  8
0
 10
236.831482
 20
252.000046
 40
3.500000
  0
ARC
  8
0
 10
222.831482
 20
238.000046
 40
4.000006
 50
74.999992
 51
15.000010
  0
CIRCLE
  8
0
 10
222.831482
 20
238.000046
 40
3.500000
  0
ARC
  8
0
 10
222.831482
 20
252.000046
 40
4.000006
 50
345.000000
 51
285.000000
  0
CIRCLE
  8
0
 10
222.831482
 20
252.000046
 40
3.500000
  0
CIRCLE
  8
0
 10
209.831482
 20
245.000046
 40
2.750000
  0
CIRCLE
  8
0
 10
249.831482
 20
245.000046
 40
2.750000
  0
CIRCLE
  8
0
 10
229.831482
 20
245.000046
 40
5.000000
  0
CIRCLE
  8
0
 10
414.662964
 20
237.000046
 40
4.250000
  0
ARC
  8
0
 10
414.662964
 20
237.000046
 40
4.750003
 50
166.757034
 51
103.242966
  0
CIRCLE
  8
0
 10
414.662964
 20
253.000046
 40
4.250000
  0
ARC
  8
0
 10
414.662964
 20
253.000046
 40
4.750010
 50
256.756683
 51
193.242966
  0
CIRCLE
  8
0
 10
398.662964
 20
237.000046
 40
4.250000
  0
ARC
  8
0
 10
398.662964
 20
237.000046
 40
4.750010
 50
76.756676
 51
13.242965
  0
ARC
  8
0
 10
398.662964
 20
253.000046
 40
4.750003
 50
346.757050
 51
283.242950
  0
CIRCLE
  8
0
 10
398.662964
 20
253.000046
 40
4.250000
  0
CIRCLE
  8
0
 10
406.662964
 20
245.000046
 40
6.000000
  0
CIRCLE
  8
0
 10
428.662964
 20
245.000046
 40
3.250000
  0
CIRCLE
  8
0
 10
384.662964
 20
245.000046
 40
3.250000
  0
CIRCLE
  8
0
 10
100.000031
 20
85.000015
 40
4.250000
  0
CIRCLE
  8
0
 10
100.000031
 20
85.000015
 40
4.750000
  0
CIRCLE
  8
0
 10
80.000031
 20
85.000015
 40
4.250000
  0
CIRCLE
  8
0
 10
80.000031
 20
85.000015
 40
4.750000
  0
CIRCLE
  8
0
 10
100.000031
 20
65.000015
 40
4.250000
  0
CIRCLE
  8
0
 10
100.000031
 20
65.000015
 40
4.750000
  0
CIRCLE
  8
0
 10
80.000031
 20
65.000015
 40
4.250000
  0
CIRCLE
  8
0
 10
63.000031
 20
75.000015
 40
3.250000
  0
CIRCLE
  8
0
 10
117.000031
 20
75.000015
 40
3.250000
  0
CIRCLE
  8
0
 10
90.000031
 20
75.000015
 40
7.500000
  0
CIRCLE
  8
0
 10
80.000031
 20
65.000015
 40
4.750000
  0
CIRCLE
  8
0
 10
347.247192
 20
75.000031
 40
10.000000
  0
CIRCLE
  8
0
 10
360.247192
 20
88.000031
 40
5.000000
  0
CIRCLE
  8
0
 10
360.247192
 20
88.000031
 40
5.500000
  0
CIRCLE
  8
0
 10
360.247192
 20
62.000031
 40
5.000000
  0
CIRCLE
  8
0
 10
360.247192
 20
62.000031
 40
5.500000
  0
CIRCLE
  8
0
 10
334.247192
 20
88.000031
 40
5.000000
  0
CIRCLE
  8
0
 10
334.247192
 20
88.000031
 40
5.500000
  0
CIRCLE
  8
0
 10
334.247192
 20
62.000031
 40
5.500000
  0
CIRCLE
  8
0
 10
334.247192
 20
62.000031
 40
5.000000
  0
CIRCLE
  8
0
 10
313.247192
 20
75.000031
 40
4.500000
  0
CIRCLE
  8
0
 10
381.247192
 20
75.000031
 40
4.500000
  0
TEXT
  8
0
 10
422.460297
 20
345.487762
 40
6.000000
  1
DATE : JAN ,1991
 50
0.000000
 41
1.052631
 51
0.000000
  7
STANDARD
  0
TEXT
  8
0
 10
10.750001
 20
319.475342
 40
7.000000
  1
BORE : 16
 50
0.000000
 41
1.052632
 51
0.000000
  7
STANDARD
  0
TEXT
  8
0
 10
185.581482
 20
319.475342
 40
7.000000
  1
BORE : 20
 50
0.000000
 41
1.052632
 51
0.000000
  7
STANDARD
  0
TEXT
  8
0
 10
360.412964
 20
319.475342
 40
7.000000
  1
BORE : 25
 50
0.000000
 41
1.052632
 51
0.000000
  7
STANDARD
  0
TEXT
  8
0
 10
272.997223
 20
159.700043
 40
7.000000
  1
BORE : 40
 50
0.000000
 41
1.052632
 51
0.000000
  7
STANDARD
  0
TEXT
  8
0
 10
10.750001
 20
159.700043
 40
7.000000
  1
BORE : 32
 50
0.000000
 41
1.052632
 51
0.000000
  7
STANDARD
  0
TEXT
  8
0
 10
3.071485
 20
344.587769
 40
7.000000
  1
TWIN PORT FLANGE MOUNT,-3A
 50
0.000000
 41
0.584795
 51
0.000000
  7
STANDARD
  0
TEXT
  8
0
 10
427.811859
 20
4.812350
 40
7.000000
  1
KOGANEI,CORP
 50
0.000000
 41
1.052632
 51
0.000000
  7
STANDARD
  0
ENDSEC
  0
EOF
