  0
SECTION
  2
HEADER
  0
ENDSEC
  0
SECTION
  2
TABLES
  0
TABLE
  2
LTYPE
 70
     4
  0
LTYPE
  2
CONTINUOUS
 70
    64
  3
Solid line
 72
    65
 73
     0
 40
0.000000
  0
LTYPE
  2
DASHED
 70
    64
  3
__ __ __ __ __ __ __ __ __ __ __ __ __ __ __
 72
    65
 73
     2
 40
3.500000
 49
2.000000
 49
-1.500000
  0
LTYPE
  2
CENTER
 70
    64
  3
____ _ ____ _ ____ _ ____ _ ____ _ ____ _ ____
 72
    65
 73
     4
 40
17.500000
 49
13.000000
 49
-1.500000
 49
1.500000
 49
-1.500000
  0
LTYPE
  2
PHANTOM
 70
    64
  3
_____ _ _ _____ _ _ _____ _ _ _____ _ _ ____  
 72
    65
 73
     6
 40
15.500000
 49
8.000000
 49
-1.500000
 49
1.500000
 49
-1.500000
 49
1.500000
 49
-1.500000
  0
LTYPE
  2
DASHED1
 70
    64
  3
__ __ __ __ __ __ __ __ __ __ __ __ __ __ __
 72
    65
 73
     2
 40
1.500000
 49
1.000000
 49
-0.500000
  0
LTYPE
  2
DASHED2
 70
    64
  3
__ __ __ __ __ __ __ __ __ __ __ __ __ __ __
 72
    65
 73
     2
 40
3.500000
 49
2.500000
 49
-1.000000
  0
LTYPE
  2
DASHED3
 70
    64
  3
__ __ __ __ __ __ __ __ __ __ __ __ __ __ __
 72
    65
 73
     2
 40
6.000000
 49
4.000000
 49
-2.000000
  0
LTYPE
  2
DASHED4
 70
    64
  3
__ __ __ __ __ __ __ __ __ __ __ __ __ __ __
 72
    65
 73
     2
 40
12.000000
 49
10.000000
 49
-2.000000
  0
LTYPE
  2
DASHED5
 70
    64
  3
__ __ __ __ __ __ __ __ __ __ __ __ __ __ __
 72
    65
 73
     2
 40
17.000000
 49
15.000000
 49
-2.000000
  0
LTYPE
  2
DASHED6
 70
    64
  3
__ __ __ __ __ __ __ __ __ __ __ __ __ __ __
 72
    65
 73
     2
 40
29.000000
 49
27.000000
 49
-2.000000
  0
LTYPE
  2
PHANTOM1
 70
    64
  3
_____ _ _ _____ _ _ _____ _ _ _____ _ _ ____  
 72
    65
 73
     6
 40
31.000000
 49
25.000000
 49
-1.500000
 49
1.000000
 49
-1.000000
 49
1.000000
 49
-1.500000
  0
LTYPE
  2
PHANTOM2
 70
    64
  3
_____ _ _ _____ _ _ _____ _ _ _____ _ _ ____  
 72
    65
 73
     6
 40
36.000000
 49
27.000000
 49
-1.500000
 49
2.500000
 49
-1.000000
 49
2.500000
 49
-1.500000
  0
LTYPE
  2
PHANTOM3
 70
    64
  3
_____ _ _ _____ _ _ _____ _ _ _____ _ _ ____  
 72
    65
 73
     6
 40
78.000000
 49
64.000000
 49
-2.000000
 49
4.000000
 49
-2.000000
 49
4.000000
 49
-2.000000
  0
LTYPE
  2
CENTER1
 70
    64
  3
____ _ ____ _ ____ _ ____ _ ____ _ ____ _ ____
 72
    65
 73
     4
 40
19.000000
 49
14.000000
 49
-1.000000
 49
3.000000
 49
-1.000000
  0
LTYPE
  2
CENTER2
 70
    64
  3
____ _ ____ _ ____ _ ____ _ ____ _ ____ _ ____
 72
    65
 73
     4
 40
28.500000
 49
25.000000
 49
-1.000000
 49
1.500000
 49
-1.000000
  0
LTYPE
  2
CENTER3
 70
    64
  3
____ _ ____ _ ____ _ ____ _ ____ _ ____ _ ____
 72
    65
 73
     4
 40
31.500000
 49
27.000000
 49
-1.000000
 49
2.500000
 49
-1.000000
  0
LTYPE
  2
CENTER4
 70
    64
  3
____ _ ____ _ ____ _ ____ _ ____ _ ____ _ ____
 72
    65
 73
     4
 40
50.000000
 49
45.000000
 49
-1.000000
 49
3.000000
 49
-1.000000
  0
LTYPE
  2
CENTER5
 70
    64
  3
____ _ ____ _ ____ _ ____ _ ____ _ ____ _ ____
 72
    65
 73
     4
 40
100.000000
 49
92.000000
 49
-2.000000
 49
4.000000
 49
-2.000000
  0
LTYPE
  2
SBK1
 70
    64
  3
______ _ _ _ ______ _ _ _ ______ _ _ _ _____  
 72
    65
 73
     8
 40
60.500000
 49
45.000000
 49
-2.000000
 49
2.500000
 49
-2.000000
 49
2.500000
 49
-2.000000
 49
2.500000
 49
-2.000000
  0
LTYPE
  2
SBK2
 70
    64
  3
______ _ _ _ ______ _ _ _ ______ _ _ _ _____  
 72
    65
 73
     8
 40
84.000000
 49
64.000000
 49
-2.000000
 49
4.000000
 49
-2.000000
 49
4.000000
 49
-2.000000
 49
4.000000
 49
-2.000000
  0
LTYPE
  2
STCH
 70
    64
  3
__ __ __ __ __ __ __ __ __ __ __ __ __ __ __
 72
    65
 73
     2
 40
3.000000
 49
1.000000
 49
-2.000000
  0
LTYPE
  2
MTCH
 70
    64
  3
_____ _ _ _____ _ _ _____ _ _ _____ _ _ ____  
 72
    65
 73
     6
 40
80.000000
 49
66.000000
 49
-2.000000
 49
4.000000
 49
-2.000000
 49
4.000000
 49
-2.000000
  0
ENDTAB
  0
TABLE
  2
LAYER
 70
     1
  0
LAYER
  2
0
 70
     0
 62
     7
  6
CONTINUOUS
  0
ENDTAB
  0
TABLE
  2
STYLE
 70
     1
  0
STYLE
  2
STANDARD
 70
     0
 40
0.000000
 41
1.000000
 50
0.000000
 71
     0
 42
0.200000
  3
txt
  4
BIGFONT
  0
ENDTAB
  0
TABLE
  2
VIEW
 70
     0
  0
ENDTAB
  0
ENDSEC
  0
SECTION
  2
BLOCKS
  0
ENDSEC
  0
SECTION
  2
ENTITIES
  0
LINE
  8
0
 10
-194.250000
 20
132.600006
 11
194.800003
 21
132.600006
  0
LINE
  8
0
 10
194.800003
 20
132.600006
 11
194.800003
 21
-133.500000
  0
LINE
  8
0
 10
-194.250000
 20
132.600006
 11
-194.250000
 21
-133.500000
  0
LINE
  8
0
 10
-194.250000
 20
-133.500000
 11
194.800003
 21
-133.500000
  0
LINE
  8
0
 10
210.000000
 20
148.500000
 11
210.000000
 21
-148.500000
  0
LINE
  8
0
 10
-210.000000
 20
148.500000
 11
-210.000000
 21
-148.500000
  0
LINE
  8
0
 10
-210.000000
 20
148.500000
 11
210.000000
 21
148.500000
  0
LINE
  8
0
 10
-210.000000
 20
-148.500000
 11
210.000000
 21
-148.500000
  0
LINE
  8
0
 10
109.800003
 20
-118.500000
 11
109.800003
 21
-133.500000
  0
LINE
  8
0
 10
109.800003
 20
-118.500000
 11
194.800003
 21
-118.500000
  0
LINE
  8
0
 10
109.800003
 20
132.600006
 11
109.800003
 21
117.600006
  0
LINE
  8
0
 10
109.800003
 20
117.600006
 11
194.800003
 21
117.600006
  0
LINE
  8
0
 10
-194.250000
 20
117.600006
 11
-109.250000
 21
117.600006
  0
LINE
  8
0
 10
-109.250000
 20
132.600006
 11
-109.250000
 21
117.600006
  0
TEXT
  8
0
 10
115.907150
 20
122.050003
 40
4.500000
  1
DATE : SEP ,1992
 50
0.000000
 41
1.052631
 51
0.000000
  7
STANDARD
  0
TEXT
  8
0
 10
113.700279
 20
-130.669998
 40
6.300000
  1
KOGANEI CORP.
 50
0.000000
 41
1.052632
 51
0.000000
  7
STANDARD
  0
TEXT
  8
0
 10
-172.392654
 20
122.050003
 40
4.500000
  1
REGULATOR
 50
0.000000
 41
1.052632
 51
0.000000
  7
STANDARD
  0
TEXT
  8
0
 10
-179.000000
 20
105.900009
 40
4.500000
  1
MODEL : R600-03
 50
0.000000
 41
1.052632
 51
0.000000
  7
STANDARD
  0
POINT
  8
0
 10
-101.030411
 20
-32.405045
  0
POINT
  8
0
 10
-25.030403
 20
-32.405045
  0
LINE
  8
0
 10
-104.103653
 20
-32.405045
 11
-17.292336
 21
-32.405045
  0
LINE
  8
0
 10
-100.030403
 20
-48.405045
 11
-82.626320
 21
-48.405045
  0
LINE
  8
0
 10
-100.030403
 20
-16.405045
 11
-26.030403
 21
-16.405045
  0
LINE
  8
0
 10
-101.030411
 20
-17.405045
 11
-101.030411
 21
-47.405045
  0
LINE
  8
0
 10
-25.030403
 20
-17.405045
 11
-25.030403
 21
-47.405045
  0
LINE
  8
0
 10
-101.030396
 20
-17.405064
 11
-100.030396
 21
-16.405062
  0
LINE
  8
0
 10
-101.030403
 20
-47.405045
 11
-100.030403
 21
-48.405045
  0
LINE
  8
0
 10
-26.030411
 20
-48.405045
 11
-25.030388
 21
-47.405022
  0
LINE
  8
0
 10
-26.030426
 20
-16.405083
 11
-25.030434
 21
-17.405079
  0
LINE
  8
0
 10
-46.030418
 20
-2.071701
 11
-46.030418
 21
-63.405045
  0
LINE
  8
0
 10
-96.030411
 20
-15.705048
 11
-87.787987
 21
-15.705048
  0
LINE
  8
0
 10
-96.030411
 20
-15.705048
 11
-96.030411
 21
-16.405045
  0
LINE
  8
0
 10
-87.787994
 20
-15.705048
 11
-87.787994
 21
-16.405045
  0
LINE
  8
0
 10
-100.030411
 20
-16.405045
 11
-100.030411
 21
-48.405045
  0
LINE
  8
0
 10
-26.030418
 20
-16.405045
 11
-26.030418
 21
-48.405045
  0
LINE
  8
0
 10
-101.030411
 20
-17.405045
 11
-25.030403
 21
-17.405045
  0
LINE
  8
0
 10
-101.030411
 20
-47.405045
 11
-82.626320
 21
-47.405045
  0
LINE
  8
0
 10
-83.030403
 20
-10.405045
 11
-43.030403
 21
-10.405045
  0
LINE
  8
0
 10
-43.280418
 20
-10.405045
 11
-43.280418
 21
-16.405045
  0
LINE
  8
0
 10
-82.780418
 20
-10.405045
 11
-82.780418
 21
-16.405045
  0
LINE
  8
0
 10
-81.626320
 20
-43.405045
 11
-44.434486
 21
-43.405045
  0
LINE
  8
0
 10
-98.030411
 20
-61.405045
 11
-90.030418
 21
-61.405045
  0
LINE
  8
0
 10
-91.030411
 20
-48.405045
 11
-91.030411
 21
-60.405045
  0
LINE
  8
0
 10
-35.030403
 20
-48.405045
 11
-35.030403
 21
-60.405060
  0
LINE
  8
0
 10
-91.030434
 20
-60.405056
 11
-90.030441
 21
-61.405056
  0
LINE
  8
0
 10
-36.030403
 20
-61.405060
 11
-35.030396
 21
-60.405060
  0
LINE
  8
0
 10
-82.626335
 20
-44.405045
 11
-82.626335
 21
-48.405045
  0
LINE
  8
0
 10
-43.434486
 20
-44.405045
 11
-43.434486
 21
-48.405045
  0
LINE
  8
0
 10
-82.626343
 20
-44.405060
 11
-81.626328
 21
-43.405045
  0
LINE
  8
0
 10
-44.434513
 20
-43.405083
 11
-43.434513
 21
-44.405083
  0
LINE
  8
0
 10
-82.626320
 20
-44.405060
 11
-43.434486
 21
-44.405060
  0
LINE
  8
0
 10
-91.030411
 20
-60.405045
 11
-35.030403
 21
-60.405045
  0
LINE
  8
0
 10
-43.434486
 20
-47.405045
 11
-25.030403
 21
-47.405045
  0
LINE
  8
0
 10
-43.434486
 20
-48.405045
 11
-26.030403
 21
-48.405045
  0
LINE
  8
0
 10
-98.030411
 20
-64.605042
 11
-91.530411
 21
-64.605042
  0
LINE
  8
0
 10
-98.030411
 20
-61.405045
 11
-98.030411
 21
-88.405045
  0
LINE
  8
0
 10
-28.030418
 20
-61.405045
 11
-28.030418
 21
-88.405045
  0
LINE
  8
0
 10
-90.530411
 20
-74.605057
 11
-35.530403
 21
-74.605057
  0
LINE
  8
0
 10
-91.530411
 20
-64.605042
 11
-91.530411
 21
-73.605057
  0
LINE
  8
0
 10
-91.530464
 20
-73.605087
 11
-90.530464
 21
-74.605087
  0
LINE
  8
0
 10
-73.518501
 20
-64.605042
 11
-73.518501
 21
-73.605057
  0
LINE
  8
0
 10
-89.275314
 20
-73.605057
 11
-85.775307
 21
-73.605057
  0
LINE
  8
0
 10
-84.730003
 20
-67.605057
 11
-80.203636
 21
-67.605057
  0
LINE
  8
0
 10
-91.314682
 20
-66.605042
 11
-89.275314
 21
-66.605042
  0
LINE
  8
0
 10
-80.203636
 20
-66.605042
 11
-80.203636
 21
-73.605057
  0
LINE
  8
0
 10
-80.203629
 20
-73.605057
 11
-79.923538
 21
-74.605057
  0
LINE
  8
0
 10
-84.730003
 20
-67.605057
 11
-84.730003
 21
-74.605042
  0
LINE
  8
0
 10
-85.775322
 20
-66.605042
 11
-85.775322
 21
-73.605057
  0
LINE
  8
0
 10
-85.775352
 20
-73.605064
 11
-84.730042
 21
-74.605064
  0
LINE
  8
0
 10
-80.203636
 20
-73.605057
 11
-73.518501
 21
-73.605057
  0
LINE
  8
0
 10
-85.775330
 20
-66.605072
 11
-84.730019
 21
-67.605072
  0
LINE
  8
0
 10
-89.275314
 20
-66.605042
 11
-89.275314
 21
-73.605057
  0
LINE
  8
0
 10
-88.510117
 20
-74.605042
 11
-89.275330
 21
-73.605049
  0
LINE
  8
0
 10
-85.775307
 20
-66.605042
 11
-80.203636
 21
-66.605042
  0
LINE
  8
0
 10
-90.269379
 20
-67.605057
 11
-90.269379
 21
-74.605042
  0
LINE
  8
0
 10
-91.314682
 20
-66.605042
 11
-91.314682
 21
-73.605057
  0
LINE
  8
0
 10
-90.269379
 20
-67.605057
 11
-89.275314
 21
-67.605057
  0
LINE
  8
0
 10
-91.530411
 20
-73.605057
 11
-91.314682
 21
-73.605057
  0
LINE
  8
0
 10
-91.314697
 20
-73.605072
 11
-90.269386
 21
-74.605072
  0
LINE
  8
0
 10
-91.314705
 20
-66.605064
 11
-90.269394
 21
-67.605064
  0
LINE
  8
0
 10
-34.530418
 20
-64.605042
 11
-34.530418
 21
-73.605057
  0
LINE
  8
0
 10
-34.530434
 20
-73.605042
 11
-35.530434
 21
-74.605042
  0
LINE
  8
0
 10
-52.542336
 20
-64.605042
 11
-52.542336
 21
-73.605057
  0
LINE
  8
0
 10
-36.785500
 20
-73.605057
 11
-40.285500
 21
-73.605057
  0
LINE
  8
0
 10
-41.330818
 20
-67.605057
 11
-45.857185
 21
-67.605057
  0
LINE
  8
0
 10
-34.746132
 20
-66.605042
 11
-36.785500
 21
-66.605042
  0
LINE
  8
0
 10
-45.857185
 20
-66.605042
 11
-45.857185
 21
-73.605057
  0
LINE
  8
0
 10
-45.857151
 20
-73.605057
 11
-46.137238
 21
-74.605057
  0
LINE
  8
0
 10
-41.330818
 20
-67.605057
 11
-41.330818
 21
-74.605042
  0
LINE
  8
0
 10
-40.285515
 20
-66.605042
 11
-40.285515
 21
-73.605057
  0
LINE
  8
0
 10
-40.285519
 20
-73.605057
 11
-41.330841
 21
-74.605064
  0
LINE
  8
0
 10
-45.857185
 20
-73.605057
 11
-52.542336
 21
-73.605057
  0
LINE
  8
0
 10
-40.285522
 20
-66.605042
 11
-41.330822
 21
-67.605034
  0
LINE
  8
0
 10
-36.785500
 20
-66.605042
 11
-36.785500
 21
-73.605057
  0
LINE
  8
0
 10
-37.550724
 20
-74.605049
 11
-36.785507
 21
-73.605057
  0
LINE
  8
0
 10
-40.285500
 20
-66.605042
 11
-45.857185
 21
-66.605042
  0
LINE
  8
0
 10
-35.791435
 20
-67.605057
 11
-35.791435
 21
-74.605042
  0
LINE
  8
0
 10
-34.746132
 20
-66.605042
 11
-34.746132
 21
-73.605057
  0
LINE
  8
0
 10
-35.791435
 20
-67.605057
 11
-36.785500
 21
-67.605057
  0
LINE
  8
0
 10
-34.530418
 20
-73.605057
 11
-34.746132
 21
-73.605057
  0
LINE
  8
0
 10
-34.746147
 20
-73.605049
 11
-35.791451
 21
-74.605042
  0
LINE
  8
0
 10
-34.746147
 20
-66.605042
 11
-35.791451
 21
-67.605026
  0
LINE
  8
0
 10
-81.064720
 20
-122.605042
 11
-44.996101
 21
-122.605042
  0
LINE
  8
0
 10
-82.100243
 20
-120.605034
 11
-82.064102
 21
-121.639938
  0
LINE
  8
0
 10
-83.820808
 20
-90.605042
 11
-42.256569
 21
-90.605042
  0
LINE
  8
0
 10
-67.394554
 20
-120.605042
 11
-58.666267
 21
-120.605042
  0
LINE
  8
0
 10
-83.711510
 20
-94.605042
 11
-81.107765
 21
-94.605042
  0
LINE
  8
0
 10
-83.280426
 20
-119.923691
 11
-82.100258
 21
-120.605064
  0
LINE
  8
0
 10
-84.286781
 20
-91.104736
 11
-83.280396
 21
-119.923683
  0
LINE
  8
0
 10
-84.286789
 20
-91.104752
 11
-83.820808
 21
-90.605042
  0
LINE
  8
0
 10
-42.256596
 20
-90.605042
 11
-41.773464
 21
-91.088165
  0
LINE
  8
0
 10
-67.030403
 20
-119.923676
 11
-59.030418
 21
-119.923676
  0
LINE
  8
0
 10
-67.914558
 20
-94.605042
 11
-67.030411
 21
-119.923676
  0
LINE
  8
0
 10
-59.030392
 20
-119.923668
 11
-58.146244
 21
-94.605042
  0
LINE
  8
0
 10
-68.279617
 20
-95.259850
 11
-67.394539
 21
-120.605057
  0
LINE
  8
0
 10
-58.666264
 20
-120.605072
 11
-57.781189
 21
-95.259857
  0
LINE
  8
0
 10
-82.329262
 20
-95.259857
 11
-81.076424
 21
-95.259857
  0
LINE
  8
0
 10
-74.238770
 20
-119.923676
 11
-73.020309
 21
-120.605042
  0
LINE
  8
0
 10
-73.020309
 20
-120.605034
 11
-72.965004
 21
-95.259834
  0
LINE
  8
0
 10
-74.238747
 20
-119.923683
 11
-74.200523
 21
-94.605057
  0
LINE
  8
0
 10
-72.965004
 20
-95.259857
 11
-68.279640
 21
-95.259857
  0
LINE
  8
0
 10
-74.200539
 20
-94.605042
 11
-67.914558
 21
-94.605042
  0
LINE
  8
0
 10
-79.895622
 20
-119.923676
 11
-74.238762
 21
-119.923676
  0
LINE
  8
0
 10
-79.192146
 20
-120.605042
 11
-73.020302
 21
-120.605042
  0
LINE
  8
0
 10
-79.192169
 20
-120.605072
 11
-79.895638
 21
-119.923706
  0
LINE
  8
0
 10
-79.895630
 20
-119.923691
 11
-81.107765
 21
-94.605049
  0
LINE
  8
0
 10
-83.280403
 20
-119.923676
 11
-82.881416
 21
-119.923676
  0
LINE
  8
0
 10
-82.881409
 20
-119.923645
 11
-81.522400
 21
-120.605011
  0
LINE
  8
0
 10
-81.522408
 20
-120.605042
 11
-82.100258
 21
-120.605042
  0
LINE
  8
0
 10
-81.522423
 20
-120.605034
 11
-82.329277
 21
-95.259842
  0
LINE
  8
0
 10
-82.881393
 20
-119.923668
 11
-83.711487
 21
-94.605011
  0
LINE
  8
0
 10
-82.329262
 20
-95.259857
 11
-83.711502
 21
-94.605057
  0
LINE
  8
0
 10
-74.200546
 20
-94.605057
 11
-72.965012
 21
-95.259857
  0
LINE
  8
0
 10
-68.279663
 20
-95.259819
 11
-67.914597
 21
-94.605034
  0
LINE
  8
0
 10
-58.146301
 20
-94.605057
 11
-57.781227
 21
-95.259857
  0
LINE
  8
0
 10
-43.960575
 20
-120.605049
 11
-43.996716
 21
-121.639961
  0
LINE
  8
0
 10
-42.349312
 20
-94.605042
 11
-44.953041
 21
-94.605042
  0
LINE
  8
0
 10
-42.780411
 20
-119.923660
 11
-43.960571
 21
-120.605026
  0
LINE
  8
0
 10
-41.774029
 20
-91.104729
 11
-42.780411
 21
-119.923668
  0
LINE
  8
0
 10
-43.731560
 20
-95.259857
 11
-44.984398
 21
-95.259857
  0
LINE
  8
0
 10
-51.822060
 20
-119.923668
 11
-53.040516
 21
-120.605034
  0
LINE
  8
0
 10
-53.040516
 20
-120.605049
 11
-53.095825
 21
-95.259834
  0
LINE
  8
0
 10
-51.822044
 20
-119.923668
 11
-51.860271
 21
-94.605049
  0
LINE
  8
0
 10
-53.095818
 20
-95.259857
 11
-57.781181
 21
-95.259857
  0
LINE
  8
0
 10
-51.860283
 20
-94.605042
 11
-58.146263
 21
-94.605042
  0
LINE
  8
0
 10
-46.165184
 20
-119.923676
 11
-51.822060
 21
-119.923676
  0
LINE
  8
0
 10
-46.868675
 20
-120.605042
 11
-53.040504
 21
-120.605042
  0
LINE
  8
0
 10
-46.868649
 20
-120.605042
 11
-46.165173
 21
-119.923676
  0
LINE
  8
0
 10
-46.165184
 20
-119.923683
 11
-44.953045
 21
-94.605042
  0
LINE
  8
0
 10
-42.780403
 20
-119.923676
 11
-43.179405
 21
-119.923676
  0
LINE
  8
0
 10
-43.179398
 20
-119.923653
 11
-44.538403
 21
-120.605019
  0
LINE
  8
0
 10
-44.538399
 20
-120.605042
 11
-43.960579
 21
-120.605042
  0
LINE
  8
0
 10
-44.538403
 20
-120.605026
 11
-43.731548
 21
-95.259834
  0
LINE
  8
0
 10
-43.179367
 20
-119.923698
 11
-42.349281
 21
-94.605057
  0
LINE
  8
0
 10
-43.731556
 20
-95.259842
 11
-42.349331
 21
-94.605057
  0
LINE
  8
0
 10
-51.860294
 20
-94.605057
 11
-53.095821
 21
-95.259842
  0
LINE
  8
0
 10
-82.159935
 20
-74.605049
 11
-81.601196
 21
-90.605049
  0
LINE
  8
0
 10
-44.459621
 20
-90.605042
 11
-43.900887
 21
-74.605042
  0
LINE
  8
0
 10
-78.655540
 20
-74.605049
 11
-78.096809
 21
-90.605042
  0
LINE
  8
0
 10
-68.201981
 20
-74.605042
 11
-67.643250
 21
-90.605042
  0
LINE
  8
0
 10
-58.417572
 20
-90.605072
 11
-57.858837
 21
-74.605072
  0
LINE
  8
0
 10
-47.963978
 20
-90.605042
 11
-47.405243
 21
-74.605042
  0
LINE
  8
0
 10
-84.286781
 20
-91.104752
 11
-41.774025
 21
-91.104752
  0
LINE
  8
0
 10
-91.530411
 20
-64.605042
 11
-34.530418
 21
-64.605042
  0
LINE
  8
0
 10
-90.030418
 20
-61.405045
 11
-36.030403
 21
-61.405045
  0
LINE
  8
0
 10
-36.030403
 20
-61.405045
 11
-28.030403
 21
-61.405045
  0
LINE
  8
0
 10
-34.530418
 20
-64.605042
 11
-28.030403
 21
-64.605042
  0
LINE
  8
0
 10
-95.030403
 20
-91.405045
 11
-84.276314
 21
-91.405045
  0
LINE
  8
0
 10
-41.784492
 20
-91.405045
 11
-31.030403
 21
-91.405045
  0
LINE
  8
0
 10
-98.030403
 20
-88.405029
 11
-95.030396
 21
-91.405029
  0
LINE
  8
0
 10
-31.030403
 20
-91.405014
 11
-28.030411
 21
-88.405029
  0
LINE
  8
0
 10
-94.773277
 20
-81.405045
 11
-80.921257
 21
-81.405045
  0
LINE
  8
0
 10
-85.530418
 20
-75.633652
 11
-85.530418
 21
-87.678879
  0
LINE
  8
0
 10
-88.030411
 20
-77.155045
 11
-83.030403
 21
-77.155045
  0
LINE
  8
0
 10
-88.030411
 20
-85.655060
 11
-83.030403
 21
-85.655060
  0
LINE
  8
0
 10
-31.287544
 20
-81.405045
 11
-45.139565
 21
-81.405045
  0
LINE
  8
0
 10
-38.030403
 20
-77.155045
 11
-43.030403
 21
-77.155045
  0
LINE
  8
0
 10
-40.530418
 20
-75.633652
 11
-40.530418
 21
-87.678879
  0
LINE
  8
0
 10
-38.030403
 20
-85.655060
 11
-43.030403
 21
-85.655060
  0
LINE
  8
0
 10
-96.030411
 20
-22.405045
 11
-96.030411
 21
-42.405045
  0
LINE
  8
0
 10
-86.030418
 20
-22.405045
 11
-86.030418
 21
-42.405045
  0
LINE
  8
0
 10
-96.030411
 20
-22.405045
 11
-86.030403
 21
-22.405045
  0
LINE
  8
0
 10
-96.030411
 20
-42.405045
 11
-86.030403
 21
-42.405045
  0
LINE
  8
0
 10
-95.501427
 20
-22.773392
 11
-86.559380
 21
-22.773392
  0
LINE
  8
0
 10
-95.501427
 20
-42.036697
 11
-86.559380
 21
-42.036697
  0
LINE
  8
0
 10
-95.501427
 20
-22.773392
 11
-95.501427
 21
-42.036697
  0
LINE
  8
0
 10
-86.559395
 20
-22.773392
 11
-86.559395
 21
-42.036697
  0
LINE
  8
0
 10
-95.501427
 20
-42.036701
 11
-96.030396
 21
-42.405045
  0
LINE
  8
0
 10
-86.559410
 20
-42.036728
 11
-86.030434
 21
-42.405079
  0
LINE
  8
0
 10
-86.559364
 20
-22.773418
 11
-86.030388
 21
-22.405066
  0
LINE
  8
0
 10
-95.501442
 20
-22.773430
 11
-96.030426
 21
-22.405077
  0
LINE
  8
0
 10
-39.397163
 20
-42.405045
 11
-30.030403
 21
-42.405045
  0
LINE
  8
0
 10
-39.397163
 20
-22.405045
 11
-30.030403
 21
-22.405045
  0
LINE
  8
0
 10
-30.030403
 20
-22.405045
 11
-30.030403
 21
-42.405045
  0
LINE
  8
0
 10
-30.559410
 20
-22.773453
 11
-30.559410
 21
-42.036636
  0
LINE
  8
0
 10
-38.017403
 20
-22.773453
 11
-30.559410
 21
-22.773453
  0
LINE
  8
0
 10
-38.017403
 20
-42.036636
 11
-30.559410
 21
-42.036636
  0
LINE
  8
0
 10
-38.017445
 20
-22.773464
 11
-39.397186
 21
-22.405066
  0
LINE
  8
0
 10
-30.559402
 20
-22.773437
 11
-30.030418
 21
-22.405048
  0
LINE
  8
0
 10
-30.559402
 20
-42.036644
 11
-30.030403
 21
-42.405045
  0
LINE
  8
0
 10
-38.017418
 20
-42.036686
 11
-39.397167
 21
-42.405087
  0
LINE
  8
0
 10
-98.030411
 20
-48.405045
 11
-98.030411
 21
-49.105042
  0
LINE
  8
0
 10
-98.030411
 20
-49.105042
 11
-91.161720
 21
-49.105042
  0
LINE
  8
0
 10
-91.161720
 20
-48.405045
 11
-91.161720
 21
-49.105042
  0
LINE
  8
0
 10
-82.030403
 20
-0.405045
 11
-44.030403
 21
-0.405045
  0
LINE
  8
0
 10
-83.030418
 20
-1.405045
 11
-83.030418
 21
-10.405045
  0
LINE
  8
0
 10
-83.030396
 20
-1.405048
 11
-82.030396
 21
-0.405046
  0
LINE
  8
0
 10
-83.030403
 20
-1.405045
 11
-82.626320
 21
-1.405045
  0
LINE
  8
0
 10
-81.539467
 20
-7.405045
 11
-79.715248
 21
-7.405045
  0
LINE
  8
0
 10
-82.626320
 20
-7.982407
 11
-79.715248
 21
-7.982407
  0
LINE
  8
0
 10
-67.030434
 20
-1.405045
 11
-67.030434
 21
-7.982407
  0
LINE
  8
0
 10
-67.321648
 20
-0.405045
 11
-67.321648
 21
-7.405045
  0
LINE
  8
0
 10
-73.083946
 20
-0.405045
 11
-73.083946
 21
-7.405045
  0
LINE
  8
0
 10
-74.058403
 20
-1.405045
 11
-74.058403
 21
-7.982407
  0
LINE
  8
0
 10
-79.715248
 20
-1.405045
 11
-79.715248
 21
-7.982407
  0
LINE
  8
0
 10
-81.539467
 20
-0.405045
 11
-81.539467
 21
-7.405045
  0
LINE
  8
0
 10
-82.626320
 20
-1.405045
 11
-82.626320
 21
-7.982407
  0
LINE
  8
0
 10
-73.083931
 20
-7.405045
 11
-67.321648
 21
-7.405045
  0
LINE
  8
0
 10
-74.058388
 20
-7.982407
 11
-67.030418
 21
-7.982407
  0
LINE
  8
0
 10
-67.030418
 20
-1.405045
 11
-59.030388
 21
-1.405045
  0
LINE
  8
0
 10
-79.715248
 20
-1.405045
 11
-74.058388
 21
-1.405045
  0
LINE
  8
0
 10
-67.321609
 20
-7.405024
 11
-67.030380
 21
-7.982384
  0
LINE
  8
0
 10
-74.058372
 20
-7.982368
 11
-73.083939
 21
-7.405027
  0
LINE
  8
0
 10
-74.058365
 20
-1.405066
 11
-73.083908
 21
-0.405062
  0
LINE
  8
0
 10
-67.321655
 20
-0.405060
 11
-67.030434
 21
-1.405066
  0
LINE
  8
0
 10
-81.539459
 20
-0.405045
 11
-82.626312
 21
-1.405037
  0
LINE
  8
0
 10
-81.539459
 20
-7.405022
 11
-82.626312
 21
-7.982368
  0
LINE
  8
0
 10
-79.715248
 20
-1.405052
 11
-79.152649
 21
-0.405048
  0
LINE
  8
0
 10
-43.030418
 20
-1.405045
 11
-43.030418
 21
-10.405045
  0
LINE
  8
0
 10
-43.030430
 20
-1.405083
 11
-44.030430
 21
-0.405081
  0
LINE
  8
0
 10
-43.030403
 20
-1.405045
 11
-43.434486
 21
-1.405045
  0
LINE
  8
0
 10
-44.521355
 20
-7.405045
 11
-46.345589
 21
-7.405045
  0
LINE
  8
0
 10
-43.434486
 20
-7.982407
 11
-46.345589
 21
-7.982407
  0
LINE
  8
0
 10
-59.030403
 20
-1.405045
 11
-59.030403
 21
-7.982407
  0
LINE
  8
0
 10
-58.739174
 20
-0.405045
 11
-58.739174
 21
-7.405045
  0
LINE
  8
0
 10
-52.976875
 20
-0.405045
 11
-52.976875
 21
-7.405045
  0
LINE
  8
0
 10
-52.002434
 20
-1.405045
 11
-52.002434
 21
-7.982407
  0
LINE
  8
0
 10
-46.345589
 20
-1.405045
 11
-46.345589
 21
-7.982407
  0
LINE
  8
0
 10
-44.521355
 20
-0.405045
 11
-44.521355
 21
-7.405045
  0
LINE
  8
0
 10
-43.434517
 20
-1.405045
 11
-43.434517
 21
-7.982407
  0
LINE
  8
0
 10
-52.976875
 20
-7.405045
 11
-58.739174
 21
-7.405045
  0
LINE
  8
0
 10
-52.002434
 20
-7.982407
 11
-59.030388
 21
-7.982407
  0
LINE
  8
0
 10
-46.345570
 20
-1.405025
 11
-46.908161
 21
-0.405037
  0
LINE
  8
0
 10
-58.739166
 20
-7.405046
 11
-59.030384
 21
-7.982393
  0
LINE
  8
0
 10
-52.002415
 20
-7.982372
 11
-52.976868
 21
-7.405020
  0
LINE
  8
0
 10
-52.002476
 20
-1.405109
 11
-52.976933
 21
-0.405104
  0
LINE
  8
0
 10
-58.739178
 20
-0.405033
 11
-59.030396
 21
-1.405025
  0
LINE
  8
0
 10
-44.521393
 20
-0.405077
 11
-43.434536
 21
-1.405075
  0
LINE
  8
0
 10
-44.521336
 20
-7.405029
 11
-43.434475
 21
-7.982380
  0
LINE
  8
0
 10
-52.002434
 20
-1.405045
 11
-46.345589
 21
-1.405045
  0
LINE
  8
0
 10
-85.530418
 20
-61.405045
 11
-85.530418
 21
-64.605042
  0
LINE
  8
0
 10
-84.530418
 20
-61.405045
 11
-84.530418
 21
-64.605042
  0
LINE
  8
0
 10
-40.530418
 20
-61.405045
 11
-40.530418
 21
-64.605042
  0
LINE
  8
0
 10
-41.530403
 20
-61.405045
 11
-41.530403
 21
-64.605042
  0
LINE
  8
0
 10
-73.518486
 20
-73.605026
 11
-70.378876
 21
-74.605026
  0
LINE
  8
0
 10
-52.542320
 20
-73.605042
 11
-55.681938
 21
-74.605049
  0
LINE
  8
0
 10
-73.518478
 20
-64.605026
 11
-52.542305
 21
-73.605026
  0
LINE
  8
0
 10
-52.542316
 20
-64.605026
 11
-73.518509
 21
-73.605026
  0
LINE
  8
0
 10
-63.030418
 20
3.078751
 11
-63.030418
 21
-127.093826
  0
CIRCLE
  8
0
 10
-46.030418
 20
-32.405045
 40
10.000000
  0
CIRCLE
  8
0
 10
-46.030418
 20
-32.405045
 40
9.000000
  0
ARC
  8
0
 10
-81.064720
 20
-121.605042
 40
0.999999
 50
181.999847
 51
270.000000
  0
ARC
  8
0
 10
-44.996101
 20
-121.605042
 40
1.000000
 50
270.000000
 51
358.000153
  0
ARC
  8
0
 10
-88.030411
 20
-81.405045
 40
4.250000
 50
90.000000
 51
270.000000
  0
ARC
  8
0
 10
-83.030418
 20
-81.405045
 40
4.250000
 50
270.000000
 51
287.101624
  0
ARC
  8
0
 10
-83.030418
 20
-81.405045
 40
4.250003
 50
76.898369
 51
90.000000
  0
ARC
  8
0
 10
-38.030418
 20
-81.405045
 40
4.250000
 50
269.999939
 51
90.000000
  0
ARC
  8
0
 10
-43.030418
 20
-81.405045
 40
4.250000
 50
90.000000
 51
103.101578
  0
ARC
  8
0
 10
-43.030418
 20
-81.405045
 40
4.250003
 50
252.898392
 51
270.000000
  0
ARC
  8
0
 10
-46.030418
 20
-32.405045
 40
12.000001
 50
303.557312
 51
56.442684
  0
ARC
  8
0
 10
-46.030418
 20
-32.405045
 40
12.528999
 50
309.758728
 51
50.241280
  0
CIRCLE
  8
0
 10
-46.030418
 20
-32.405045
 40
6.578500
  0
CIRCLE
  8
0
 10
-46.030418
 20
-32.405045
 40
5.722500
  0
CIRCLE
  8
0
  6
PHANTOM
 10
-46.030418
 20
-32.405045
 40
26.250000
  0
POINT
  8
0
  6
PHANTOM
 10
86.969589
 20
-32.405045
  0
POINT
  8
0
  6
PHANTOM
 10
114.469589
 20
-32.405045
  0
LINE
  8
0
 10
17.136276
 20
-32.405045
 11
121.136276
 21
-32.405045
  0
LINE
  8
0
 10
86.969589
 20
6.928284
 11
86.969589
 21
-130.679306
  0
LINE
  8
0
 10
67.969620
 20
-48.405060
 11
105.969620
 21
-48.405060
  0
LINE
  8
0
 10
67.969620
 20
-16.405060
 11
105.969620
 21
-16.405060
  0
LINE
  8
0
 10
66.969589
 20
-17.405060
 11
66.969589
 21
-47.405045
  0
LINE
  8
0
 10
106.969589
 20
-17.405060
 11
106.969589
 21
-47.405045
  0
LINE
  8
0
 10
66.969612
 20
-17.405052
 11
67.969612
 21
-16.405052
  0
LINE
  8
0
 10
66.969604
 20
-47.405041
 11
67.969604
 21
-48.405041
  0
LINE
  8
0
 10
105.969604
 20
-48.405060
 11
106.969604
 21
-47.405056
  0
LINE
  8
0
 10
105.969551
 20
-16.405113
 11
106.969551
 21
-17.405115
  0
LINE
  8
0
 10
67.969589
 20
-16.405029
 11
67.969589
 21
-48.405060
  0
LINE
  8
0
 10
105.969620
 20
-16.405029
 11
105.969620
 21
-48.405060
  0
LINE
  8
0
 10
66.969589
 20
-17.405060
 11
106.969589
 21
-17.405060
  0
LINE
  8
0
 10
66.969589
 20
-47.405045
 11
106.969589
 21
-47.405045
  0
LINE
  8
0
 10
66.969589
 20
-10.405060
 11
106.969589
 21
-10.405060
  0
LINE
  8
0
 10
106.719589
 20
-10.405029
 11
106.719589
 21
-17.155060
  0
LINE
  8
0
 10
67.219589
 20
-10.405029
 11
67.219589
 21
-17.155029
  0
LINE
  8
0
 10
59.469589
 20
-61.405045
 11
59.969589
 21
-61.405045
  0
LINE
  8
0
 10
114.969589
 20
-44.405060
 11
114.969589
 21
-60.405060
  0
LINE
  8
0
 10
58.969593
 20
-60.405060
 11
59.969589
 21
-61.405056
  0
LINE
  8
0
 10
113.969597
 20
-61.405022
 11
114.969604
 21
-60.405022
  0
LINE
  8
0
 10
58.969620
 20
-60.405045
 11
114.969589
 21
-60.405045
  0
LINE
  8
0
 10
68.935287
 20
-122.605042
 11
105.003922
 21
-122.605042
  0
LINE
  8
0
 10
67.899750
 20
-120.605049
 11
67.935890
 21
-121.639954
  0
LINE
  8
0
 10
66.179184
 20
-90.605042
 11
107.743454
 21
-90.605042
  0
LINE
  8
0
 10
82.605453
 20
-120.605042
 11
91.333755
 21
-120.605042
  0
LINE
  8
0
 10
66.288498
 20
-94.605042
 11
68.892258
 21
-94.605042
  0
LINE
  8
0
 10
66.719620
 20
-119.923706
 11
67.899765
 21
-120.605064
  0
LINE
  8
0
 10
65.713196
 20
-91.104736
 11
66.719574
 21
-119.923668
  0
LINE
  8
0
 10
65.713234
 20
-91.104759
 11
66.179199
 21
-90.605080
  0
LINE
  8
0
 10
107.743454
 20
-90.605042
 11
108.226585
 21
-91.088181
  0
LINE
  8
0
 10
82.969620
 20
-119.923691
 11
90.969589
 21
-119.923691
  0
LINE
  8
0
 10
82.085472
 20
-94.605026
 11
82.969627
 21
-119.923676
  0
LINE
  8
0
 10
90.969627
 20
-119.923660
 11
91.853775
 21
-94.605042
  0
LINE
  8
0
 10
81.720390
 20
-95.259842
 11
82.605461
 21
-120.605057
  0
LINE
  8
0
 10
91.333817
 20
-120.605057
 11
92.218895
 21
-95.259834
  0
LINE
  8
0
 10
67.670761
 20
-95.259857
 11
68.923599
 21
-95.259857
  0
LINE
  8
0
 10
75.761261
 20
-119.923706
 11
76.979713
 21
-120.605072
  0
LINE
  8
0
 10
76.979706
 20
-120.605042
 11
77.035019
 21
-95.259842
  0
LINE
  8
0
 10
75.761253
 20
-119.923683
 11
75.799477
 21
-94.605049
  0
LINE
  8
0
 10
77.035019
 20
-95.259857
 11
81.720383
 21
-95.259857
  0
LINE
  8
0
 10
75.799484
 20
-94.605042
 11
82.085464
 21
-94.605042
  0
LINE
  8
0
 10
70.104385
 20
-119.923691
 11
75.761276
 21
-119.923691
  0
LINE
  8
0
 10
70.807846
 20
-120.605042
 11
76.979721
 21
-120.605042
  0
LINE
  8
0
 10
70.807892
 20
-120.605049
 11
70.104416
 21
-119.923683
  0
LINE
  8
0
 10
70.104370
 20
-119.923676
 11
68.892227
 21
-94.605042
  0
LINE
  8
0
 10
66.719620
 20
-119.923691
 11
67.118576
 21
-119.923691
  0
LINE
  8
0
 10
67.118591
 20
-119.923676
 11
68.477600
 21
-120.605042
  0
LINE
  8
0
 10
68.477585
 20
-120.605042
 11
67.899765
 21
-120.605042
  0
LINE
  8
0
 10
68.477577
 20
-120.605049
 11
67.670723
 21
-95.259857
  0
LINE
  8
0
 10
67.118622
 20
-119.923691
 11
66.288544
 21
-94.605042
  0
LINE
  8
0
 10
67.670753
 20
-95.259888
 11
66.288513
 21
-94.605087
  0
LINE
  8
0
 10
75.799477
 20
-94.605095
 11
77.035011
 21
-95.259888
  0
LINE
  8
0
 10
81.720337
 20
-95.259819
 11
82.085411
 21
-94.605019
  0
LINE
  8
0
 10
91.853714
 20
-94.605026
 11
92.218788
 21
-95.259827
  0
LINE
  8
0
 10
106.039459
 20
-120.605049
 11
106.003326
 21
-121.639954
  0
LINE
  8
0
 10
107.650681
 20
-94.605042
 11
105.046951
 21
-94.605042
  0
LINE
  8
0
 10
107.219574
 20
-119.923683
 11
106.039413
 21
-120.605057
  0
LINE
  8
0
 10
108.226021
 20
-91.104752
 11
107.219643
 21
-119.923668
  0
LINE
  8
0
 10
106.268478
 20
-95.259857
 11
105.015610
 21
-95.259857
  0
LINE
  8
0
 10
98.177948
 20
-119.923653
 11
96.959496
 21
-120.605019
  0
LINE
  8
0
 10
96.959503
 20
-120.605042
 11
96.904190
 21
-95.259842
  0
LINE
  8
0
 10
98.177956
 20
-119.923668
 11
98.139732
 21
-94.605034
  0
LINE
  8
0
 10
96.904190
 20
-95.259857
 11
92.218826
 21
-95.259857
  0
LINE
  8
0
 10
98.139725
 20
-94.605042
 11
91.853745
 21
-94.605042
  0
LINE
  8
0
 10
103.834824
 20
-119.923691
 11
98.177963
 21
-119.923691
  0
LINE
  8
0
 10
103.131332
 20
-120.605042
 11
96.959488
 21
-120.605042
  0
LINE
  8
0
 10
103.131363
 20
-120.605034
 11
103.834831
 21
-119.923683
  0
LINE
  8
0
 10
103.834854
 20
-119.923683
 11
105.046989
 21
-94.605042
  0
LINE
  8
0
 10
107.219620
 20
-119.923691
 11
106.820602
 21
-119.923691
  0
LINE
  8
0
 10
106.820587
 20
-119.923683
 11
105.461594
 21
-120.605042
  0
LINE
  8
0
 10
105.461624
 20
-120.605042
 11
106.039413
 21
-120.605042
  0
LINE
  8
0
 10
105.461563
 20
-120.605011
 11
106.268417
 21
-95.259827
  0
LINE
  8
0
 10
106.820633
 20
-119.923691
 11
107.650726
 21
-94.605034
  0
LINE
  8
0
 10
106.268410
 20
-95.259857
 11
107.650665
 21
-94.605057
  0
LINE
  8
0
 10
98.139755
 20
-94.605042
 11
96.904198
 21
-95.259842
  0
LINE
  8
0
 10
67.840073
 20
-74.605049
 11
68.398804
 21
-90.605042
  0
LINE
  8
0
 10
105.540390
 20
-90.605042
 11
106.099121
 21
-74.605049
  0
LINE
  8
0
 10
71.344460
 20
-74.605042
 11
71.903198
 21
-90.605042
  0
LINE
  8
0
 10
81.798050
 20
-74.605057
 11
82.356781
 21
-90.605057
  0
LINE
  8
0
 10
91.582497
 20
-90.605057
 11
92.141235
 21
-74.605057
  0
LINE
  8
0
 10
102.035995
 20
-90.605057
 11
102.594727
 21
-74.605057
  0
LINE
  8
0
 10
65.713242
 20
-91.104752
 11
108.225967
 21
-91.104752
  0
LINE
  8
0
 10
59.969589
 20
-61.405045
 11
113.969620
 21
-61.405045
  0
LINE
  8
0
 10
113.969620
 20
-61.405045
 11
127.269577
 21
-61.405045
  0
LINE
  8
0
 10
115.469589
 20
-64.605042
 11
127.269577
 21
-64.605042
  0
LINE
  8
0
 10
128.769608
 20
-91.405045
 11
131.969589
 21
-91.405045
  0
LINE
  8
0
 10
134.098679
 20
-81.405045
 11
126.264847
 21
-81.405045
  0
LINE
  8
0
 10
60.469620
 20
-22.405045
 11
66.969589
 21
-22.405045
  0
LINE
  8
0
 10
60.469620
 20
-42.405045
 11
66.969589
 21
-42.405045
  0
LINE
  8
0
 10
67.969620
 20
-0.405060
 11
105.969620
 21
-0.405060
  0
LINE
  8
0
 10
66.969589
 20
-1.405029
 11
66.969589
 21
-10.405029
  0
LINE
  8
0
 10
66.969604
 20
-1.405073
 11
67.969612
 21
-0.405073
  0
LINE
  8
0
 10
66.969589
 20
-1.405060
 11
67.373703
 21
-1.405060
  0
LINE
  8
0
 10
68.460556
 20
-7.405060
 11
70.284775
 21
-7.405060
  0
LINE
  8
0
 10
67.373703
 20
-7.982422
 11
70.284775
 21
-7.982422
  0
LINE
  8
0
 10
82.969589
 20
-1.405029
 11
82.969589
 21
-7.982391
  0
LINE
  8
0
 10
82.678360
 20
-0.405029
 11
82.678360
 21
-7.405060
  0
LINE
  8
0
 10
76.916092
 20
-0.405029
 11
76.916092
 21
-7.405060
  0
LINE
  8
0
 10
75.941605
 20
-1.405029
 11
75.941605
 21
-7.982391
  0
LINE
  8
0
 10
70.284775
 20
-1.405029
 11
70.284775
 21
-7.982391
  0
LINE
  8
0
 10
68.460556
 20
-0.405029
 11
68.460556
 21
-7.405060
  0
LINE
  8
0
 10
67.373703
 20
-1.405029
 11
67.373703
 21
-7.982391
  0
LINE
  8
0
 10
76.916092
 20
-7.405060
 11
82.678391
 21
-7.405060
  0
LINE
  8
0
 10
75.941635
 20
-7.982422
 11
82.969589
 21
-7.982422
  0
LINE
  8
0
 10
82.969589
 20
-1.405060
 11
90.969620
 21
-1.405060
  0
LINE
  8
0
 10
70.284775
 20
-1.405060
 11
75.941635
 21
-1.405060
  0
LINE
  8
0
 10
82.678436
 20
-7.405024
 11
82.969666
 21
-7.982384
  0
LINE
  8
0
 10
75.941589
 20
-7.982403
 11
76.916054
 21
-7.405046
  0
LINE
  8
0
 10
75.941628
 20
-1.405073
 11
76.916084
 21
-0.405069
  0
LINE
  8
0
 10
82.678391
 20
-0.405037
 11
82.969612
 21
-1.405027
  0
LINE
  8
0
 10
68.460548
 20
-0.405087
 11
67.373695
 21
-1.405079
  0
LINE
  8
0
 10
68.460526
 20
-7.405025
 11
67.373672
 21
-7.982372
  0
LINE
  8
0
 10
70.284752
 20
-1.405046
 11
70.847366
 21
-0.405018
  0
LINE
  8
0
 10
106.969589
 20
-1.405029
 11
106.969589
 21
-10.405029
  0
LINE
  8
0
 10
106.969574
 20
-1.405077
 11
105.969574
 21
-0.405075
  0
LINE
  8
0
 10
106.969589
 20
-1.405060
 11
106.565506
 21
-1.405060
  0
LINE
  8
0
 10
105.478683
 20
-7.405060
 11
103.654434
 21
-7.405060
  0
LINE
  8
0
 10
106.565506
 20
-7.982422
 11
103.654434
 21
-7.982422
  0
LINE
  8
0
 10
90.969620
 20
-1.405029
 11
90.969620
 21
-7.982391
  0
LINE
  8
0
 10
91.260818
 20
-0.405029
 11
91.260818
 21
-7.405060
  0
LINE
  8
0
 10
97.023117
 20
-0.405029
 11
97.023117
 21
-7.405060
  0
LINE
  8
0
 10
97.997574
 20
-1.405029
 11
97.997574
 21
-7.982391
  0
LINE
  8
0
 10
103.654434
 20
-1.405029
 11
103.654434
 21
-7.982391
  0
LINE
  8
0
 10
105.478653
 20
-0.405029
 11
105.478653
 21
-7.405060
  0
LINE
  8
0
 10
106.565506
 20
-1.405029
 11
106.565506
 21
-7.982391
  0
LINE
  8
0
 10
97.023117
 20
-7.405060
 11
91.260849
 21
-7.405060
  0
LINE
  8
0
 10
97.997604
 20
-7.982422
 11
90.969620
 21
-7.982422
  0
LINE
  8
0
 10
103.654465
 20
-1.405045
 11
103.091866
 21
-0.405048
  0
LINE
  8
0
 10
91.260864
 20
-7.405037
 11
90.969650
 21
-7.982384
  0
LINE
  8
0
 10
97.997574
 20
-7.982376
 11
97.023117
 21
-7.405027
  0
LINE
  8
0
 10
97.997505
 20
-1.405100
 11
97.023048
 21
-0.405094
  0
LINE
  8
0
 10
91.260834
 20
-0.405046
 11
90.969604
 21
-1.405067
  0
LINE
  8
0
 10
105.478592
 20
-0.405090
 11
106.565453
 21
-1.405092
  0
LINE
  8
0
 10
105.478699
 20
-7.404964
 11
106.565567
 21
-7.982319
  0
LINE
  8
0
 10
97.997604
 20
-1.405060
 11
103.654434
 21
-1.405060
  0
LINE
  8
0
 10
90.969589
 20
-15.705048
 11
90.969589
 21
-16.405029
  0
LINE
  8
0
 10
82.969589
 20
-15.705048
 11
82.969589
 21
-16.405029
  0
LINE
  8
0
 10
82.969620
 20
-15.705048
 11
90.969589
 21
-15.705048
  0
LINE
  8
0
 10
82.969620
 20
-49.105057
 11
90.969589
 21
-49.105057
  0
LINE
  8
0
 10
82.969589
 20
-49.105042
 11
82.969589
 21
-48.405060
  0
LINE
  8
0
 10
90.969589
 20
-49.105042
 11
90.969589
 21
-48.405060
  0
LINE
  8
0
 10
59.469589
 20
-23.405060
 11
59.469589
 21
-41.405045
  0
LINE
  8
0
 10
60.469589
 20
-22.405045
 11
60.469589
 21
-42.405045
  0
LINE
  8
0
 10
59.469582
 20
-23.405045
 11
60.469604
 21
-22.405022
  0
LINE
  8
0
 10
59.469612
 20
-41.405052
 11
60.469612
 21
-42.405052
  0
LINE
  8
0
 10
114.469566
 20
-41.405064
 11
113.469566
 21
-42.405067
  0
LINE
  8
0
 10
113.469620
 20
-22.405045
 11
106.969589
 21
-22.405045
  0
LINE
  8
0
 10
113.469620
 20
-42.405045
 11
106.969589
 21
-42.405045
  0
LINE
  8
0
 10
114.469589
 20
-23.405060
 11
114.469589
 21
-41.405045
  0
LINE
  8
0
 10
113.469620
 20
-22.405045
 11
113.469620
 21
-42.405045
  0
LINE
  8
0
 10
114.469604
 20
-23.405050
 11
113.469604
 21
-22.405048
  0
LINE
  8
0
 10
109.714195
 20
-73.605072
 11
108.668976
 21
-74.605049
  0
LINE
  8
0
 10
113.214287
 20
-73.604813
 11
112.449074
 21
-74.604813
  0
LINE
  8
0
 10
58.469589
 20
-64.605042
 11
115.469589
 21
-64.605042
  0
LINE
  8
0
 10
58.469589
 20
-64.605042
 11
58.469589
 21
-73.605057
  0
LINE
  8
0
 10
115.469589
 20
-64.605042
 11
115.469589
 21
-73.605057
  0
LINE
  8
0
 10
59.469589
 20
-74.605042
 11
114.469589
 21
-74.605042
  0
LINE
  8
0
 10
58.469543
 20
-73.605087
 11
59.469551
 21
-74.605087
  0
LINE
  8
0
 10
115.469597
 20
-73.605049
 11
114.469574
 21
-74.605072
  0
LINE
  8
0
 10
58.469589
 20
-73.605057
 11
58.685349
 21
-73.605057
  0
LINE
  8
0
 10
83.469528
 20
-73.605057
 11
90.469650
 21
-73.605057
  0
LINE
  8
0
 10
98.080490
 20
-73.605057
 11
103.862839
 21
-73.605057
  0
LINE
  8
0
 10
90.469650
 20
-66.605057
 11
98.080490
 21
-66.605057
  0
LINE
  8
0
 10
90.749771
 20
-67.605057
 11
97.315262
 21
-67.605057
  0
LINE
  8
0
 10
75.858719
 20
-66.605057
 11
83.469528
 21
-66.605057
  0
LINE
  8
0
 10
76.623886
 20
-67.605057
 11
83.189438
 21
-67.605057
  0
LINE
  8
0
 10
103.862839
 20
-66.605057
 11
109.714554
 21
-66.605057
  0
LINE
  8
0
 10
104.142960
 20
-67.605057
 11
108.669205
 21
-67.605057
  0
LINE
  8
0
 10
83.469528
 20
-66.605042
 11
83.469528
 21
-73.605057
  0
LINE
  8
0
 10
90.469650
 20
-66.605042
 11
90.469650
 21
-73.605057
  0
LINE
  8
0
 10
90.749741
 20
-67.605057
 11
90.749741
 21
-74.605042
  0
LINE
  8
0
 10
83.189438
 20
-67.605057
 11
83.189438
 21
-74.605042
  0
LINE
  8
0
 10
75.858688
 20
-66.605042
 11
75.858688
 21
-73.605057
  0
LINE
  8
0
 10
76.623886
 20
-67.605057
 11
76.623886
 21
-74.605042
  0
LINE
  8
0
 10
98.080490
 20
-66.605042
 11
98.080490
 21
-73.605057
  0
LINE
  8
0
 10
97.315262
 20
-67.605057
 11
97.315262
 21
-74.605042
  0
LINE
  8
0
 10
104.142960
 20
-67.605057
 11
104.142960
 21
-74.605042
  0
LINE
  8
0
 10
103.862839
 20
-66.605042
 11
103.862839
 21
-73.605057
  0
LINE
  8
0
 10
69.796280
 20
-67.605057
 11
69.796280
 21
-74.605042
  0
LINE
  8
0
 10
70.076370
 20
-66.605042
 11
70.076370
 21
-73.605057
  0
LINE
  8
0
 10
70.076401
 20
-73.605057
 11
75.858719
 21
-73.605057
  0
LINE
  8
0
 10
109.714554
 20
-73.605057
 11
113.214523
 21
-73.605057
  0
LINE
  8
0
 10
108.669205
 20
-67.605057
 11
108.669205
 21
-74.605042
  0
LINE
  8
0
 10
109.714554
 20
-66.605042
 11
109.714554
 21
-73.605057
  0
LINE
  8
0
 10
64.224838
 20
-66.605042
 11
64.224838
 21
-73.605057
  0
LINE
  8
0
 10
65.270126
 20
-67.605057
 11
65.270126
 21
-74.605042
  0
LINE
  8
0
 10
64.224838
 20
-66.605057
 11
70.076401
 21
-66.605057
  0
LINE
  8
0
 10
65.270126
 20
-67.605057
 11
69.796310
 21
-67.605057
  0
LINE
  8
0
 10
113.214523
 20
-66.605057
 11
115.254105
 21
-66.605057
  0
LINE
  8
0
 10
113.214523
 20
-67.605057
 11
114.208755
 21
-67.605057
  0
LINE
  8
0
 10
113.214523
 20
-66.605042
 11
113.214523
 21
-73.605057
  0
LINE
  8
0
 10
60.724594
 20
-66.605042
 11
60.724594
 21
-73.605057
  0
LINE
  8
0
 10
58.685349
 20
-66.605057
 11
60.724594
 21
-66.605057
  0
LINE
  8
0
 10
59.730637
 20
-67.605057
 11
60.724594
 21
-67.605057
  0
LINE
  8
0
 10
60.724594
 20
-73.605057
 11
64.224838
 21
-73.605057
  0
LINE
  8
0
 10
115.254105
 20
-73.605057
 11
115.469589
 21
-73.605057
  0
LINE
  8
0
 10
60.724697
 20
-73.604996
 11
61.489925
 21
-74.604980
  0
LINE
  8
0
 10
113.214249
 20
-73.604866
 11
112.449051
 21
-74.604843
  0
LINE
  8
0
 10
114.208755
 20
-67.605057
 11
114.208755
 21
-74.605042
  0
LINE
  8
0
 10
115.254105
 20
-66.605042
 11
115.254105
 21
-73.605057
  0
LINE
  8
0
 10
59.730637
 20
-67.605057
 11
59.730637
 21
-74.605042
  0
LINE
  8
0
 10
58.685349
 20
-66.605042
 11
58.685349
 21
-73.605057
  0
LINE
  8
0
 10
58.685524
 20
-73.604889
 11
59.730801
 21
-74.604874
  0
LINE
  8
0
 10
58.685364
 20
-66.605042
 11
59.730652
 21
-67.605057
  0
LINE
  8
0
 10
114.208817
 20
-74.605026
 11
115.254120
 21
-73.605087
  0
LINE
  8
0
 10
114.208679
 20
-67.604996
 11
115.254044
 21
-66.604980
  0
LINE
  8
0
 10
64.224922
 20
-73.604965
 11
65.270187
 21
-74.604950
  0
LINE
  8
0
 10
65.270203
 20
-67.605011
 11
64.224930
 21
-66.604988
  0
LINE
  8
0
 10
69.796577
 20
-67.605125
 11
70.076668
 21
-66.605125
  0
LINE
  8
0
 10
69.796478
 20
-74.605103
 11
70.076561
 21
-73.605133
  0
LINE
  8
0
 10
75.858337
 20
-73.605324
 11
76.623535
 21
-74.605301
  0
LINE
  8
0
 10
75.858932
 20
-66.604813
 11
76.624115
 21
-67.604797
  0
LINE
  8
0
 10
83.189713
 20
-67.605095
 11
83.469803
 21
-66.605095
  0
LINE
  8
0
 10
83.469742
 20
-73.605133
 11
83.189659
 21
-74.605103
  0
LINE
  8
0
 10
90.749649
 20
-67.605072
 11
90.469620
 21
-66.605057
  0
LINE
  8
0
 10
90.469910
 20
-73.604988
 11
90.749992
 21
-74.604965
  0
LINE
  8
0
 10
98.080429
 20
-73.604881
 11
97.315231
 21
-74.604858
  0
LINE
  8
0
 10
98.080620
 20
-66.605164
 11
97.315361
 21
-67.605164
  0
LINE
  8
0
 10
104.142693
 20
-67.605103
 11
103.862534
 21
-66.605095
  0
LINE
  8
0
 10
104.142693
 20
-74.605103
 11
103.862541
 21
-73.605125
  0
LINE
  8
0
 10
108.669159
 20
-67.605179
 11
109.714386
 21
-66.605156
  0
LINE
  8
0
 10
58.969620
 20
-44.405060
 11
66.969589
 21
-44.405060
  0
LINE
  8
0
 10
58.969635
 20
-44.405056
 11
59.969635
 21
-43.405056
  0
LINE
  8
0
 10
59.969589
 20
-43.405060
 11
66.969589
 21
-43.405060
  0
LINE
  8
0
 10
113.969543
 20
-43.405071
 11
114.969543
 21
-44.405071
  0
LINE
  8
0
 10
106.969589
 20
-43.405060
 11
113.969620
 21
-43.405060
  0
LINE
  8
0
 10
106.969589
 20
-44.405060
 11
114.969589
 21
-44.405060
  0
LINE
  8
0
 10
58.969620
 20
-44.405060
 11
58.969620
 21
-60.405060
  0
LINE
  8
0
 10
131.969589
 20
-66.105057
 11
131.969589
 21
-91.405045
  0
LINE
  8
0
 10
128.769608
 20
-66.105057
 11
128.769608
 21
-91.405045
  0
LINE
  8
0
 10
128.769608
 20
-88.405060
 11
131.969589
 21
-88.405060
  0
LINE
  8
0
 10
59.469589
 20
-61.405045
 11
59.469589
 21
-64.605042
  0
LINE
  8
0
 10
64.469589
 20
-61.405045
 11
64.469589
 21
-64.605042
  0
LINE
  8
0
 10
109.469589
 20
-61.405045
 11
109.469589
 21
-64.605042
  0
LINE
  8
0
 10
65.469589
 20
-61.405045
 11
65.469589
 21
-64.605042
  0
LINE
  8
0
 10
108.469620
 20
-61.405045
 11
108.469620
 21
-64.605042
  0
LINE
  8
0
 10
128.769592
 20
-70.730545
 11
122.644104
 21
-64.605057
  0
LINE
  8
0
 10
116.139603
 20
-27.013046
 11
116.139603
 21
-37.797028
  0
LINE
  8
0
 10
115.439560
 20
-25.800598
 11
115.439560
 21
-39.009491
  0
LINE
  8
0
 10
114.469559
 20
-26.682686
 11
115.926254
 21
-26.643719
  0
LINE
  8
0
 10
114.469528
 20
-25.826681
 11
115.439514
 21
-25.800734
  0
LINE
  8
0
 10
115.439377
 20
-25.800743
 11
116.139366
 21
-27.013212
  0
LINE
  8
0
 10
115.439796
 20
-39.009640
 11
116.139801
 21
-37.797180
  0
LINE
  8
0
 10
114.469582
 20
-38.127434
 11
115.926300
 21
-38.166405
  0
LINE
  8
0
 10
114.469559
 20
-38.983517
 11
115.439583
 21
-39.009464
  0
LINE
  8
0
 10
22.969604
 20
-6.155060
 11
22.969604
 21
-58.655045
  0
LINE
  8
0
 10
22.969604
 20
-6.155060
 11
25.969604
 21
-6.155060
  0
LINE
  8
0
 10
22.969604
 20
-58.655045
 11
25.969604
 21
-58.655045
  0
LINE
  8
0
 10
25.969604
 20
-6.155060
 11
25.969604
 21
-58.655045
  0
LINE
  8
0
 10
50.469589
 20
-11.405029
 11
50.469589
 21
-53.405060
  0
LINE
  8
0
 10
25.969604
 20
-6.405060
 11
45.469620
 21
-6.405060
  0
LINE
  8
0
 10
25.969604
 20
-58.405060
 11
45.469620
 21
-58.405060
  0
LINE
  8
0
 10
56.969589
 20
-25.405045
 11
56.969589
 21
-39.405060
  0
LINE
  8
0
 10
50.469620
 20
-25.405045
 11
56.969589
 21
-25.405045
  0
LINE
  8
0
 10
50.469620
 20
-39.405060
 11
56.969589
 21
-39.405060
  0
LINE
  8
0
 10
59.469666
 20
-26.588840
 11
58.969662
 21
-26.575466
  0
LINE
  8
0
 10
59.469681
 20
-25.732910
 11
56.969658
 21
-25.666039
  0
LINE
  8
0
 10
59.469627
 20
-38.221191
 11
58.969685
 21
-38.234566
  0
LINE
  8
0
 10
59.469650
 20
-39.077183
 11
56.969627
 21
-39.144058
  0
LINE
  8
0
 10
58.969620
 20
-25.719559
 11
58.969620
 21
-39.090530
  0
LINE
  8
0
 10
58.969658
 20
-26.575571
 11
57.415031
 21
-25.677996
  0
LINE
  8
0
 10
58.969585
 20
-38.234531
 11
57.414955
 21
-39.132107
  0
LINE
  8
0
 10
50.469429
 20
-25.405134
 11
56.969421
 21
-39.405128
  0
LINE
  8
0
 10
50.469498
 20
-39.405079
 11
56.969513
 21
-25.405037
  0
LINE
  8
0
 10
22.969604
 20
-35.405045
 11
25.969604
 21
-35.405045
  0
LINE
  8
0
 10
22.969604
 20
-38.405060
 11
25.969604
 21
-38.405060
  0
LINE
  8
0
 10
22.969604
 20
-41.405045
 11
25.969604
 21
-41.405045
  0
LINE
  8
0
 10
22.969604
 20
-44.405060
 11
25.969604
 21
-44.405060
  0
LINE
  8
0
 10
22.969604
 20
-47.405045
 11
25.969604
 21
-47.405045
  0
LINE
  8
0
 10
22.969604
 20
-50.405045
 11
25.969604
 21
-50.405045
  0
LINE
  8
0
 10
22.969604
 20
-53.405060
 11
25.969604
 21
-53.405060
  0
LINE
  8
0
 10
22.969604
 20
-56.405045
 11
25.969604
 21
-56.405045
  0
LINE
  8
0
 10
22.969604
 20
-29.405060
 11
25.969604
 21
-29.405060
  0
LINE
  8
0
 10
22.969604
 20
-26.405045
 11
25.969604
 21
-26.405045
  0
LINE
  8
0
 10
22.969604
 20
-23.405060
 11
25.969604
 21
-23.405060
  0
LINE
  8
0
 10
22.969604
 20
-20.405045
 11
25.969604
 21
-20.405045
  0
LINE
  8
0
 10
22.969604
 20
-17.405060
 11
25.969604
 21
-17.405060
  0
LINE
  8
0
 10
22.969604
 20
-14.405060
 11
25.969604
 21
-14.405060
  0
LINE
  8
0
 10
22.969604
 20
-11.405060
 11
25.969604
 21
-11.405060
  0
LINE
  8
0
 10
22.969604
 20
-8.405060
 11
25.969604
 21
-8.405060
  0
LINE
  8
0
 10
22.969604
 20
-32.405045
 11
25.969604
 21
-32.405045
  0
ARC
  8
0
 10
68.935287
 20
-121.605057
 40
0.999999
 50
181.999847
 51
270.000000
  0
ARC
  8
0
 10
105.003922
 20
-121.605057
 40
1.000000
 50
270.000000
 51
358.000153
  0
CIRCLE
  8
0
 10
86.969589
 20
-32.405045
 40
13.500000
  0
ARC
  8
0
 10
127.269577
 20
-66.105057
 40
1.500000
 50
0.000000
 51
90.000000
  0
ARC
  8
0
 10
45.469589
 20
-53.405060
 40
5.000000
 50
270.000000
 51
0.000000
  0
ARC
  8
0
 10
45.469589
 20
-11.405060
 40
5.000000
 50
0.000000
 51
90.000000
  0
ARC
  8
0
 10
127.269577
 20
-66.105057
 40
4.699997
 50
0.000000
 51
90.000000
  0
CIRCLE
  8
0
 10
86.969589
 20
-32.405045
 40
7.475000
  0
CIRCLE
  8
0
 10
86.969589
 20
-32.405045
 40
8.331000
  0
POINT
  8
0
 10
-101.030411
 20
72.594955
  0
POINT
  8
0
 10
-25.030403
 20
72.594955
  0
LINE
  8
0
 10
-63.030418
 20
122.057861
 11
-63.030418
 21
41.078262
  0
LINE
  8
0
 10
-106.011841
 20
72.594955
 11
-19.594902
 21
72.594955
  0
LINE
  8
0
 10
-61.780418
 20
89.504639
 11
-61.780418
 21
87.492523
  0
LINE
  8
0
 10
-64.280418
 20
89.504639
 11
-64.280418
 21
87.492523
  0
LINE
  8
0
 10
-100.030403
 20
52.594955
 11
-26.030403
 21
52.594955
  0
LINE
  8
0
 10
-100.030418
 20
92.594955
 11
-26.030403
 21
92.594955
  0
LINE
  8
0
 10
-25.030403
 20
91.594955
 11
-25.030403
 21
53.594955
  0
LINE
  8
0
 10
-101.030411
 20
91.594955
 11
-101.030411
 21
53.594955
  0
LINE
  8
0
 10
-101.030388
 20
91.594902
 11
-100.030388
 21
92.594910
  0
LINE
  8
0
 10
-101.030403
 20
53.594963
 11
-100.030403
 21
52.594963
  0
LINE
  8
0
 10
-26.030403
 20
52.594940
 11
-25.030418
 21
53.594917
  0
LINE
  8
0
 10
-26.030472
 20
92.594925
 11
-25.030472
 21
91.594925
  0
LINE
  8
0
 10
-46.030418
 20
105.427406
 11
-46.030418
 21
86.506149
  0
LINE
  8
0
 10
-36.030418
 20
99.094955
 11
-36.030418
 21
93.594955
  0
LINE
  8
0
 10
-56.030418
 20
99.094955
 11
-56.030418
 21
93.594955
  0
LINE
  8
0
 10
-55.030403
 20
45.094955
 11
-37.030418
 21
45.094955
  0
LINE
  8
0
 10
-55.030403
 20
100.094955
 11
-37.030418
 21
100.094955
  0
LINE
  8
0
 10
-56.030384
 20
99.094978
 11
-55.030403
 21
100.094955
  0
LINE
  8
0
 10
-37.030518
 20
100.094879
 11
-36.030525
 21
99.094872
  0
LINE
  8
0
 10
-56.030495
 20
46.094894
 11
-55.030491
 21
45.094894
  0
LINE
  8
0
 10
-37.030403
 20
45.094933
 11
-36.030426
 21
46.094910
  0
LINE
  8
0
 10
-56.030418
 20
51.594955
 11
-56.030418
 21
46.094955
  0
LINE
  8
0
 10
-36.030418
 20
51.594955
 11
-36.030418
 21
46.094955
  0
LINE
  8
0
 10
-101.030411
 20
91.594986
 11
-69.275414
 21
91.594986
  0
LINE
  8
0
 10
-25.030403
 20
91.594986
 11
-56.785408
 21
91.594986
  0
LINE
  8
0
 10
-101.030411
 20
53.594955
 11
-69.275414
 21
53.594955
  0
LINE
  8
0
 10
-25.030403
 20
53.594955
 11
-56.785408
 21
53.594955
  0
LINE
  8
0
 10
-56.030403
 20
46.094955
 11
-36.030403
 21
46.094955
  0
LINE
  8
0
 10
-56.030403
 20
99.094986
 11
-36.030403
 21
99.094986
  0
LINE
  8
0
 10
-100.030418
 20
92.594986
 11
-100.030418
 21
52.594986
  0
LINE
  8
0
 10
-26.030418
 20
52.594986
 11
-26.030418
 21
92.594986
  0
LINE
  8
0
 10
-96.030411
 20
75.594955
 11
-96.030411
 21
69.594925
  0
LINE
  8
0
 10
-96.030426
 20
75.594925
 11
-87.788002
 21
72.594933
  0
LINE
  8
0
 10
-96.030388
 20
69.594902
 11
-87.787956
 21
72.594902
  0
LINE
  8
0
 10
-46.030418
 20
56.106125
 11
-46.030418
 21
5.366959
  0
LINE
  8
0
 10
-72.280373
 20
8.594986
 11
-19.780388
 21
8.594986
  0
LINE
  8
0
 10
-72.280388
 20
8.594986
 11
-72.280388
 21
11.594986
  0
LINE
  8
0
 10
-19.780418
 20
8.594986
 11
-19.780418
 21
11.594986
  0
LINE
  8
0
 10
-72.280373
 20
11.594986
 11
-19.780388
 21
11.594986
  0
LINE
  8
0
 10
-67.030418
 20
36.094955
 11
-25.030388
 21
36.094955
  0
LINE
  8
0
 10
-72.030403
 20
11.594986
 11
-72.030403
 21
31.094986
  0
LINE
  8
0
 10
-20.030388
 20
11.594986
 11
-20.030388
 21
31.094986
  0
LINE
  8
0
 10
-53.030418
 20
42.594955
 11
-39.030403
 21
42.594955
  0
LINE
  8
0
 10
-53.030418
 20
36.094986
 11
-53.030418
 21
42.594986
  0
LINE
  8
0
 10
-39.030403
 20
36.094986
 11
-39.030403
 21
42.594986
  0
LINE
  8
0
 10
-51.846622
 20
45.095062
 11
-51.859997
 21
44.595058
  0
LINE
  8
0
 10
-52.702576
 20
45.095070
 11
-52.769447
 21
42.595047
  0
LINE
  8
0
 10
-39.358273
 20
45.094971
 11
-39.291397
 21
42.594948
  0
LINE
  8
0
 10
-52.715889
 20
44.595016
 11
-39.344917
 21
44.595016
  0
LINE
  8
0
 10
-51.859879
 20
44.595016
 11
-52.757454
 21
43.040390
  0
LINE
  8
0
 10
-40.200977
 20
44.594975
 11
-39.303402
 21
43.040344
  0
LINE
  8
0
 10
-53.030289
 20
36.094761
 11
-39.030308
 21
42.594761
  0
LINE
  8
0
 10
-39.030365
 20
36.094921
 11
-53.030407
 21
42.594933
  0
LINE
  8
0
 10
-43.030418
 20
8.594986
 11
-43.030418
 21
11.594986
  0
LINE
  8
0
 10
-40.030388
 20
8.594986
 11
-40.030388
 21
11.594986
  0
LINE
  8
0
 10
-37.030418
 20
8.594986
 11
-37.030418
 21
11.594986
  0
LINE
  8
0
 10
-34.030403
 20
8.594986
 11
-34.030403
 21
11.594986
  0
LINE
  8
0
 10
-31.030418
 20
8.594986
 11
-31.030418
 21
11.594986
  0
LINE
  8
0
 10
-28.030418
 20
8.594986
 11
-28.030418
 21
11.594986
  0
LINE
  8
0
 10
-25.030388
 20
8.594986
 11
-25.030388
 21
11.594986
  0
LINE
  8
0
 10
-22.030418
 20
8.594986
 11
-22.030418
 21
11.594986
  0
LINE
  8
0
 10
-49.030403
 20
8.594986
 11
-49.030403
 21
11.594986
  0
LINE
  8
0
 10
-52.030418
 20
8.594986
 11
-52.030418
 21
11.594986
  0
LINE
  8
0
 10
-55.030388
 20
8.594986
 11
-55.030388
 21
11.594986
  0
LINE
  8
0
 10
-58.030418
 20
8.594986
 11
-58.030418
 21
11.594986
  0
LINE
  8
0
 10
-61.030388
 20
8.594986
 11
-61.030388
 21
11.594986
  0
LINE
  8
0
 10
-64.030403
 20
8.594986
 11
-64.030403
 21
11.594986
  0
LINE
  8
0
 10
-67.030403
 20
8.594986
 11
-67.030403
 21
11.594986
  0
LINE
  8
0
 10
-70.030403
 20
8.594986
 11
-70.030403
 21
11.594986
  0
LINE
  8
0
 10
-40.214256
 20
45.094971
 11
-40.200882
 21
44.595058
  0
LINE
  8
0
 10
-79.940109
 20
71.344955
 11
-77.927986
 21
71.344955
  0
LINE
  8
0
 10
-79.940109
 20
73.844955
 11
-77.927986
 21
73.844955
  0
LINE
  8
0
 10
-61.780422
 20
55.685268
 11
-61.780422
 21
57.697388
  0
LINE
  8
0
 10
-64.280426
 20
55.685268
 11
-64.280426
 21
57.697388
  0
LINE
  8
0
 10
-46.120731
 20
73.844955
 11
-48.132851
 21
73.844955
  0
LINE
  8
0
 10
-46.120731
 20
71.344955
 11
-48.132851
 21
71.344955
  0
LINE
  8
0
 10
-51.426819
 20
101.764954
 11
-40.634022
 21
101.764954
  0
LINE
  8
0
 10
-52.639214
 20
101.064980
 11
-51.426815
 21
101.764954
  0
LINE
  8
0
 10
-40.634018
 20
101.764954
 11
-39.421616
 21
101.064972
  0
LINE
  8
0
 10
-52.639217
 20
101.064980
 11
-52.608917
 21
100.094955
  0
LINE
  8
0
 10
-51.798424
 20
101.550415
 11
-51.752922
 21
100.094955
  0
LINE
  8
0
 10
-40.262417
 20
101.550407
 11
-40.307919
 21
100.094955
  0
LINE
  8
0
 10
-39.421619
 20
101.064972
 11
-39.451920
 21
100.094955
  0
LINE
  8
0
 10
-39.421619
 20
101.064972
 11
-52.639217
 21
101.064980
  0
LINE
  8
0
 10
-98.030418
 20
117.594955
 11
-28.030418
 21
117.594955
  0
LINE
  8
0
 10
-98.030418
 20
117.594955
 11
-98.030418
 21
114.394958
  0
LINE
  8
0
 10
-28.030418
 20
117.594955
 11
-28.030418
 21
114.394958
  0
LINE
  8
0
 10
-98.030418
 20
114.394951
 11
-94.324677
 21
92.594955
  0
LINE
  8
0
 10
-28.030426
 20
114.394951
 11
-31.736168
 21
92.594955
  0
LINE
  8
0
 10
-40.530418
 20
122.057861
 11
-40.530418
 21
109.848663
  0
LINE
  8
0
 10
-85.530418
 20
122.057861
 11
-85.530418
 21
110.161720
  0
LINE
  8
0
 10
-46.030418
 20
11.594986
 11
-46.030418
 21
8.594986
  0
CIRCLE
  8
0
 10
-63.030418
 20
72.594955
 40
20.000000
  0
CIRCLE
  8
0
 10
-63.030418
 20
72.594955
 40
19.000000
  0
CIRCLE
  8
0
 10
-63.030418
 20
72.594955
 40
17.500000
  0
CIRCLE
  8
0
 10
-63.030418
 20
72.594955
 40
14.500000
  0
CIRCLE
  8
0
 10
-63.030418
 20
72.594955
 40
4.250000
  0
ARC
  8
0
 10
-57.030403
 20
51.594955
 40
1.000000
 50
0.000000
 51
90.000000
  0
ARC
  8
0
 10
-35.030403
 20
51.594955
 40
1.000000
 50
90.000000
 51
180.000000
  0
ARC
  8
0
 10
-35.030403
 20
93.594955
 40
1.000000
 50
180.000000
 51
270.000000
  0
ARC
  8
0
 10
-57.030403
 20
93.594955
 40
1.000000
 50
270.000000
 51
0.000000
  0
ARC
  8
0
 10
-63.030418
 20
72.594955
 40
27.999998
 50
74.501701
 51
134.415329
  0
ARC
  8
0
 10
-63.030418
 20
72.594955
 40
27.000004
 50
74.973885
 51
132.205475
  0
ARC
  8
0
 10
-63.030418
 20
72.594955
 40
28.000000
 50
225.584671
 51
285.498322
  0
ARC
  8
0
 10
-63.030418
 20
72.594955
 40
27.000000
 50
227.794525
 51
285.026093
  0
ARC
  8
0
 10
-25.030388
 20
31.094986
 40
5.000000
 50
0.000087
 51
90.000084
  0
ARC
  8
0
 10
-67.030388
 20
31.094955
 40
5.000000
 50
90.000084
 51
180.000046
  0
ARC
  8
0
 10
-64.780411
 20
89.504639
 40
0.500000
 50
0.000000
 51
95.909111
  0
ARC
  8
0
 10
-64.780411
 20
87.492523
 40
0.499997
 50
276.699921
 51
0.000000
  0
ARC
  8
0
 10
-61.280415
 20
87.492523
 40
0.500000
 50
180.000000
 51
263.300079
  0
ARC
  8
0
 10
-61.280415
 20
89.504639
 40
0.500001
 50
84.091324
 51
180.000000
  0
ARC
  8
0
 10
-79.940109
 20
70.844955
 40
0.500000
 50
90.000000
 51
185.908325
  0
ARC
  8
0
 10
-77.927986
 20
70.844955
 40
0.500004
 50
6.699826
 51
90.000000
  0
ARC
  8
0
 10
-79.940109
 20
74.344955
 40
0.499993
 50
174.091675
 51
270.000000
  0
ARC
  8
0
 10
-77.927986
 20
74.344955
 40
0.500000
 50
270.000000
 51
353.300171
  0
ARC
  8
0
 10
-61.280418
 20
55.685268
 40
0.500000
 50
180.000000
 51
275.908722
  0
ARC
  8
0
 10
-61.280418
 20
57.697388
 40
0.500000
 50
96.699875
 51
180.000000
  0
ARC
  8
0
 10
-64.780418
 20
55.685268
 40
0.499998
 50
264.090851
 51
0.000000
  0
ARC
  8
0
 10
-64.780418
 20
57.697388
 40
0.500000
 50
0.000000
 51
83.300125
  0
ARC
  8
0
 10
-46.120731
 20
74.344955
 40
0.500000
 50
270.000000
 51
5.908240
  0
ARC
  8
0
 10
-48.132851
 20
74.344955
 40
0.500000
 50
186.699875
 51
270.000000
  0
ARC
  8
0
 10
-46.120731
 20
70.844955
 40
0.500001
 50
354.091766
 51
90.000000
  0
ARC
  8
0
 10
-48.132851
 20
70.844955
 40
0.500000
 50
90.000000
 51
173.300125
  0
ENDSEC
  0
EOF
