  0
SECTION
  2
HEADER
  9
$ACADVER
  1
AC1012
  9
$DWGCODEPAGE
  3
dos932
  9
$INSBASE
 10
0.0
 20
0.0
 30
0.0
  9
$EXTMIN
 10
-281.25
 20
-195.0
 30
0.0
  9
$EXTMAX
 10
285.6319057062413
 20
195.5
 30
0.0
  9
$LIMMIN
 10
-281.25
 20
-195.0
  9
$LIMMAX
 10
285.6319057062413
 20
195.5
  9
$ORTHOMODE
 70
               0
  9
$REGENMODE
 70
               1
  9
$FILLMODE
 70
               1
  9
$QTEXTMODE
 70
               0
  9
$MIRRTEXT
 70
               1
  9
$DRAGMODE
 70
               2
  9
$LTSCALE
 40
1.0
  9
$OSMODE
 70
               0
  9
$ATTMODE
 70
               1
  9
$TEXTSIZE
 40
3.2000000476837158
  9
$TRACEWID
 40
0.05
  9
$TEXTSTYLE
  7
MX_NOTE_STANDARD
  9
$CLAYER
  8
0
  9
$CELTYPE
  6
CONTINUOUS
  9
$CECOLOR
 62
             256
  9
$CELTSCALE
 40
1.0
  9
$DELOBJ
 70
               1
  9
$DISPSILH
 70
               0
  9
$DIMSCALE
 40
1.0
  9
$DIMASZ
 40
2.5
  9
$DIMEXO
 40
1.5
  9
$DIMDLI
 40
3.75
  9
$DIMRND
 40
0.0
  9
$DIMDLE
 40
0.0
  9
$DIMEXE
 40
1.5
  9
$DIMTP
 40
0.0
  9
$DIMTM
 40
0.0
  9
$DIMTXT
 40
3.2000000476837158
  9
$DIMCEN
 40
2.5
  9
$DIMTSZ
 40
0.0
  9
$DIMTOL
 70
               0
  9
$DIMLIM
 70
               0
  9
$DIMTIH
 70
               0
  9
$DIMTOH
 70
               0
  9
$DIMSE1
 70
               0
  9
$DIMSE2
 70
               0
  9
$DIMTAD
 70
               1
  9
$DIMZIN
 70
               8
  9
$DIMBLK
  1

  9
$DIMASO
 70
               1
  9
$DIMSHO
 70
               1
  9
$DIMPOST
  1

  9
$DIMAPOST
  1

  9
$DIMALT
 70
               0
  9
$DIMALTD
 70
               4
  9
$DIMALTF
 40
0.03937007874016
  9
$DIMLFAC
 40
1.0
  9
$DIMTOFL
 70
               1
  9
$DIMTVP
 40
0.0
  9
$DIMTIX
 70
               0
  9
$DIMSOXD
 70
               0
  9
$DIMSAH
 70
               0
  9
$DIMBLK1
  1

  9
$DIMBLK2
  1

  9
$DIMSTYLE
  2
MXDIMSTYLE
  9
$DIMCLRD
 70
               0
  9
$DIMCLRE
 70
               0
  9
$DIMCLRT
 70
               0
  9
$DIMTFAC
 40
1.0
  9
$DIMGAP
 40
1.0
  9
$DIMJUST
 70
               0
  9
$DIMSD1
 70
               0
  9
$DIMSD2
 70
               0
  9
$DIMTOLJ
 70
               1
  9
$DIMTZIN
 70
               0
  9
$DIMALTZ
 70
               0
  9
$DIMALTTZ
 70
               0
  9
$DIMFIT
 70
               3
  9
$DIMUPT
 70
               1
  9
$DIMUNIT
 70
               2
  9
$DIMDEC
 70
               4
  9
$DIMTDEC
 70
               4
  9
$DIMALTU
 70
               2
  9
$DIMALTTD
 70
               4
  9
$DIMTXSTY
  7
MX_NOTE_STANDARD
  9
$DIMAUNIT
 70
               0
  9
$LUNITS
 70
               2
  9
$LUPREC
 70
               4
  9
$SKETCHINC
 40
0.1
  9
$FILLETRAD
 40
0.0
  9
$AUNITS
 70
               0
  9
$AUPREC
 70
               0
  9
$MENU
  1
acad
  9
$ELEVATION
 40
0.0
  9
$PELEVATION
 40
0.0
  9
$THICKNESS
 40
0.0
  9
$LIMCHECK
 70
               0
  9
$BLIPMODE
 70
               1
  9
$CHAMFERA
 40
0.0
  9
$CHAMFERB
 40
0.0
  9
$CHAMFERC
 40
0.0
  9
$CHAMFERD
 40
0.0
  9
$SKPOLY
 70
               0
  9
$TDCREATE
 40
2453378.356608796
  9
$TDUPDATE
 40
2453378.356608796
  9
$TDINDWG
 40
0.0000000000
  9
$TDUSRTIMER
 40
0.0000000000
  9
$USRTIMER
 70
               1
  9
$ANGBASE
 50
0.0
  9
$ANGDIR
 70
               0
  9
$PDMODE
 70
               0
  9
$PDSIZE
 40
0.0
  9
$PLINEWID
 40
0.0
  9
$COORDS
 70
               1
  9
$SPLFRAME
 70
               0
  9
$SPLINETYPE
 70
               6
  9
$SPLINESEGS
 70
               8
  9
$ATTDIA
 70
               0
  9
$ATTREQ
 70
               1
  9
$HANDLING
 70
               1
  9
$HANDSEED
  5
544
  9
$SURFTAB1
 70
               6
  9
$SURFTAB2
 70
               6
  9
$SURFTYPE
 70
               6
  9
$SURFU
 70
               6
  9
$SURFV
 70
               6
  9
$UCSNAME
  2

  9
$UCSORG
 10
0.0
 20
0.0
 30
0.0
  9
$UCSXDIR
 10
1.0
 20
0.0
 30
0.0
  9
$UCSYDIR
 10
0.0
 20
1.0
 30
0.0
  9
$PUCSNAME
  2

  9
$PUCSORG
 10
0.0
 20
0.0
 30
0.0
  9
$PUCSXDIR
 10
1.0
 20
0.0
 30
0.0
  9
$PUCSYDIR
 10
0.0
 20
1.0
 30
0.0
  9
$USERI1
 70
               0
  9
$USERI2
 70
               0
  9
$USERI3
 70
               0
  9
$USERI4
 70
               0
  9
$USERI5
 70
               0
  9
$USERR1
 40
0.0
  9
$USERR2
 40
0.0
  9
$USERR3
 40
0.0
  9
$USERR4
 40
0.0
  9
$USERR5
 40
0.0
  9
$WORLDVIEW
 70
               1
  9
$SHADEDGE
 70
               3
  9
$SHADEDIF
 70
              70
  9
$TILEMODE
 70
               1
  9
$MAXACTVP
 70
              16
  9
$PINSBASE
 10
0.0
 20
0.0
 30
0.0
  9
$PLIMCHECK
 70
               0
  9
$PEXTMIN
 10
1.0000000000000000E+20
 20
1.0000000000000000E+20
 30
1.0000000000000000E+20
  9
$PEXTMAX
 10
-1.0000000000000000E+20
 20
-1.0000000000000000E+20
 30
-1.0000000000000000E+20
  9
$PLIMMIN
 10
0.0
 20
0.0
  9
$PLIMMAX
 10
12.0
 20
9.0
  9
$UNITMODE
 70
               0
  9
$VISRETAIN
 70
               0
  9
$PLINEGEN
 70
               1
  9
$PSLTSCALE
 70
               0
  9
$TREEDEPTH
 70
            3020
  9
$PICKSTYLE
 70
               1
  9
$CMLSTYLE
  2
Standard
  9
$CMLJUST
 70
               0
  9
$CMLSCALE
 40
1.0
  9
$SAVEIMAGES
 70
               0
  0
ENDSEC
  0
SECTION
  2
CLASSES
  0
CLASS
  1
LWPOLYLINE
  2
AcDbPolyline
  3
"AutoCAD"
 90
        0
280
               0
281
               1
  0
CLASS
  1
IMAGE
  2
AcDbRasterImage
  3
ISM
 90
      127
280
               0
281
               1
  0
CLASS
  1
OLE2FRAME
  2
AcDbOle2Frame
  3
""
 90
        0
280
               0
281
               1
  0
CLASS
  1
HATCH
  2
AcDbHatch
  3
"ACAD_SEDONA"
 90
        0
280
               0
281
               1
  0
CLASS
  1
DICTIONARYVAR
  2
AcDbDictionaryVar
  3
"AutoCAD"
 90
        0
280
               0
281
               0
  0
CLASS
  1
RASTERVARIABLES
  2
AcDbRasterVariables
  3
ISM
 90
        0
280
               0
281
               0
  0
CLASS
  1
IMAGEDEF
  2
AcDbRasterImageDef
  3
ISM
 90
        0
280
               0
281
               0
  0
CLASS
  1
IMAGEDEF_REACTOR
  2
AcDbRasterImageDefReactor
  3
ISM
 90
        1
280
               0
281
               0
  0
CLASS
  1
IDBUFFER
  2
AcDbIdBuffer
  3
"Acad"
 90
        0
280
               0
281
               0
  0
CLASS
  1
SPATIAL_FILTER
  2
AcDbSpatialFilter
  3
"Acad"
 90
        0
280
               0
281
               0
  0
CLASS
  1
XRECORD
  2
AcDbXrecord
  3
"<Built In>"
 90
        0
280
               0
281
               0
  0
CLASS
  1
SORTENTSTABLE
  2
AcDbSortentsTable
  3
"AutoCAD"
 90
        0
280
               0
281
               0
  0
CLASS
  1
LAYER_INDEX
  2
AcDbLayerIndex
  3
"Acad"
 90
        0
280
               0
281
               0
  0
CLASS
  1
SPATIAL_INDEX
  2
AcDbSpatialIndex
  3
"Acad"
 90
        0
280
               0
281
               0
  0
CLASS
  1
OBJECT_PTR
  2
CAseDLPNTableRecord
  3
"ASE-LPNTableRecord"
 90
        1
280
               0
281
               0
  0
CLASS
  1
LAYOUT
  2
AcDbLayout
  3
"AutoCAD 2000"
 90
        1
280
               0
281
               0
  0
CLASS
  1
PLOTSETTINGS
  2
AcDbPlotSettings
  3
"AutoCAD 2000"
 90
        1
280
               0
281
               0
  0
CLASS
  1
ACDBDICTIONARYWDFLT
  2
AcDbDictionaryWithDefault
  3
"AutoCAD 2000"
 90
        1
280
               0
281
               0
  0
CLASS
  1
ACDBPLACEHOLDER
  2
AcDbPlaceHolder
  3
"AutoCAD 2000"
 90
        1
280
               0
281
               0
  0
ENDSEC
  0
SECTION
  2
TABLES
  0
TABLE
  2
VPORT
  5
7
100
AcDbSymbolTable
 70
               1
  0
VPORT
  5
15
100
AcDbSymbolTableRecord
100
AcDbViewportTableRecord
  2
*ACTIVE
 70
               0
 10
0.0
 20
0.0
 11
1.0
 21
1.0
 12
2.1909528531206206
 22
0.25
 13
0.0
 23
0.0
 14
1.0
 24
1.0
 15
0.0
 25
0.0
 16
0.0
 26
0.0
 36
1.0
 17
0.0
 27
0.0
 37
0.0
 40
394.40500000000003
 41
1.7320508075688772
 42
50.0
 43
0.0
 44
0.0
 50
0.0
 51
0.0
 71
               0
 72
             100
 73
               1
 74
               1
 75
               0
 76
               0
 77
               0
 78
               0
  0
ENDTAB
  0
TABLE
  2
LTYPE
  5
4
100
AcDbSymbolTable
 70
               6
  0
LTYPE
  5
11
100
AcDbSymbolTableRecord
100
AcDbLinetypeTableRecord
  2
BYBLOCK
 70
              64
  3

 72
              65
 73
               0
 40
0.0
  0
LTYPE
  5
12
100
AcDbSymbolTableRecord
100
AcDbLinetypeTableRecord
  2
BYLAYER
 70
              64
  3

 72
              65
 73
               0
 40
0.0
  0
LTYPE
  5
13
100
AcDbSymbolTableRecord
100
AcDbLinetypeTableRecord
  2
CONTINUOUS
 70
              64
  3
Solid line
 72
              65
 73
               0
 40
0.0
  0
LTYPE
  5
34
100
AcDbSymbolTableRecord
100
AcDbLinetypeTableRecord
  2
PHANTOM
 70
              64
  3
Phantom ______  __  __  ______  __  __  ______
 72
              65
 73
               6
 40
30.0
 49
20.0
 74
               0
 49
-2.0
 74
               0
 49
2.0
 74
               0
 49
-2.0
 74
               0
 49
2.0
 74
               0
 49
-2.0
 74
               0
  0
LTYPE
  5
40
100
AcDbSymbolTableRecord
100
AcDbLinetypeTableRecord
  2
CENTER
 70
              64
  3
Center ____ _ ____ _ ____ _ ____ _ ____ _ ____
 72
              65
 73
               4
 40
26.0
 49
20.0
 74
               0
 49
-2.0
 74
               0
 49
2.0
 74
               0
 49
-2.0
 74
               0
  0
LTYPE
  5
CB
100
AcDbSymbolTableRecord
100
AcDbLinetypeTableRecord
  2
DASHED
 70
              64
  3
Dashed __ __ __ __ __ __ __ __ __ __ __ __ __ _
 72
              65
 73
               2
 40
4.0
 49
2.0
 74
               0
 49
-2.0
 74
               0
  0
ENDTAB
  0
TABLE
  2
LAYER
  5
2
100
AcDbSymbolTable
 70
               2
  0
LAYER
  5
14
100
AcDbSymbolTableRecord
100
AcDbLayerTableRecord
  2
0
 70
               0
 62
               7
  6
CONTINUOUS
  0
LAYER
  5
1D
100
AcDbSymbolTableRecord
100
AcDbLayerTableRecord
  2
DEFPOINTS
 70
               0
 62
               7
  6
CONTINUOUS
  0
ENDTAB
  0
TABLE
  2
STYLE
  5
3
100
AcDbSymbolTable
 70
               1
  0
STYLE
  5
17
100
AcDbSymbolTableRecord
100
AcDbTextStyleTableRecord
  2
MX_NOTE_STANDARD
 70
               0
 40
0.0
 41
1.0
 50
0.0
 71
               0
 42
3.2000000476837158
  3
txt.shx
  4
extfont.shx
  0
ENDTAB
  0
TABLE
  2
VIEW
  5
5
100
AcDbSymbolTable
 70
               0
  0
ENDTAB
  0
TABLE
  2
UCS
  5
6
100
AcDbSymbolTable
 70
               0
  0
ENDTAB
  0
TABLE
  2
APPID
  5
8
100
AcDbSymbolTable
 70
               1
  0
APPID
  5
16
100
AcDbSymbolTableRecord
100
AcDbRegAppTableRecord
  2
ACAD
 70
               0
  0
ENDTAB
  0
TABLE
  2
DIMSTYLE
  5
9
100
AcDbSymbolTable
 70
               1
  0
DIMSTYLE
105
18
100
AcDbSymbolTableRecord
100
AcDbDimStyleTableRecord
  2
MXDIMSTYLE
 70
               0
  3

  4

  5

  6

  7

 40
1.0
 41
2.5
 42
1.5
 43
3.75
 44
1.5
 45
0.0
 46
0.0
 47
0.0
 48
0.0
 71
               0
 72
               0
 73
               0
 74
               0
 75
               0
 76
               0
 77
               1
 78
               8
140
3.2000000476837158
141
2.5
142
0.0
143
0.03937007874016
144
1.0
145
0.0
146
1.0
147
1.0
170
               0
171
               4
172
               1
173
               0
174
               0
175
               0
176
               0
177
               0
178
               0
270
               2
271
               4
272
               4
273
               2
274
               4
275
               0
280
               0
281
               0
282
               0
283
               1
284
               0
285
               0
286
               0
287
               3
288
               1
340
17
  0
ENDTAB
  0
TABLE
  2
BLOCK_RECORD
  5
1
100
AcDbSymbolTable
 70
               0
  0
BLOCK_RECORD
  5
A
100
AcDbSymbolTableRecord
100
AcDbBlockTableRecord
  2
*MODEL_SPACE
  0
BLOCK_RECORD
  5
B
100
AcDbSymbolTableRecord
100
AcDbBlockTableRecord
  2
*PAPER_SPACE
  0
ENDTAB
  0
ENDSEC
  0
SECTION
  2
BLOCKS
  0
BLOCK
  5
D
100
AcDbEntity
  8
0
100
AcDbBlockBegin
  2
*MODEL_SPACE
 70
               0
 10
0.0
 20
0.0
 30
0.0
  3
*MODEL_SPACE
  1

  0
ENDBLK
  5
E
100
AcDbEntity
  8
0
100
AcDbBlockEnd
  0
BLOCK
  5
F
100
AcDbEntity
 67
               1
  8
0
100
AcDbBlockBegin
  2
*PAPER_SPACE
 70
               0
 10
0.0
 20
0.0
 30
0.0
  3
*PAPER_SPACE
  1

  0
ENDBLK
  5
10
100
AcDbEntity
 67
               1
  8
0
100
AcDbBlockEnd
  0
ENDSEC
  0
SECTION
  2
ENTITIES
  0
MTEXT
  5
1E
100
AcDbEntity
  8
0
  6
CONTINUOUS
 62
               7
100
AcDbMText
 10
-268.2882353765595
 20
160.5
 30
0.0
 40
6.3000001907348633
 41
0.0
 71
               4
 72
               1
  1
\W1.059;\A1;MODEL:JE12A5-25-PL
  0
LINE
  5
1F
100
AcDbEntity
  8
0
  6
CONTINUOUS
 62
               7
100
AcDbLine
 10
-281.25
 20
-195.0
 30
0.0
 11
282.099853515625
 21
-195.0
 31
0.0
  0
LINE
  5
20
100
AcDbEntity
  8
0
  6
CONTINUOUS
 62
               7
100
AcDbLine
 10
-281.25
 20
195.5
 30
0.0
 11
-281.25
 21
-195.0
 31
0.0
  0
LINE
  5
21
100
AcDbEntity
  8
0
  6
CONTINUOUS
 62
               7
100
AcDbLine
 10
-281.25
 20
195.5
 30
0.0
 11
282.099853515625
 21
195.5
 31
0.0
  0
LINE
  5
22
100
AcDbEntity
  8
0
  6
CONTINUOUS
 62
               7
100
AcDbLine
 10
282.099853515625
 20
195.5
 30
0.0
 11
282.099853515625
 21
-195.0
 31
0.0
  0
LINE
  5
23
100
AcDbEntity
  8
0
  6
CONTINUOUS
 62
               7
100
AcDbLine
 10
162.0999755859375
 20
195.5
 30
0.0
 11
162.0999755859375
 21
175.5
 31
0.0
  0
LINE
  5
24
100
AcDbEntity
  8
0
  6
CONTINUOUS
 62
               7
100
AcDbLine
 10
162.0999755859375
 20
175.5
 30
0.0
 11
282.099853515625
 21
175.5
 31
0.0
  0
MTEXT
  5
25
100
AcDbEntity
  8
0
  6
CONTINUOUS
 62
               7
100
AcDbMText
 10
198.27702406779611
 20
185.5
 30
0.0
 40
6.3000001907348633
 41
0.0
 71
               4
 72
               1
  1
\W1.311;\A1;Ver. 1.0
  0
MTEXT
  5
26
100
AcDbEntity
  8
0
  6
CONTINUOUS
 62
               7
100
AcDbMText
 10
170.28099805280428
 20
-185.0
 30
0.0
 40
9.0
 41
0.0
 71
               4
 72
               1
  1
\W1.121;\A1;KOGANEI CORP.
  0
LINE
  5
27
100
AcDbEntity
  8
0
  6
CONTINUOUS
 62
               7
100
AcDbLine
 10
162.0999755859375
 20
-175.0
 30
0.0
 11
282.099853515625
 21
-175.0
 31
0.0
  0
LINE
  5
28
100
AcDbEntity
  8
0
  6
CONTINUOUS
 62
               7
100
AcDbLine
 10
162.0999755859375
 20
-175.0
 30
0.0
 11
162.0999755859375
 21
-195.0
 31
0.0
  0
LINE
  5
29
100
AcDbEntity
  8
0
  6
CONTINUOUS
 62
               7
100
AcDbLine
 10
-161.25
 20
195.5
 30
0.0
 11
-161.25
 21
175.5
 31
0.0
  0
LINE
  5
2A
100
AcDbEntity
  8
0
  6
CONTINUOUS
 62
               7
100
AcDbLine
 10
-281.25
 20
175.5
 30
0.0
 11
-161.25
 21
175.5
 31
0.0
  0
MTEXT
  5
2B
100
AcDbEntity
  8
0
  6
CONTINUOUS
 62
               7
100
AcDbMText
 10
-257.88333446177035
 20
185.5
 30
0.0
 40
6.3000001907348633
 41
0.0
 71
               4
 72
               1
  1
\W1.111;\A1;JC･JE SERIES
  0
LINE
  5
2C
100
AcDbEntity
  8
0
  6
CONTINUOUS
 62
               7
100
AcDbLine
 10
-281.25
 20
-38.799999999999983
 30
0.0
 11
282.099853515625
 21
-38.799999999999983
 31
0.0
  0
LINE
  5
2D
100
AcDbEntity
  8
0
  6
CONTINUOUS
 62
               7
100
AcDbLine
 10
0.4249267578125
 20
-38.799999999999983
 30
0.0
 11
0.4249267578125
 21
195.5
 31
0.0
  0
MTEXT
  5
2E
100
AcDbEntity
  8
0
  6
CONTINUOUS
 62
               7
100
AcDbMText
 10
-230.52236742808401
 20
150.5
 30
0.0
 40
6.3000001907348633
 41
0.0
 71
               4
 72
               1
  1
\W1.026;\A1;JE12LA5-25-PL
  0
MTEXT
  5
2F
100
AcDbEntity
  8
0
  6
CONTINUOUS
 62
               7
100
AcDbMText
 10
-230.52236742808401
 20
140.5
 30
0.0
 40
6.3000001907348633
 41
0.0
 71
               4
 72
               1
  1
\W1.026;\A1;JE12SA5-25-PL
  0
MTEXT
  5
30
100
AcDbEntity
  8
0
  6
CONTINUOUS
 62
               7
100
AcDbMText
 10
13.386691381253012
 20
160.5
 30
0.0
 40
6.3000001907348633
 41
0.0
 71
               4
 72
               1
  1
\W1.059;\A1;MODEL:JE12A5-25-PS
  0
MTEXT
  5
31
100
AcDbEntity
  8
0
  6
CONTINUOUS
 62
               7
100
AcDbMText
 10
51.152559329728497
 20
140.5
 30
0.0
 40
6.3000001907348633
 41
0.0
 71
               4
 72
               1
  1
\W1.026;\A1;JE12SA5-25-PS
  0
MTEXT
  5
32
100
AcDbEntity
  8
0
  6
CONTINUOUS
 62
               7
100
AcDbMText
 10
51.152559329728497
 20
150.5
 30
0.0
 40
6.3000001907348633
 41
0.0
 71
               4
 72
               1
  1
\W1.026;\A1;JE12LA5-25-PS
  0
MTEXT
  5
33
100
AcDbEntity
  8
0
  6
CONTINUOUS
 62
               7
100
AcDbMText
 10
-268.2882353765595
 20
-53.799999999999983
 30
0.0
 40
6.3000001907348633
 41
0.0
 71
               4
 72
               1
  1
\W1.059;\A1;MODEL:JE12A5-25-GL
  0
LINE
  5
35
100
AcDbEntity
  8
0
  6
PHANTOM
 62
               2
100
AcDbLine
 10
117.15318747210654
 20
-124.84324913770541
 30
0.0
 11
166.10472187002293
 21
-111.72672502751942
 31
0.0
  0
LINE
  5
36
100
AcDbEntity
  8
0
  6
PHANTOM
 62
               2
100
AcDbLine
 10
205.14270104813727
 20
-126.29263667315826
 30
0.0
 11
241.16804389840649
 21
-116.63967514937428
 31
0.0
  0
LINE
  5
37
100
AcDbEntity
  8
0
  6
PHANTOM
 62
               2
100
AcDbLine
 10
117.15318741250189
 20
-101.05799580664024
 30
0.0
 11
166.10472187002293
 21
-87.941471680483176
 31
0.0
  0
LINE
  5
38
100
AcDbEntity
  8
0
  6
PHANTOM
 62
               2
100
AcDbLine
 10
205.14270104813727
 20
-102.50738332719192
 30
0.0
 11
241.16804389840649
 21
-92.854421803407945
 31
0.0
  0
ARC
  5
39
100
AcDbEntity
  8
0
  6
CONTINUOUS
 62
               4
100
AcDbCircle
 10
152.75508615149957
 20
-99.671423564217889
 30
0.0
 40
0.5004652055472239
100
AcDbArc
 50
295.12116424320402
 51
0.0999197646782735
  0
LINE
  5
3A
100
AcDbEntity
  8
0
  6
CONTINUOUS
 62
               4
100
AcDbLine
 10
153.25555059601757
 20
-91.384396746762093
 30
0.0
 11
153.25555059601757
 21
-99.670550788934179
 31
0.0
  0
LINE
  5
3B
100
AcDbEntity
  8
0
  6
CONTINUOUS
 62
               4
100
AcDbLine
 10
149.6555477794908
 20
-101.20255078893416
 30
0.0
 11
150.65555059601755
 21
-101.20255078893416
 31
0.0
  0
LINE
  5
3C
100
AcDbEntity
  8
0
  6
CONTINUOUS
 62
               4
100
AcDbLine
 10
150.65555059601755
 20
-101.20255078893416
 30
0.0
 11
152.96755059601756
 21
-100.12455078893419
 31
0.0
  0
LINE
  5
3D
100
AcDbEntity
  8
0
  6
CONTINUOUS
 62
               4
100
AcDbLine
 10
150.65555059601755
 20
-101.20255078893416
 30
0.0
 11
150.65555059601755
 21
-92.081064647082997
 31
0.0
  0
LINE
  5
3E
100
AcDbEntity
  8
0
  6
CONTINUOUS
 62
               4
100
AcDbLine
 10
133.65554777949077
 20
-96.636201673098185
 30
0.0
 11
133.65554777949077
 21
-100.70255048375839
 31
0.0
  0
LINE
  5
3F
100
AcDbEntity
  8
0
  6
CONTINUOUS
 62
               4
100
AcDbLine
 10
147.65554777949077
 20
-100.70255048375839
 30
0.0
 11
147.65554777949077
 21
-92.884912979062449
 31
0.0
  0
LINE
  5
41
100
AcDbEntity
  8
0
  6
CENTER
 62
               2
100
AcDbLine
 10
140.65554777949077
 20
-76.073299737922014
 30
0.0
 11
140.65554777949077
 21
-133.20133035905843
 31
0.0
  0
LINE
  5
42
100
AcDbEntity
  8
0
  6
CONTINUOUS
 62
               7
100
AcDbLine
 10
131.65554777949077
 20
-120.95735340499664
 30
0.0
 11
131.65554777949077
 21
-101.00255048375834
 31
0.0
  0
LINE
  5
43
100
AcDbEntity
  8
0
  6
CONTINUOUS
 62
               7
100
AcDbLine
 10
149.6555477794908
 20
-116.13426794123643
 30
0.0
 11
149.6555477794908
 21
-100.70255048375839
 31
0.0
  0
LINE
  5
44
100
AcDbEntity
  8
0
  6
CONTINUOUS
 62
               7
100
AcDbLine
 10
131.95554777949079
 20
-100.70255048375839
 30
0.0
 11
149.6555477794908
 21
-100.70255048375839
 31
0.0
  0
LINE
  5
45
100
AcDbEntity
  8
0
  6
CONTINUOUS
 62
               7
100
AcDbLine
 10
131.6555477794908
 20
-114.80255048375835
 30
0.0
 11
131.7555477794908
 21
-114.70255048375839
 31
0.0
  0
LINE
  5
46
100
AcDbEntity
  8
0
  6
CONTINUOUS
 62
               7
100
AcDbLine
 10
131.95554777949079
 20
-100.70255048375839
 30
0.0
 11
131.65554777949077
 21
-101.0025504837584
 31
0.0
  0
LINE
  5
47
100
AcDbEntity
  8
0
  6
CONTINUOUS
 62
               7
100
AcDbLine
 10
131.7555477794908
 20
-114.70255048375833
 30
0.0
 11
149.65554777949077
 21
-114.70255048375833
 31
0.0
  0
ARC
  5
48
100
AcDbEntity
  8
0
  6
CONTINUOUS
 62
               4
100
AcDbCircle
 10
218.65566953918378
 20
-100.70225345528286
 30
0.0
 40
0.5002971123771115
100
AcDbArc
 50
180.03401625554557
 51
269.96598374445358
  0
LINE
  5
49
100
AcDbEntity
  8
0
  6
CONTINUOUS
 62
               4
100
AcDbLine
 10
218.15537251497764
 20
-99.020648516280517
 30
0.0
 11
218.15537251497764
 21
-101.20255047948893
 31
0.0
  0
ARC
  5
4A
100
AcDbEntity
  8
0
  6
CONTINUOUS
 62
               4
100
AcDbCircle
 10
227.65566936284185
 20
-100.70284732735314
 30
0.0
 40
0.4997032403068001
100
AcDbArc
 50
269.96596353714654
 51
0.0340364628527164
  0
LINE
  5
4B
100
AcDbEntity
  8
0
  6
CONTINUOUS
 62
               4
100
AcDbLine
 10
228.15537251497764
 20
-96.341156591969309
 30
0.0
 11
228.15537251497764
 21
-101.20255047948893
 31
0.0
  0
LINE
  5
4C
100
AcDbEntity
  8
0
  6
CONTINUOUS
 62
               4
100
AcDbLine
 10
218.88537251497763
 20
-99.990266746734221
 30
0.0
 11
227.42537251497765
 21
-99.990266746734221
 31
0.0
  0
LINE
  5
4D
100
AcDbEntity
  8
0
  6
CONTINUOUS
 62
               4
100
AcDbLine
 10
227.92537251497765
 20
-96.402784906228419
 30
0.0
 11
227.92537251497765
 21
-99.490266746734221
 31
0.0
  0
LINE
  5
4E
100
AcDbEntity
  8
0
  6
CONTINUOUS
 62
               4
100
AcDbLine
 10
218.38537251497763
 20
-98.95902020202135
 30
0.0
 11
218.38537251497763
 21
-99.490266746734221
 31
0.0
  0
ARC
  5
4F
100
AcDbEntity
  8
0
  6
CONTINUOUS
 62
               4
100
AcDbCircle
 10
227.42537251497765
 20
-99.490266746734221
 30
0.0
 40
0.5
100
AcDbArc
 50
269.99999999999937
 51
0.0
  0
ARC
  5
50
100
AcDbEntity
  8
0
  6
CONTINUOUS
 62
               4
100
AcDbCircle
 10
218.88537251497763
 20
-99.490266746734221
 30
0.0
 40
0.5
100
AcDbArc
 50
179.99999999999963
 51
269.99999999999937
  0
LINE
  5
51
100
AcDbEntity
  8
0
  6
CONTINUOUS
 62
               7
100
AcDbLine
 10
229.15537251497767
 20
-119.85846074550449
 30
0.0
 11
229.15537251497767
 21
-101.00255047948895
 31
0.0
  0
LINE
  5
52
100
AcDbEntity
  8
0
  6
CONTINUOUS
 62
               7
100
AcDbLine
 10
217.15537251497764
 20
-123.07385105467796
 30
0.0
 11
217.15537251497767
 21
-101.00255047948895
 31
0.0
  0
LINE
  5
53
100
AcDbEntity
  8
0
  6
CONTINUOUS
 62
               7
100
AcDbLine
 10
217.15537251497767
 20
-114.70255047948893
 30
0.0
 11
229.15537251497767
 21
-114.70255047948893
 31
0.0
  0
LINE
  5
54
100
AcDbEntity
  8
0
  6
CONTINUOUS
 62
               7
100
AcDbLine
 10
229.15537251497764
 20
-114.80255047948896
 30
0.0
 11
229.05537251497762
 21
-114.70255047948893
 31
0.0
  0
LINE
  5
55
100
AcDbEntity
  8
0
  6
CONTINUOUS
 62
               7
100
AcDbLine
 10
217.25537251142558
 20
-114.70255047948893
 30
0.0
 11
217.15537251497761
 21
-114.80255047593687
 31
0.0
  0
LINE
  5
56
100
AcDbEntity
  8
0
  6
CONTINUOUS
 62
               7
100
AcDbLine
 10
228.40537251497764
 20
-100.70255047948893
 30
0.0
 11
228.85537251497763
 21
-100.70255047948893
 31
0.0
  0
LINE
  5
57
100
AcDbEntity
  8
0
  6
CONTINUOUS
 62
               7
100
AcDbLine
 10
217.45537251497763
 20
-100.70255047948893
 30
0.0
 11
217.90537251497764
 21
-100.70255047948893
 31
0.0
  0
LINE
  5
58
100
AcDbEntity
  8
0
  6
CONTINUOUS
 62
               7
100
AcDbLine
 10
217.45537251497763
 20
-100.70255047948893
 30
0.0
 11
217.15537251497764
 21
-101.00255047948895
 31
0.0
  0
LINE
  5
59
100
AcDbEntity
  8
0
  6
CONTINUOUS
 62
               7
100
AcDbLine
 10
228.85537251497763
 20
-100.70255047948893
 30
0.0
 11
229.15537251497764
 21
-101.00255047948895
 31
0.0
  0
LINE
  5
5A
100
AcDbEntity
  8
0
  6
CONTINUOUS
 62
               7
100
AcDbLine
 10
228.20537251497763
 20
-100.90255047948898
 30
0.0
 11
228.20537251497763
 21
-101.20255047948893
 31
0.0
  0
LINE
  5
5B
100
AcDbEntity
  8
0
  6
CONTINUOUS
 62
               7
100
AcDbLine
 10
218.10537251497766
 20
-100.90255047948898
 30
0.0
 11
218.10537251497766
 21
-101.20255047948893
 31
0.0
  0
LINE
  5
5C
100
AcDbEntity
  8
0
  6
CONTINUOUS
 62
               7
100
AcDbLine
 10
218.10537251497766
 20
-100.90255047948898
 30
0.0
 11
217.90537251497764
 21
-100.70255047948893
 31
0.0
  0
LINE
  5
5D
100
AcDbEntity
  8
0
  6
CONTINUOUS
 62
               7
100
AcDbLine
 10
228.20537251497763
 20
-100.90255047948898
 30
0.0
 11
228.40537251497764
 21
-100.70255047948893
 31
0.0
  0
LINE
  5
5E
100
AcDbEntity
  8
0
  6
CONTINUOUS
 62
               7
100
AcDbLine
 10
218.10537251497766
 20
-101.20255047948893
 30
0.0
 11
228.20537251497763
 21
-101.20255047948893
 31
0.0
  0
LINE
  5
5F
100
AcDbEntity
  8
0
  6
CONTINUOUS
 62
               7
100
AcDbLine
 10
94.316569010416686
 20
-195.0
 30
0.0
 11
94.316569010416686
 21
-38.800000011920929
 31
0.0
  0
MTEXT
  5
60
100
AcDbEntity
  8
0
  6
CONTINUOUS
 62
               7
100
AcDbMText
 10
107.21656894683839
 20
-53.799999999999983
 30
0.0
 40
6.3000001907348633
 41
0.0
 71
               4
 72
               1
  1
\A1;-84
  0
LINE
  5
61
100
AcDbEntity
  8
0
  6
CENTER
 62
             200
100
AcDbLine
 10
154.17061296756253
 20
-103.502550465902
 30
0.0
 11
148.45171886897498
 21
-103.502550465902
 31
0.0
  0
LINE
  5
62
100
AcDbEntity
  8
0
  6
CONTINUOUS
 62
               4
100
AcDbLine
 10
150.75554777949077
 20
-102.40255046590198
 30
0.0
 11
149.6555477794908
 21
-102.40255046590198
 31
0.0
  0
LINE
  5
63
100
AcDbEntity
  8
0
  6
CONTINUOUS
 62
               4
100
AcDbLine
 10
150.75554777949077
 20
-104.60255046590197
 30
0.0
 11
150.57553778359596
 21
-104.60255046590197
 31
0.0
  0
ARC
  5
64
100
AcDbEntity
  8
0
  6
CONTINUOUS
 62
               4
100
AcDbCircle
 10
152.75554777949077
 20
-107.87286986159677
 30
0.0
 40
0.5
100
AcDbArc
 50
270.00000000000023
 51
0.0
  0
ARC
  5
65
100
AcDbEntity
  8
0
  6
CONTINUOUS
 62
               4
100
AcDbCircle
 10
152.75554777949077
 20
-102.20255046590199
 30
0.0
 40
0.5
100
AcDbArc
 50
0.0
 51
89.999999999999815
  0
ARC
  5
66
100
AcDbEntity
  8
0
  6
CONTINUOUS
 62
               4
100
AcDbCircle
 10
150.85554777949079
 20
-101.80255046590196
 30
0.0
 40
0.1
100
AcDbArc
 50
89.999999999999815
 51
179.99999999999963
  0
ARC
  5
67
100
AcDbEntity
  8
0
  6
CONTINUOUS
 62
               4
100
AcDbCircle
 10
150.85554777949079
 20
-105.20255046590199
 30
0.0
 40
0.1
100
AcDbArc
 50
179.99999999999963
 51
269.99999999999937
  0
LINE
  5
68
100
AcDbEntity
  8
0
  6
CONTINUOUS
 62
               4
100
AcDbLine
 10
152.75554777949077
 20
-108.37286986159677
 30
0.0
 11
151.85554777949079
 21
-108.37286986159677
 31
0.0
  0
LINE
  5
69
100
AcDbEntity
  8
0
  6
CONTINUOUS
 62
               4
100
AcDbLine
 10
150.85554777949079
 20
-105.30255046590196
 30
0.0
 11
151.85554777949079
 21
-105.30255046590196
 31
0.0
  0
LINE
  5
6A
100
AcDbEntity
  8
0
  6
CONTINUOUS
 62
               4
100
AcDbLine
 10
153.25554777949077
 20
-107.87286986159677
 30
0.0
 11
153.25554777949077
 21
-102.20255046590199
 31
0.0
  0
LINE
  5
6B
100
AcDbEntity
  8
0
  6
CONTINUOUS
 62
               4
100
AcDbLine
 10
151.85554777949079
 20
-108.37286986159677
 30
0.0
 11
151.85554777949079
 21
-105.30255046590196
 31
0.0
  0
LINE
  5
6C
100
AcDbEntity
  8
0
  6
CONTINUOUS
 62
               4
100
AcDbLine
 10
150.85554777949079
 20
-101.70255046590199
 30
0.0
 11
152.75554777949077
 21
-101.70255046590199
 31
0.0
  0
LINE
  5
6D
100
AcDbEntity
  8
0
  6
CONTINUOUS
 62
               4
100
AcDbLine
 10
150.75554777949077
 20
-105.20255046590199
 30
0.0
 11
150.75554777949077
 21
-101.80255046590196
 31
0.0
  0
LINE
  5
6E
100
AcDbEntity
  8
0
  6
CONTINUOUS
 62
               4
100
AcDbLine
 10
153.25554780187531
 20
-107.58267747948071
 30
0.0
 11
152.65554777803345
 21
-107.58267747948071
 31
0.0
  0
LINE
  5
6F
100
AcDbEntity
  8
0
  6
CONTINUOUS
 62
               4
100
AcDbLine
 10
153.20939878644867
 20
-108.08267748208669
 30
0.0
 11
152.65554777803345
 21
-108.08267748208669
 31
0.0
  0
LINE
  5
70
100
AcDbEntity
  8
0
  6
CONTINUOUS
 62
               4
100
AcDbLine
 10
152.6555477794908
 20
-107.58267747948071
 30
0.0
 11
152.6555477794908
 21
-108.08267748208669
 31
0.0
  0
ARC
  5
71
100
AcDbEntity
  8
0
  6
CONTINUOUS
 62
               4
100
AcDbCircle
 10
150.27016589157307
 20
-104.5025504837584
 30
0.0
 40
0.3
100
AcDbArc
 50
2.8609771159547184
 51
89.999999999999815
  0
LINE
  5
72
100
AcDbEntity
  8
0
  6
CONTINUOUS
 62
               4
100
AcDbLine
 10
150.75554777949083
 20
-108.2045504837584
 30
0.0
 11
150.56979196655527
 21
-104.48757666691773
 31
0.0
  0
ARC
  5
73
100
AcDbEntity
  8
0
  6
CONTINUOUS
 62
               4
100
AcDbCircle
 10
150.32843289805169
 20
-113.94370473649064
 30
0.0
 40
0.1
100
AcDbArc
 50
269.99999999999937
 51
344.99999994881006
  0
ARC
  5
74
100
AcDbEntity
  8
0
  6
CONTINUOUS
 62
               4
100
AcDbCircle
 10
150.38202273672943
 20
-113.7437047364906
 30
0.0
 40
0.1
100
AcDbArc
 50
344.99999994881091
 51
89.999999999999801
  0
ARC
  5
75
100
AcDbEntity
  8
0
  6
CONTINUOUS
 62
               4
100
AcDbCircle
 10
150.4892024140849
 20
-113.34370473649062
 30
0.0
 40
0.1
100
AcDbArc
 50
269.99999999999937
 51
344.99999994880994
  0
ARC
  5
76
100
AcDbEntity
  8
0
  6
CONTINUOUS
 62
               4
100
AcDbCircle
 10
150.54279225276264
 20
-113.14370473649063
 30
0.0
 40
0.1
100
AcDbArc
 50
344.99999994881108
 51
89.999999999999801
  0
ARC
  5
77
100
AcDbEntity
  8
0
  6
CONTINUOUS
 62
               4
100
AcDbCircle
 10
150.64997193011811
 20
-112.7437047364906
 30
0.0
 40
0.1
100
AcDbArc
 50
269.99999999999937
 51
344.99999994881006
  0
ARC
  5
78
100
AcDbEntity
  8
0
  6
CONTINUOUS
 62
               4
100
AcDbCircle
 10
150.70356176879585
 20
-112.54370473649061
 30
0.0
 40
0.1
100
AcDbArc
 50
344.99999994881091
 51
89.999999999999801
  0
ARC
  5
79
100
AcDbEntity
  8
0
  6
CONTINUOUS
 62
               4
100
AcDbCircle
 10
150.81074144615133
 20
-112.14370473649063
 30
0.0
 40
0.1
100
AcDbArc
 50
269.99999999999937
 51
344.99999994880994
  0
ARC
  5
7A
100
AcDbEntity
  8
0
  6
CONTINUOUS
 62
               4
100
AcDbCircle
 10
150.86433128482906
 20
-111.94370473649064
 30
0.0
 40
0.1
100
AcDbArc
 50
344.99999994881108
 51
89.999999999999801
  0
ARC
  5
7B
100
AcDbEntity
  8
0
  6
CONTINUOUS
 62
               4
100
AcDbCircle
 10
150.97151096218454
 20
-111.54370473649061
 30
0.0
 40
0.1
100
AcDbArc
 50
269.99999999999937
 51
344.99999994881006
  0
ARC
  5
7C
100
AcDbEntity
  8
0
  6
CONTINUOUS
 62
               4
100
AcDbCircle
 10
151.02510080086228
 20
-111.34370473649062
 30
0.0
 40
0.1
100
AcDbArc
 50
344.99999994881091
 51
89.999999999999801
  0
LINE
  5
7D
100
AcDbEntity
  8
0
  6
CONTINUOUS
 62
               4
100
AcDbLine
 10
150.19811035916939
 20
-114.04370473649061
 30
0.0
 11
150.32843289897573
 21
-114.04370473649061
 31
0.0
  0
LINE
  5
7E
100
AcDbEntity
  8
0
  6
CONTINUOUS
 62
               4
100
AcDbLine
 10
150.30529003665578
 20
-113.64370473649063
 30
0.0
 11
150.38202273771896
 21
-113.64370473649063
 31
0.0
  0
LINE
  5
7F
100
AcDbEntity
  8
0
  6
CONTINUOUS
 62
               4
100
AcDbLine
 10
150.358879875399
 20
-113.44370473649064
 30
0.0
 11
150.4892024152054
 21
-113.44370473649064
 31
0.0
  0
LINE
  5
80
100
AcDbEntity
  8
0
  6
CONTINUOUS
 62
               4
100
AcDbLine
 10
150.46605955288544
 20
-113.04370473649061
 30
0.0
 11
150.54279225394856
 21
-113.04370473649061
 31
0.0
  0
LINE
  5
81
100
AcDbEntity
  8
0
  6
CONTINUOUS
 62
               4
100
AcDbLine
 10
150.51964939162866
 20
-112.84370473649062
 30
0.0
 11
150.649971931435
 21
-112.84370473649062
 31
0.0
  0
LINE
  5
82
100
AcDbEntity
  8
0
  6
CONTINUOUS
 62
               4
100
AcDbLine
 10
150.62682906911505
 20
-112.44370473649064
 30
0.0
 11
150.70356177017823
 21
-112.44370473649064
 31
0.0
  0
LINE
  5
83
100
AcDbEntity
  8
0
  6
CONTINUOUS
 62
               4
100
AcDbLine
 10
150.68041890785827
 20
-112.2437047364906
 30
0.0
 11
150.81074144766461
 21
-112.2437047364906
 31
0.0
  0
LINE
  5
84
100
AcDbEntity
  8
0
  6
CONTINUOUS
 62
               4
100
AcDbLine
 10
150.78759858534471
 20
-111.84370473649062
 30
0.0
 11
150.86433128640783
 21
-111.84370473649062
 31
0.0
  0
LINE
  5
85
100
AcDbEntity
  8
0
  6
CONTINUOUS
 62
               4
100
AcDbLine
 10
150.84118842408787
 20
-111.64370473649063
 30
0.0
 11
150.97151096389427
 21
-111.64370473649063
 31
0.0
  0
LINE
  5
86
100
AcDbEntity
  8
0
  6
CONTINUOUS
 62
               4
100
AcDbLine
 10
150.94836810157432
 20
-111.2437047364906
 30
0.0
 11
151.0251008026375
 21
-111.2437047364906
 31
0.0
  0
LINE
  5
87
100
AcDbEntity
  8
0
  6
CONTINUOUS
 62
               4
100
AcDbLine
 10
150.42502548065744
 20
-113.96958664108718
 30
0.0
 11
150.47861531933523
 21
-113.76958664108719
 31
0.0
  0
LINE
  5
88
100
AcDbEntity
  8
0
  6
CONTINUOUS
 62
               4
100
AcDbLine
 10
150.58579499669071
 20
-113.36958664108715
 30
0.0
 11
150.63938483536839
 21
-113.16958664108716
 31
0.0
  0
LINE
  5
89
100
AcDbEntity
  8
0
  6
CONTINUOUS
 62
               4
100
AcDbLine
 10
150.74656451272386
 20
-112.76958664108719
 30
0.0
 11
150.80015435140166
 21
-112.5695866410872
 31
0.0
  0
LINE
  5
8A
100
AcDbEntity
  8
0
  6
CONTINUOUS
 62
               4
100
AcDbLine
 10
150.90733402875713
 20
-112.16958664108716
 30
0.0
 11
150.96092386743481
 21
-111.96958664108718
 31
0.0
  0
LINE
  5
8B
100
AcDbEntity
  8
0
  6
CONTINUOUS
 62
               4
100
AcDbLine
 10
151.06810354479029
 20
-111.5695866410872
 30
0.0
 11
151.12169338346808
 21
-111.36958664108715
 31
0.0
  0
LINE
  5
8C
100
AcDbEntity
  8
0
  6
CONTINUOUS
 62
               4
100
AcDbLine
 10
150.21512744490786
 20
-113.98019611365953
 30
0.0
 11
151.04532550935431
 21
-110.88185476787248
 31
0.0
  0
ARC
  5
8D
100
AcDbEntity
  8
0
  6
CONTINUOUS
 62
               4
100
AcDbCircle
 10
150.75554777949083
 20
-110.80420898183615
 30
0.0
 40
0.3
100
AcDbArc
 50
344.99999159956064
 51
0.0
  0
ARC
  5
8E
100
AcDbEntity
  8
0
  6
CONTINUOUS
 62
               4
100
AcDbCircle
 10
149.9253496775795
 20
-113.90255048375838
 30
0.0
 40
0.3
100
AcDbArc
 50
269.99999999999937
 51
345.00001052269107
  0
LINE
  5
8F
100
AcDbEntity
  8
0
  6
CONTINUOUS
 62
               4
100
AcDbLine
 10
149.6555477794908
 20
-114.20255048375839
 30
0.0
 11
149.9253496775795
 21
-114.20255048375839
 31
0.0
  0
LINE
  5
90
100
AcDbEntity
  8
0
  6
CONTINUOUS
 62
               4
100
AcDbLine
 10
149.65554778192922
 20
-104.20255048375844
 30
0.0
 11
150.27016589157307
 21
-104.20255048375844
 31
0.0
  0
LINE
  5
91
100
AcDbEntity
  8
0
  6
CONTINUOUS
 62
               4
100
AcDbLine
 10
151.05554777949084
 20
-108.50455048375841
 30
0.0
 11
151.05554777949084
 21
-110.80420898183615
 31
0.0
  0
ARC
  5
92
100
AcDbEntity
  8
0
  6
CONTINUOUS
 62
               4
100
AcDbCircle
 10
150.75554777949083
 20
-108.50455048375841
 30
0.0
 40
0.3
100
AcDbArc
 50
0.0
 51
89.999999999999815
  0
LINE
  5
93
100
AcDbEntity
  8
0
  6
CONTINUOUS
 62
               4
100
AcDbLine
 10
217.85537251535538
 20
-114.20255048374273
 30
0.0
 11
228.45537251535541
 21
-114.20255048336853
 31
0.0
  0
LINE
  5
94
100
AcDbEntity
  8
0
  6
CONTINUOUS
 62
               4
100
AcDbLine
 10
226.34819283554319
 20
-107.43267747961971
 30
0.0
 11
224.96255219059123
 21
-108.23267748180152
 31
0.0
  0
LINE
  5
95
100
AcDbEntity
  8
0
  6
CONTINUOUS
 62
               4
100
AcDbLine
 10
226.34819283489779
 20
-107.43267747999232
 30
0.0
 11
224.26126062885166
 21
-103.81800486746319
 31
0.0
  0
ARC
  5
96
100
AcDbEntity
  8
0
  6
CONTINUOUS
 62
               4
100
AcDbCircle
 10
224.71255218985831
 20
-107.79966478033248
 30
0.0
 40
0.5
100
AcDbArc
 50
210.00000000202218
 51
300.00000008741563
  0
LINE
  5
97
100
AcDbEntity
  8
0
  6
CONTINUOUS
 62
               4
100
AcDbLine
 10
226.53120553676592
 20
-106.7496647780936
 30
0.0
 11
224.83854296006675
 21
-103.81788719541923
 31
0.0
  0
ARC
  5
98
100
AcDbEntity
  8
0
  6
CONTINUOUS
 62
               4
100
AcDbCircle
 10
223.15537251497764
 20
-103.50255046569924
 30
0.0
 40
1.6500000000000001
100
AcDbArc
 50
355.13616201929131
 51
244.86383791664005
  0
LINE
  5
99
100
AcDbEntity
  8
0
  6
CONTINUOUS
 62
               4
100
AcDbLine
 10
224.27953948797492
 20
-108.04966478034775
 30
0.0
 11
222.58687690913237
 21
-105.117887193961
 31
0.0
  0
LINE
  5
9A
100
AcDbEntity
  8
0
  6
CONTINUOUS
 62
               4
100
AcDbLine
 10
226.08838521539437
 20
-107.58267747957868
 30
0.0
 11
222.80217595823089
 21
-101.89079608233239
 31
0.0
  0
LINE
  5
9B
100
AcDbEntity
  8
0
  6
CONTINUOUS
 62
               4
100
AcDbLine
 10
225.22235980998374
 20
-108.08267748202299
 30
0.0
 11
221.93615055226496
 21
-102.39079608381492
 31
0.0
  0
ARC
  5
9C
100
AcDbEntity
  8
0
  6
CONTINUOUS
 62
               4
100
AcDbCircle
 10
222.32706928800235
 20
-105.26788719397015
 30
0.0
 40
0.3
100
AcDbArc
 50
30.000000002022531
 51
64.863837916640307
  0
ARC
  5
9D
100
AcDbEntity
  8
0
  6
CONTINUOUS
 62
               4
100
AcDbCircle
 10
225.09835058119677
 20
-103.66788719541002
 30
0.0
 40
0.3
100
AcDbArc
 50
175.13616201929182
 51
210.00000000202243
  0
LINE
  5
9E
100
AcDbEntity
  8
0
  6
CONTINUOUS
 62
               4
100
AcDbLine
 10
224.96255218939893
 20
-108.2326774797364
 30
0.0
 11
222.87561998335278
 21
-104.61800486720732
 31
0.0
  0
ARC
  5
9F
100
AcDbEntity
  8
0
  6
CONTINUOUS
 62
               4
100
AcDbCircle
 10
223.15537251454774
 20
-103.50255046594742
 30
0.0
 40
1.1500000000000001
100
AcDbArc
 50
145.77146180160696
 51
255.92079019249044
  0
ARC
  5
A0
100
AcDbEntity
  8
0
  6
CONTINUOUS
 62
               4
100
AcDbCircle
 10
226.0981928348825
 20
-106.99966477810888
 30
0.0
 40
0.5
100
AcDbArc
 50
300.00000008741654
 51
30.000000002022595
  0
ARC
  5
A1
100
AcDbEntity
  8
0
  6
CONTINUOUS
 62
               4
100
AcDbCircle
 10
223.1553725149777
 20
-103.50255046569924
 30
0.0
 40
1.1500000000000001
100
AcDbArc
 50
344.07920981155343
 51
94.22853820243769
  0
ARC
  5
A2
100
AcDbEntity
  8
0
  6
CONTINUOUS
 62
               4
100
AcDbCircle
 10
228.45537251534481
 20
-113.90255048336857
 30
0.0
 40
0.3
100
AcDbArc
 50
270.00000000202203
 51
0.0000000020226292
  0
ARC
  5
A3
100
AcDbEntity
  8
0
  6
CONTINUOUS
 62
               4
100
AcDbCircle
 10
217.85537251534478
 20
-113.90255048374271
 30
0.0
 40
0.3
100
AcDbArc
 50
180.00000000202223
 51
270.00000000202203
  0
LINE
  5
A4
100
AcDbEntity
  8
0
  6
CONTINUOUS
 62
               4
100
AcDbLine
 10
228.75537250837635
 20
-110.84370473609016
 30
0.0
 11
217.5553725143368
 21
-110.84370473648556
 31
0.0
  0
ARC
  5
A5
100
AcDbEntity
  8
0
  6
CONTINUOUS
 62
               4
100
AcDbCircle
 10
226.4553725152636
 20
-111.6025504834391
 30
0.0
 40
0.3
100
AcDbArc
 50
0.0000000020226547
 51
90.00000000202246
  0
ARC
  5
A6
100
AcDbEntity
  8
0
  6
CONTINUOUS
 62
               4
100
AcDbCircle
 10
219.85537251526361
 20
-111.6025504836721
 30
0.0
 40
0.3
100
AcDbArc
 50
90.00000000202246
 51
180.00000000202226
  0
LINE
  5
A7
100
AcDbEntity
  8
0
  6
CONTINUOUS
 62
               4
100
AcDbLine
 10
225.45537251500235
 20
-104.20255048347454
 30
0.0
 11
227.75537251500236
 21
-104.20255048339334
 31
0.0
  0
LINE
  5
A8
100
AcDbEntity
  8
0
  6
CONTINUOUS
 62
               4
100
AcDbLine
 10
226.45537251525303
 20
-111.30255048343915
 30
0.0
 11
219.85537251525304
 21
-111.30255048367215
 31
0.0
  0
LINE
  5
A9
100
AcDbEntity
  8
0
  6
CONTINUOUS
 62
               4
100
AcDbLine
 10
226.75537251534223
 20
-113.82934537154621
 30
0.0
 11
226.75537251526362
 21
-111.60255048342852
 31
0.0
  0
LINE
  5
AA
100
AcDbEntity
  8
0
  6
CONTINUOUS
 62
               4
100
AcDbLine
 10
219.55537251534221
 20
-113.82934537180039
 30
0.0
 11
219.55537251526363
 21
-111.60255048368269
 31
0.0
  0
LINE
  5
AB
100
AcDbEntity
  8
0
  6
CONTINUOUS
 62
               4
100
AcDbLine
 10
228.75537251534482
 20
-113.90255048335797
 30
0.0
 11
228.75537251503769
 21
-105.20255048335804
 31
0.0
  0
LINE
  5
AC
100
AcDbEntity
  8
0
  6
CONTINUOUS
 62
               4
100
AcDbLine
 10
217.5553725153448
 20
-113.90255048375332
 30
0.0
 11
217.55537251503767
 21
-105.20255048375344
 31
0.0
  0
LINE
  5
AD
100
AcDbEntity
  8
0
  6
CONTINUOUS
 62
               4
100
AcDbLine
 10
220.85537251500236
 20
-104.20255048363694
 30
0.0
 11
218.55537251500238
 21
-104.20255048371814
 31
0.0
  0
LINE
  5
AE
100
AcDbEntity
  8
0
  6
CONTINUOUS
 62
               4
100
AcDbLine
 10
228.75537252023881
 20
-108.20455048335799
 30
0.0
 11
225.01126958055934
 21
-108.20455048349018
 31
0.0
  0
LINE
  5
AF
100
AcDbEntity
  8
0
  6
CONTINUOUS
 62
               4
100
AcDbLine
 10
217.55537251079869
 20
-111.24370473648554
 30
0.0
 11
228.75537251079868
 21
-111.24370473609014
 31
0.0
  0
LINE
  5
B0
100
AcDbEntity
  8
0
  6
CONTINUOUS
 62
               4
100
AcDbLine
 10
226.75537251526507
 20
-111.64370473616079
 30
0.0
 11
228.7553725108128
 21
-111.64370473609017
 31
0.0
  0
LINE
  5
B1
100
AcDbEntity
  8
0
  6
CONTINUOUS
 62
               4
100
AcDbLine
 10
226.75537251527214
 20
-111.84370473616077
 30
0.0
 11
228.75537251081988
 21
-111.84370473609016
 31
0.0
  0
LINE
  5
B2
100
AcDbEntity
  8
0
  6
CONTINUOUS
 62
               4
100
AcDbLine
 10
226.75537251528627
 20
-112.24370473616075
 30
0.0
 11
228.75537251083401
 21
-112.24370473609014
 31
0.0
  0
LINE
  5
B3
100
AcDbEntity
  8
0
  6
CONTINUOUS
 62
               4
100
AcDbLine
 10
226.75537251529332
 20
-112.4437047361608
 30
0.0
 11
228.75537251084106
 21
-112.44370473609018
 31
0.0
  0
LINE
  5
B4
100
AcDbEntity
  8
0
  6
CONTINUOUS
 62
               4
100
AcDbLine
 10
226.75537251530744
 20
-112.84370473616077
 30
0.0
 11
228.75537251085518
 21
-112.84370473609016
 31
0.0
  0
LINE
  5
B5
100
AcDbEntity
  8
0
  6
CONTINUOUS
 62
               4
100
AcDbLine
 10
226.75537251531449
 20
-113.04370473616076
 30
0.0
 11
228.75537251086223
 21
-113.04370473609015
 31
0.0
  0
LINE
  5
B6
100
AcDbEntity
  8
0
  6
CONTINUOUS
 62
               4
100
AcDbLine
 10
226.75537251532862
 20
-113.4437047361608
 30
0.0
 11
228.75537251087636
 21
-113.44370473609018
 31
0.0
  0
LINE
  5
B7
100
AcDbEntity
  8
0
  6
CONTINUOUS
 62
               4
100
AcDbLine
 10
226.75537251533569
 20
-113.64370473616079
 30
0.0
 11
228.75537251088343
 21
-113.64370473609017
 31
0.0
  0
LINE
  5
B8
100
AcDbEntity
  8
0
  6
CONTINUOUS
 62
               4
100
AcDbLine
 10
217.59065478467122
 20
-114.0437047364843
 30
0.0
 11
228.72009024475756
 21
-114.0437047360914
 31
0.0
  0
LINE
  5
B9
100
AcDbEntity
  8
0
  6
CONTINUOUS
 62
               4
100
AcDbLine
 10
219.55537251526505
 20
-111.64370473641496
 30
0.0
 11
217.55537251971728
 21
-111.64370473648557
 31
0.0
  0
LINE
  5
BA
100
AcDbEntity
  8
0
  6
CONTINUOUS
 62
               4
100
AcDbLine
 10
219.55537251527213
 20
-111.84370473641495
 30
0.0
 11
217.55537251972436
 21
-111.84370473648556
 31
0.0
  0
LINE
  5
BB
100
AcDbEntity
  8
0
  6
CONTINUOUS
 62
               4
100
AcDbLine
 10
219.55537251528625
 20
-112.24370473641493
 30
0.0
 11
217.55537251973848
 21
-112.24370473648554
 31
0.0
  0
LINE
  5
BC
100
AcDbEntity
  8
0
  6
CONTINUOUS
 62
               4
100
AcDbLine
 10
219.5553725152933
 20
-112.44370473641497
 30
0.0
 11
217.55537251974553
 21
-112.44370473648559
 31
0.0
  0
LINE
  5
BD
100
AcDbEntity
  8
0
  6
CONTINUOUS
 62
               4
100
AcDbLine
 10
219.55537251530743
 20
-112.84370473641495
 30
0.0
 11
217.55537251975966
 21
-112.84370473648556
 31
0.0
  0
LINE
  5
BE
100
AcDbEntity
  8
0
  6
CONTINUOUS
 62
               4
100
AcDbLine
 10
219.55537251531447
 20
-113.04370473641494
 30
0.0
 11
217.55537251976671
 21
-113.04370473648555
 31
0.0
  0
LINE
  5
BF
100
AcDbEntity
  8
0
  6
CONTINUOUS
 62
               4
100
AcDbLine
 10
219.5553725153286
 20
-113.44370473641497
 30
0.0
 11
217.55537251978083
 21
-113.44370473648559
 31
0.0
  0
LINE
  5
C0
100
AcDbEntity
  8
0
  6
CONTINUOUS
 62
               4
100
AcDbLine
 10
219.55537251533568
 20
-113.64370473641496
 30
0.0
 11
217.55537251978791
 21
-113.64370473648557
 31
0.0
  0
ARC
  5
C1
100
AcDbEntity
  8
0
  6
CONTINUOUS
 62
               4
100
AcDbCircle
 10
223.15537251506237
 20
-105.90255048355573
 30
0.0
 40
1.3
100
AcDbArc
 50
180.00000000202232
 51
295.58827457679422
  0
LINE
  5
C2
100
AcDbEntity
  8
0
  6
CONTINUOUS
 62
               4
100
AcDbLine
 10
221.85537251506238
 20
-105.90255048394366
 30
0.0
 11
221.85537251503769
 21
-105.20255048394361
 31
0.0
  0
ARC
  5
C3
100
AcDbEntity
  8
0
  6
CONTINUOUS
 62
               4
100
AcDbCircle
 10
220.85537251503769
 20
-105.20255048363694
 30
0.0
 40
1.0
100
AcDbArc
 50
0.000000002022731
 51
90.000000002022531
  0
ARC
  5
C4
100
AcDbEntity
  8
0
  6
CONTINUOUS
 62
               4
100
AcDbCircle
 10
225.45537251503768
 20
-105.20255048347454
 30
0.0
 40
1.0
100
AcDbArc
 50
90.000000002022531
 51
110.90095671103151
  0
ARC
  5
C5
100
AcDbEntity
  8
0
  6
CONTINUOUS
 62
               4
100
AcDbCircle
 10
227.75537251503769
 20
-105.20255048339334
 30
0.0
 40
1.0
100
AcDbArc
 50
0.000000002022731
 51
90.000000002022531
  0
ARC
  5
C6
100
AcDbEntity
  8
0
  6
CONTINUOUS
 62
               4
100
AcDbCircle
 10
218.55537251503767
 20
-105.20255048371814
 30
0.0
 40
1.0
100
AcDbArc
 50
90.000000002022531
 51
180.00000000202232
  0
LINE
  5
C7
100
AcDbEntity
  8
0
  6
CONTINUOUS
 62
               4
100
AcDbLine
 10
219.55537251088998
 20
-113.82934537180039
 30
0.0
 11
226.75537251088997
 21
-113.82934537154621
 31
0.0
  0
LINE
  5
C8
100
AcDbEntity
  8
0
  6
CONTINUOUS
 62
               4
100
AcDbLine
 10
224.41917944510919
 20
-108.20455048351107
 30
0.0
 11
217.55537251514363
 21
-108.20455048375334
 31
0.0
  0
LINE
  5
C9
100
AcDbEntity
  8
0
  6
CENTER
 62
             200
100
AcDbLine
 10
225.470302650702
 20
-103.50255046561752
 30
0.0
 11
220.85537251497769
 21
-103.50255046618472
 31
0.0
  0
LINE
  5
CA
100
AcDbEntity
  8
0
  6
CENTER
 62
               2
100
AcDbLine
 10
223.15537251403504
 20
-76.802550784664675
 30
0.0
 11
223.15537251602612
 21
-133.20133035905843
 31
0.0
  0
LINE
  5
CC
100
AcDbEntity
  8
0
  6
DASHED
 62
             200
100
AcDbLine
 10
-104.42601621762401
 20
66.661825093886321
 30
0.0
 11
-104.42601621762401
 21
51.661825093886321
 31
0.0
  0
LINE
  5
CD
100
AcDbEntity
  8
0
  6
DASHED
 62
             200
100
AcDbLine
 10
-109.42601621762401
 20
67.161825093886321
 30
0.0
 11
-109.42601621762401
 21
60.161825093886321
 31
0.0
  0
LINE
  5
CE
100
AcDbEntity
  8
0
  6
DASHED
 62
             200
100
AcDbLine
 10
-106.42601621762401
 20
67.161825093886321
 30
0.0
 11
-106.42601621762401
 21
51.161825093886321
 31
0.0
  0
LINE
  5
CF
100
AcDbEntity
  8
0
  6
DASHED
 62
             200
100
AcDbLine
 10
-109.42601621762401
 20
58.161825093886321
 30
0.0
 11
-109.42601621762401
 21
51.161825093886321
 31
0.0
  0
ARC
  5
D0
100
AcDbEntity
  8
0
  6
DASHED
 62
             200
100
AcDbCircle
 10
-104.92601621762401
 20
66.661825093886321
 30
0.0
 40
0.5
100
AcDbArc
 50
0.0
 51
89.999999999999815
  0
ARC
  5
D1
100
AcDbEntity
  8
0
  6
DASHED
 62
             200
100
AcDbCircle
 10
-104.92601621762401
 20
51.661825093886321
 30
0.0
 40
0.5
100
AcDbArc
 50
269.99999999999937
 51
0.0
  0
LINE
  5
D2
100
AcDbEntity
  8
0
  6
DASHED
 62
             200
100
AcDbLine
 10
-104.42601621762401
 20
33.661825093886321
 30
0.0
 11
-104.42601621762401
 21
18.661825093886321
 31
0.0
  0
LINE
  5
D3
100
AcDbEntity
  8
0
  6
DASHED
 62
             200
100
AcDbLine
 10
-109.42601621762401
 20
34.161825093886321
 30
0.0
 11
-109.42601621762401
 21
27.161825093886321
 31
0.0
  0
LINE
  5
D4
100
AcDbEntity
  8
0
  6
DASHED
 62
             200
100
AcDbLine
 10
-106.42601621762401
 20
34.161825093886321
 30
0.0
 11
-106.42601621762401
 21
18.161825093886321
 31
0.0
  0
LINE
  5
D5
100
AcDbEntity
  8
0
  6
DASHED
 62
             200
100
AcDbLine
 10
-109.42601621762401
 20
25.161825093886321
 30
0.0
 11
-109.42601621762401
 21
18.161825093886321
 31
0.0
  0
ARC
  5
D6
100
AcDbEntity
  8
0
  6
DASHED
 62
             200
100
AcDbCircle
 10
-104.92601621762401
 20
33.661825093886321
 30
0.0
 40
0.5
100
AcDbArc
 50
0.0
 51
89.999999999999815
  0
ARC
  5
D7
100
AcDbEntity
  8
0
  6
DASHED
 62
             200
100
AcDbCircle
 10
-104.92601621762401
 20
18.661825093886321
 30
0.0
 40
0.5
100
AcDbArc
 50
269.99999999999937
 51
0.0
  0
LINE
  5
D8
100
AcDbEntity
  8
0
  6
CONTINUOUS
 62
               7
100
AcDbLine
 10
-140.526016217624
 20
34.861825097144468
 30
0.0
 11
-140.52601621762398
 21
75.86182509714439
 31
0.0
  0
LINE
  5
D9
100
AcDbEntity
  8
0
  6
CONTINUOUS
 62
               7
100
AcDbLine
 10
-152.526016217624
 20
52.26182509714436
 30
0.0
 11
-152.52601621762398
 21
75.86182509714439
 31
0.0
  0
LINE
  5
DA
100
AcDbEntity
  8
0
  6
DASHED
 62
             200
100
AcDbLine
 10
-131.42601621762401
 20
67.241825093886334
 30
0.0
 11
-131.42601621762401
 21
51.081825093886337
 31
0.0
  0
LINE
  5
DB
100
AcDbEntity
  8
0
  6
DASHED
 62
             200
100
AcDbLine
 10
-131.42601621762401
 20
67.241825093886334
 30
0.0
 11
-124.42601621762401
 21
67.241825093886334
 31
0.0
  0
LINE
  5
DC
100
AcDbEntity
  8
0
  6
DASHED
 62
             200
100
AcDbLine
 10
-131.42601621762401
 20
63.201825093886313
 30
0.0
 11
-124.42601621762401
 21
63.201825093886313
 31
0.0
  0
LINE
  5
DD
100
AcDbEntity
  8
0
  6
DASHED
 62
             200
100
AcDbLine
 10
-131.42601621762401
 20
55.121825093886329
 30
0.0
 11
-124.42601621762401
 21
55.121825093886329
 31
0.0
  0
LINE
  5
DE
100
AcDbEntity
  8
0
  6
DASHED
 62
             200
100
AcDbLine
 10
-131.42601621762401
 20
51.081825093886337
 30
0.0
 11
-124.42601621762401
 21
51.081825093886337
 31
0.0
  0
LINE
  5
DF
100
AcDbEntity
  8
0
  6
DASHED
 62
             200
100
AcDbLine
 10
-124.42601621762401
 20
67.241825093886334
 30
0.0
 11
-124.42601621762401
 21
51.081825093886337
 31
0.0
  0
LINE
  5
E0
100
AcDbEntity
  8
0
  6
DASHED
 62
             200
100
AcDbLine
 10
-122.42601621762401
 20
67.161825093886321
 30
0.0
 11
-122.42601621762401
 21
61.161825093886321
 31
0.0
  0
LINE
  5
E1
100
AcDbEntity
  8
0
  6
DASHED
 62
             200
100
AcDbLine
 10
-118.92601621762401
 20
67.161825093886321
 30
0.0
 11
-118.92601621762401
 21
60.891825093886311
 31
0.0
  0
LINE
  5
E2
100
AcDbEntity
  8
0
  6
DASHED
 62
             200
100
AcDbLine
 10
-112.92601621762401
 20
67.161825093886321
 30
0.0
 11
-112.92601621762401
 21
60.421825093886312
 31
0.0
  0
LINE
  5
E3
100
AcDbEntity
  8
0
  6
DASHED
 62
             200
100
AcDbLine
 10
-114.17601621762401
 20
67.161825093886321
 30
0.0
 11
-114.17601621762401
 21
60.521825093886335
 31
0.0
  0
LINE
  5
E4
100
AcDbEntity
  8
0
  6
DASHED
 62
             200
100
AcDbLine
 10
-117.67601621762401
 20
67.161825093886321
 30
0.0
 11
-117.67601621762401
 21
60.791825093886317
 31
0.0
  0
LINE
  5
E5
100
AcDbEntity
  8
0
  6
DASHED
 62
             200
100
AcDbLine
 10
-122.42601621762401
 20
57.161825093886321
 30
0.0
 11
-122.42601621762401
 21
51.161825093886321
 31
0.0
  0
LINE
  5
E6
100
AcDbEntity
  8
0
  6
DASHED
 62
             200
100
AcDbLine
 10
-118.92601621762401
 20
57.431825093886332
 30
0.0
 11
-118.92601621762401
 21
51.161825093886321
 31
0.0
  0
LINE
  5
E7
100
AcDbEntity
  8
0
  6
DASHED
 62
             200
100
AcDbLine
 10
-117.67601621762401
 20
57.531825093886326
 30
0.0
 11
-117.67601621762401
 21
51.161825093886321
 31
0.0
  0
LINE
  5
E8
100
AcDbEntity
  8
0
  6
DASHED
 62
             200
100
AcDbLine
 10
-114.17601621762401
 20
57.801825093886308
 30
0.0
 11
-114.17601621762401
 21
51.161825093886321
 31
0.0
  0
LINE
  5
E9
100
AcDbEntity
  8
0
  6
DASHED
 62
             200
100
AcDbLine
 10
-112.92601621762401
 20
57.90182509388633
 30
0.0
 11
-112.92601621762401
 21
51.161825093886321
 31
0.0
  0
LINE
  5
EA
100
AcDbEntity
  8
0
  6
DASHED
 62
             200
100
AcDbLine
 10
-118.92601621762401
 20
60.891825093886311
 30
0.0
 11
-122.42601621762401
 21
61.161825093886321
 31
0.0
  0
LINE
  5
EB
100
AcDbEntity
  8
0
  6
DASHED
 62
             200
100
AcDbLine
 10
-118.92601621762401
 20
57.431825093886332
 30
0.0
 11
-122.42601621762401
 21
57.161825093886321
 31
0.0
  0
LINE
  5
EC
100
AcDbEntity
  8
0
  6
DASHED
 62
             200
100
AcDbLine
 10
-114.17601621762401
 20
57.801825093886308
 30
0.0
 11
-117.67601621762401
 21
57.531825093886326
 31
0.0
  0
LINE
  5
ED
100
AcDbEntity
  8
0
  6
DASHED
 62
             200
100
AcDbLine
 10
-114.17601621762401
 20
60.521825093886335
 30
0.0
 11
-117.67601621762401
 21
60.791825093886317
 31
0.0
  0
LINE
  5
EE
100
AcDbEntity
  8
0
  6
DASHED
 62
             200
100
AcDbLine
 10
-122.42601621762401
 20
65.161825093886321
 30
0.0
 11
-118.92601621762401
 21
65.291825093886317
 31
0.0
  0
LINE
  5
EF
100
AcDbEntity
  8
0
  6
DASHED
 62
             200
100
AcDbLine
 10
-122.42601621762401
 20
53.161825093886321
 30
0.0
 11
-118.92601621762401
 21
53.031825093886326
 31
0.0
  0
LINE
  5
F0
100
AcDbEntity
  8
0
  6
DASHED
 62
             200
100
AcDbLine
 10
-117.67601621762401
 20
52.981825093886314
 30
0.0
 11
-114.17601621762401
 21
52.851825093886319
 31
0.0
  0
LINE
  5
F1
100
AcDbEntity
  8
0
  6
DASHED
 62
             200
100
AcDbLine
 10
-117.67601621762401
 20
65.341825093886328
 30
0.0
 11
-114.17601621762401
 21
65.471825093886324
 31
0.0
  0
LINE
  5
F2
100
AcDbEntity
  8
0
  6
DASHED
 62
             200
100
AcDbLine
 10
-133.42601621762401
 20
64.020006912068126
 30
0.0
 11
-131.42601621762401
 21
64.081825093886309
 31
0.0
  0
LINE
  5
F3
100
AcDbEntity
  8
0
  6
DASHED
 62
             200
100
AcDbLine
 10
-133.42601621762401
 20
54.303643275704516
 30
0.0
 11
-131.42601621762401
 21
54.241825093886334
 31
0.0
  0
LINE
  5
F4
100
AcDbEntity
  8
0
  6
DASHED
 62
             200
100
AcDbLine
 10
-131.42601621762401
 20
34.241825093886334
 30
0.0
 11
-131.42601621762401
 21
18.081825093886337
 31
0.0
  0
LINE
  5
F5
100
AcDbEntity
  8
0
  6
DASHED
 62
             200
100
AcDbLine
 10
-131.42601621762401
 20
34.241825093886334
 30
0.0
 11
-124.42601621762401
 21
34.241825093886334
 31
0.0
  0
LINE
  5
F6
100
AcDbEntity
  8
0
  6
DASHED
 62
             200
100
AcDbLine
 10
-131.42601621762401
 20
30.201825093886313
 30
0.0
 11
-124.42601621762401
 21
30.201825093886313
 31
0.0
  0
LINE
  5
F7
100
AcDbEntity
  8
0
  6
DASHED
 62
             200
100
AcDbLine
 10
-131.42601621762401
 20
22.121825093886329
 30
0.0
 11
-124.42601621762401
 21
22.121825093886329
 31
0.0
  0
LINE
  5
F8
100
AcDbEntity
  8
0
  6
DASHED
 62
             200
100
AcDbLine
 10
-131.42601621762401
 20
18.081825093886337
 30
0.0
 11
-124.42601621762401
 21
18.081825093886337
 31
0.0
  0
LINE
  5
F9
100
AcDbEntity
  8
0
  6
DASHED
 62
             200
100
AcDbLine
 10
-124.42601621762401
 20
34.241825093886334
 30
0.0
 11
-124.42601621762401
 21
18.081825093886337
 31
0.0
  0
LINE
  5
FA
100
AcDbEntity
  8
0
  6
DASHED
 62
             200
100
AcDbLine
 10
-122.42601621762401
 20
34.161825093886321
 30
0.0
 11
-122.42601621762401
 21
28.161825093886321
 31
0.0
  0
LINE
  5
FB
100
AcDbEntity
  8
0
  6
DASHED
 62
             200
100
AcDbLine
 10
-118.92601621762401
 20
34.161825093886321
 30
0.0
 11
-118.92601621762401
 21
27.891825093886311
 31
0.0
  0
LINE
  5
FC
100
AcDbEntity
  8
0
  6
DASHED
 62
             200
100
AcDbLine
 10
-112.92601621762401
 20
34.161825093886321
 30
0.0
 11
-112.92601621762401
 21
27.421825093886312
 31
0.0
  0
LINE
  5
FD
100
AcDbEntity
  8
0
  6
DASHED
 62
             200
100
AcDbLine
 10
-114.17601621762401
 20
34.161825093886321
 30
0.0
 11
-114.17601621762401
 21
27.521825093886335
 31
0.0
  0
LINE
  5
FE
100
AcDbEntity
  8
0
  6
DASHED
 62
             200
100
AcDbLine
 10
-117.67601621762401
 20
34.161825093886321
 30
0.0
 11
-117.67601621762401
 21
27.791825093886317
 31
0.0
  0
LINE
  5
FF
100
AcDbEntity
  8
0
  6
DASHED
 62
             200
100
AcDbLine
 10
-122.42601621762401
 20
24.161825093886321
 30
0.0
 11
-122.42601621762401
 21
18.161825093886321
 31
0.0
  0
LINE
  5
100
100
AcDbEntity
  8
0
  6
DASHED
 62
             200
100
AcDbLine
 10
-118.92601621762401
 20
24.431825093886332
 30
0.0
 11
-118.92601621762401
 21
18.161825093886321
 31
0.0
  0
LINE
  5
101
100
AcDbEntity
  8
0
  6
DASHED
 62
             200
100
AcDbLine
 10
-117.67601621762401
 20
24.531825093886326
 30
0.0
 11
-117.67601621762401
 21
18.161825093886321
 31
0.0
  0
LINE
  5
102
100
AcDbEntity
  8
0
  6
DASHED
 62
             200
100
AcDbLine
 10
-114.17601621762401
 20
24.801825093886308
 30
0.0
 11
-114.17601621762401
 21
18.161825093886321
 31
0.0
  0
LINE
  5
103
100
AcDbEntity
  8
0
  6
DASHED
 62
             200
100
AcDbLine
 10
-112.92601621762401
 20
24.90182509388633
 30
0.0
 11
-112.92601621762401
 21
18.161825093886321
 31
0.0
  0
LINE
  5
104
100
AcDbEntity
  8
0
  6
DASHED
 62
             200
100
AcDbLine
 10
-118.92601621762401
 20
27.891825093886311
 30
0.0
 11
-122.42601621762401
 21
28.161825093886321
 31
0.0
  0
LINE
  5
105
100
AcDbEntity
  8
0
  6
DASHED
 62
             200
100
AcDbLine
 10
-118.92601621762401
 20
24.431825093886332
 30
0.0
 11
-122.42601621762401
 21
24.161825093886321
 31
0.0
  0
LINE
  5
106
100
AcDbEntity
  8
0
  6
DASHED
 62
             200
100
AcDbLine
 10
-114.17601621762401
 20
24.801825093886308
 30
0.0
 11
-117.67601621762401
 21
24.531825093886326
 31
0.0
  0
LINE
  5
107
100
AcDbEntity
  8
0
  6
DASHED
 62
             200
100
AcDbLine
 10
-114.17601621762401
 20
27.521825093886335
 30
0.0
 11
-117.67601621762401
 21
27.791825093886317
 31
0.0
  0
LINE
  5
108
100
AcDbEntity
  8
0
  6
DASHED
 62
             200
100
AcDbLine
 10
-122.42601621762401
 20
32.161825093886321
 30
0.0
 11
-118.92601621762401
 21
32.291825093886317
 31
0.0
  0
LINE
  5
109
100
AcDbEntity
  8
0
  6
DASHED
 62
             200
100
AcDbLine
 10
-122.42601621762401
 20
20.161825093886321
 30
0.0
 11
-118.92601621762401
 21
20.031825093886326
 31
0.0
  0
LINE
  5
10A
100
AcDbEntity
  8
0
  6
DASHED
 62
             200
100
AcDbLine
 10
-117.67601621762401
 20
19.981825093886314
 30
0.0
 11
-114.17601621762401
 21
19.851825093886319
 31
0.0
  0
LINE
  5
10B
100
AcDbEntity
  8
0
  6
DASHED
 62
             200
100
AcDbLine
 10
-117.67601621762401
 20
32.341825093886328
 30
0.0
 11
-114.17601621762401
 21
32.471825093886324
 31
0.0
  0
LINE
  5
10C
100
AcDbEntity
  8
0
  6
DASHED
 62
             200
100
AcDbLine
 10
-133.42601621762401
 20
31.020006912068126
 30
0.0
 11
-131.42601621762401
 21
31.081825093886309
 31
0.0
  0
LINE
  5
10D
100
AcDbEntity
  8
0
  6
DASHED
 62
             200
100
AcDbLine
 10
-133.42601621762401
 20
21.303643275704516
 30
0.0
 11
-131.42601621762401
 21
21.241825093886334
 31
0.0
  0
CIRCLE
  5
10E
100
AcDbEntity
  8
0
  6
CONTINUOUS
 62
               7
100
AcDbCircle
 10
-151.32601621762396
 20
51.361825097144404
 30
0.0
 40
1.5
  0
LINE
  5
10F
100
AcDbEntity
  8
0
  6
CONTINUOUS
 62
               7
100
AcDbLine
 10
-150.61890943643746
 20
50.654718315957844
 30
0.0
 11
-152.03312299881051
 21
52.068931878330943
 31
0.0
  0
LINE
  5
110
100
AcDbEntity
  8
0
  6
CONTINUOUS
 62
               7
100
AcDbLine
 10
-152.03312299881051
 20
50.654718315957851
 30
0.0
 11
-150.61890943643746
 21
52.068931878330936
 31
0.0
  0
CIRCLE
  5
111
100
AcDbEntity
  8
0
  6
CONTINUOUS
 62
               7
100
AcDbCircle
 10
-141.72601621762396
 20
33.961825097144398
 30
0.0
 40
1.5
  0
LINE
  5
112
100
AcDbEntity
  8
0
  6
CONTINUOUS
 62
               7
100
AcDbLine
 10
-141.01890943643747
 20
33.254718315957845
 30
0.0
 11
-142.43312299881052
 21
34.668931878330945
 31
0.0
  0
LINE
  5
113
100
AcDbEntity
  8
0
  6
CONTINUOUS
 62
               7
100
AcDbLine
 10
-142.43312299881052
 20
33.254718315957852
 30
0.0
 11
-141.01890943643747
 21
34.668931878330937
 31
0.0
  0
LINE
  5
114
100
AcDbEntity
  8
0
  6
CONTINUOUS
 62
               7
100
AcDbLine
 10
-152.526016217624
 20
19.161825092875034
 30
0.0
 11
-161.626016217624
 21
19.161825092875034
 31
0.0
  0
LINE
  5
115
100
AcDbEntity
  8
0
  6
CONTINUOUS
 62
               7
100
AcDbLine
 10
-152.026016217624
 20
18.16182509714438
 30
0.0
 11
-141.02601621762403
 21
18.161825097144394
 31
0.0
  0
ARC
  5
116
100
AcDbEntity
  8
0
  6
CONTINUOUS
 62
               7
100
AcDbCircle
 10
-152.026016217624
 20
18.66182509714438
 30
0.0
 40
0.5
100
AcDbArc
 50
179.99999999999963
 51
269.99999999999937
  0
ARC
  5
117
100
AcDbEntity
  8
0
  6
CONTINUOUS
 62
               7
100
AcDbCircle
 10
-141.02601621762403
 20
18.661825097144394
 30
0.0
 40
0.5
100
AcDbArc
 50
269.99999999999937
 51
0.0
  0
LINE
  5
118
100
AcDbEntity
  8
0
  6
CONTINUOUS
 62
               7
100
AcDbLine
 10
-144.72601621762399
 20
18.361825097144383
 30
0.0
 11
-144.72601621762399
 21
19.761825097144389
 31
0.0
  0
LINE
  5
119
100
AcDbEntity
  8
0
  6
CONTINUOUS
 62
               7
100
AcDbLine
 10
-144.52601621762398
 20
19.961825097144384
 30
0.0
 11
-140.52601621762395
 21
19.961825097144384
 31
0.0
  0
ARC
  5
11A
100
AcDbEntity
  8
0
  6
CONTINUOUS
 62
               7
100
AcDbCircle
 10
-142.531016217624
 20
21.866837301801617
 30
0.0
 40
3.2015494236961581
100
AcDbArc
 50
241.55389706210474
 51
298.44610293789401
  0
LINE
  5
11B
100
AcDbEntity
  8
0
  6
CONTINUOUS
 62
               7
100
AcDbLine
 10
-144.276016217624
 20
19.421825097144385
 30
0.0
 11
-144.276016217624
 21
19.961825097144384
 31
0.0
  0
ARC
  5
11C
100
AcDbEntity
  8
0
  6
CONTINUOUS
 62
               7
100
AcDbCircle
 10
-143.85413008705632
 20
19.422270904508956
 30
0.0
 40
0.4218863661100916
100
AcDbArc
 50
180.06054446711468
 51
241.41043093672513
  0
ARC
  5
11D
100
AcDbEntity
  8
0
  6
CONTINUOUS
 62
               7
100
AcDbCircle
 10
-144.52601621762398
 20
19.761825097144389
 30
0.0
 40
0.2
100
AcDbArc
 50
89.999999999999815
 51
179.99999999999963
  0
ARC
  5
11E
100
AcDbEntity
  8
0
  6
CONTINUOUS
 62
               7
100
AcDbCircle
 10
-141.20891651640088
 20
19.434438796384072
 30
0.0
 40
0.4330840265925726
100
AcDbArc
 50
297.93703700787626
 51
358.33100760491578
  0
LINE
  5
11F
100
AcDbEntity
  8
0
  6
CONTINUOUS
 62
               7
100
AcDbLine
 10
-140.776016217624
 20
19.421825097144385
 30
0.0
 11
-140.776016217624
 21
19.961825097144384
 31
0.0
  0
ARC
  5
120
100
AcDbEntity
  8
0
  6
CONTINUOUS
 62
               7
100
AcDbCircle
 10
-144.92601621762398
 20
18.361825097144383
 30
0.0
 40
0.2
100
AcDbArc
 50
270.00000000000023
 51
0.0
  0
LINE
  5
121
100
AcDbEntity
  8
0
  6
CONTINUOUS
 62
               7
100
AcDbLine
 10
-152.526016217624
 20
18.661825096314068
 30
0.0
 11
-152.526016217624
 21
50.461825097144441
 31
0.0
  0
LINE
  5
122
100
AcDbEntity
  8
0
  6
CONTINUOUS
 62
               7
100
AcDbLine
 10
-140.52601621762403
 20
18.661825096314082
 30
0.0
 11
-140.526016217624
 21
33.061825097144329
 31
0.0
  0
LINE
  5
123
100
AcDbEntity
  8
0
  6
CENTER
 62
               2
100
AcDbLine
 10
-146.526016217624
 20
100.06182479196865
 30
0.0
 11
-146.526016217624
 21
15.057172371331333
 31
0.0
  0
ARC
  5
124
100
AcDbEntity
  8
0
  6
CONTINUOUS
 62
               4
100
AcDbCircle
 10
-142.46401621762399
 20
94.663825097144411
 30
0.0
 40
0.5
100
AcDbArc
 50
0.0
 51
89.999999999999815
  0
LINE
  5
125
100
AcDbEntity
  8
0
  6
CONTINUOUS
 62
               4
100
AcDbLine
 10
-141.96401621762399
 20
94.663825097144411
 30
0.0
 11
-141.96401621762399
 21
78.488682256005205
 31
0.0
  0
ARC
  5
126
100
AcDbEntity
  8
0
  6
CONTINUOUS
 62
               4
100
AcDbCircle
 10
-142.46401621762399
 20
78.488682256005205
 30
0.0
 40
0.5
100
AcDbArc
 50
270.00000000000023
 51
0.0
  0
ARC
  5
127
100
AcDbEntity
  8
0
  6
CONTINUOUS
 62
               4
100
AcDbCircle
 10
-150.58801621762402
 20
78.488682256005205
 30
0.0
 40
0.5
100
AcDbArc
 50
179.99999999999963
 51
269.99999999999937
  0
LINE
  5
128
100
AcDbEntity
  8
0
  6
CONTINUOUS
 62
               4
100
AcDbLine
 10
-150.58801621762399
 20
77.988682256005205
 30
0.0
 11
-142.46401621762399
 21
77.988682256005205
 31
0.0
  0
LINE
  5
129
100
AcDbEntity
  8
0
  6
CONTINUOUS
 62
               4
100
AcDbLine
 10
-151.08801621762402
 20
94.663825097144411
 30
0.0
 11
-151.08801621762402
 21
78.488682256005205
 31
0.0
  0
ARC
  5
12A
100
AcDbEntity
  8
0
  6
CONTINUOUS
 62
               4
100
AcDbCircle
 10
-150.58801621762402
 20
94.663825097144411
 30
0.0
 40
0.5
100
AcDbArc
 50
89.999999999999815
 51
179.99999999999963
  0
ARC
  5
12B
100
AcDbEntity
  8
0
  6
CONTINUOUS
 62
               7
100
AcDbCircle
 10
-141.72601621762402
 20
33.961825097144398
 30
0.0
 40
1.6499999999999999
100
AcDbArc
 50
89.999999999999815
 51
269.99999999999937
  0
LINE
  5
12C
100
AcDbEntity
  8
0
  6
CONTINUOUS
 62
               7
100
AcDbLine
 10
-141.72601621762402
 20
35.61182509714439
 30
0.0
 11
-140.52601621762403
 21
35.61182509714439
 31
0.0
  0
LINE
  5
12D
100
AcDbEntity
  8
0
  6
CONTINUOUS
 62
               7
100
AcDbLine
 10
-141.72601621762402
 20
32.311825097144393
 30
0.0
 11
-140.52601621762403
 21
32.311825097144393
 31
0.0
  0
ARC
  5
12E
100
AcDbEntity
  8
0
  6
CONTINUOUS
 62
               7
100
AcDbCircle
 10
-151.32601621762402
 20
51.36182509714439
 30
0.0
 40
1.6499999999999999
100
AcDbArc
 50
269.99999999999937
 51
89.999999999999801
  0
LINE
  5
12F
100
AcDbEntity
  8
0
  6
CONTINUOUS
 62
               7
100
AcDbLine
 10
-151.32601621762402
 20
53.011825097144396
 30
0.0
 11
-152.526016217624
 21
53.011825097144396
 31
0.0
  0
LINE
  5
130
100
AcDbEntity
  8
0
  6
CONTINUOUS
 62
               7
100
AcDbLine
 10
-151.32601621762402
 20
49.711825097144391
 30
0.0
 11
-152.526016217624
 21
49.711825097144391
 31
0.0
  0
LINE
  5
131
100
AcDbEntity
  8
0
  6
CONTINUOUS
 62
               7
100
AcDbLine
 10
-152.52601621762398
 20
62.161825097144394
 30
0.0
 11
-140.52601621762398
 21
62.161825097144394
 31
0.0
  0
LINE
  5
132
100
AcDbEntity
  8
0
  6
CONTINUOUS
 62
               7
100
AcDbLine
 10
-140.526016217624
 20
62.0618250971444
 30
0.0
 11
-140.62601621762403
 21
62.161825097144394
 31
0.0
  0
LINE
  5
133
100
AcDbEntity
  8
0
  6
CONTINUOUS
 62
               7
100
AcDbLine
 10
-152.42601622117607
 20
62.161825097144394
 30
0.0
 11
-152.52601621762403
 21
62.06182510069646
 31
0.0
  0
CIRCLE
  5
134
100
AcDbEntity
  8
0
  6
CONTINUOUS
 62
               7
100
AcDbCircle
 10
-146.526016217624
 20
73.36182511073136
 30
0.0
 40
1.3999999999999997
  0
CIRCLE
  5
135
100
AcDbEntity
  8
0
  6
CONTINUOUS
 62
               7
100
AcDbCircle
 10
-146.526016217624
 20
73.36182511073136
 30
0.0
 40
0.75
  0
CIRCLE
  5
136
100
AcDbEntity
  8
0
  6
CONTINUOUS
 62
               7
100
AcDbCircle
 10
-146.526016217624
 20
73.36182511073136
 30
0.0
 40
1.1000000000000001
  0
LINE
  5
137
100
AcDbEntity
  8
0
  6
CENTER
 62
               2
100
AcDbLine
 10
-144.21108608189965
 20
73.36182511073136
 30
0.0
 11
-148.74996037029968
 21
73.36182511073136
 31
0.0
  0
LINE
  5
138
100
AcDbEntity
  8
0
  6
CONTINUOUS
 62
               7
100
AcDbLine
 10
-152.526016217624
 20
23.161825097144387
 30
0.0
 11
-140.52601621762403
 21
23.161825097144387
 31
0.0
  0
LINE
  5
139
100
AcDbEntity
  8
0
  6
CONTINUOUS
 62
               7
100
AcDbLine
 10
-141.276016217624
 20
76.161825097144387
 30
0.0
 11
-140.82601621762402
 21
76.161825097144387
 31
0.0
  0
CIRCLE
  5
13A
100
AcDbEntity
  8
0
  6
CONTINUOUS
 62
               7
100
AcDbCircle
 10
-146.52576621762401
 20
73.36182509714439
 30
0.0
 40
1.1500000000000001
  0
LINE
  5
13B
100
AcDbEntity
  8
0
  6
CONTINUOUS
 62
               7
100
AcDbLine
 10
-152.22601621762402
 20
76.161825097144387
 30
0.0
 11
-151.776016217624
 21
76.161825097144387
 31
0.0
  0
LINE
  5
13C
100
AcDbEntity
  8
0
  6
CONTINUOUS
 62
               7
100
AcDbLine
 10
-152.22601621762402
 20
76.161825097144387
 30
0.0
 11
-152.526016217624
 21
75.86182509714439
 31
0.0
  0
LINE
  5
13D
100
AcDbEntity
  8
0
  6
CONTINUOUS
 62
               7
100
AcDbLine
 10
-140.82601621762402
 20
76.161825097144387
 30
0.0
 11
-140.526016217624
 21
75.86182509714439
 31
0.0
  0
LINE
  5
13E
100
AcDbEntity
  8
0
  6
CONTINUOUS
 62
               7
100
AcDbLine
 10
-141.47601621762402
 20
75.961825097144384
 30
0.0
 11
-141.47601621762402
 21
75.661825097144387
 31
0.0
  0
LINE
  5
13F
100
AcDbEntity
  8
0
  6
CONTINUOUS
 62
               7
100
AcDbLine
 10
-151.57601621762399
 20
75.961825097144384
 30
0.0
 11
-151.57601621762399
 21
75.661825097144387
 31
0.0
  0
LINE
  5
140
100
AcDbEntity
  8
0
  6
CONTINUOUS
 62
               7
100
AcDbLine
 10
-151.57601621762399
 20
75.961825097144384
 30
0.0
 11
-151.776016217624
 21
76.161825097144387
 31
0.0
  0
LINE
  5
141
100
AcDbEntity
  8
0
  6
CONTINUOUS
 62
               7
100
AcDbLine
 10
-141.47601621762402
 20
75.961825097144384
 30
0.0
 11
-141.276016217624
 21
76.161825097144387
 31
0.0
  0
LINE
  5
142
100
AcDbEntity
  8
0
  6
CONTINUOUS
 62
               7
100
AcDbLine
 10
-133.42601621762401
 20
66.161825094897608
 30
0.0
 11
-140.52696470395219
 21
66.161825094897608
 31
0.0
  0
LINE
  5
143
100
AcDbEntity
  8
0
  6
CENTER
 62
               2
100
AcDbLine
 10
-157.626016217624
 20
64.161825286643762
 30
0.0
 11
-157.626016217624
 21
55.337018670442617
 31
0.0
  0
LINE
  5
144
100
AcDbEntity
  8
0
  6
CENTER
 62
               2
100
AcDbLine
 10
-153.11869655693499
 20
60.161825286643776
 30
0.0
 11
-161.91057008680008
 21
60.161825286643776
 31
0.0
  0
LINE
  5
145
100
AcDbEntity
  8
0
  6
CENTER
 62
               2
100
AcDbLine
 10
-157.626016217624
 20
21.161824901128895
 30
0.0
 11
-157.626016217624
 21
29.986631517330053
 31
0.0
  0
LINE
  5
146
100
AcDbEntity
  8
0
  6
CENTER
 62
               2
100
AcDbLine
 10
-153.11869655693499
 20
25.161824901128895
 30
0.0
 11
-161.91057008680008
 21
25.161824901128895
 31
0.0
  0
LINE
  5
147
100
AcDbEntity
  8
0
  6
CONTINUOUS
 62
               7
100
AcDbLine
 10
-133.42601621762401
 20
19.161825092875034
 30
0.0
 11
-133.42601621762401
 21
66.161825094897608
 31
0.0
  0
LINE
  5
148
100
AcDbEntity
  8
0
  6
CONTINUOUS
 62
               7
100
AcDbLine
 10
-161.626016217624
 20
19.161825092875034
 30
0.0
 11
-161.626016217624
 21
66.161825094897608
 31
0.0
  0
CIRCLE
  5
149
100
AcDbEntity
  8
0
  6
CONTINUOUS
 62
               7
100
AcDbCircle
 10
-157.626016217624
 20
60.161825286643776
 30
0.0
 40
2.25
  0
CIRCLE
  5
14A
100
AcDbEntity
  8
0
  6
CONTINUOUS
 62
               7
100
AcDbCircle
 10
-157.626016217624
 20
25.161824901128895
 30
0.0
 40
2.25
  0
LINE
  5
14B
100
AcDbEntity
  8
0
  6
CONTINUOUS
 62
               7
100
AcDbLine
 10
-152.52696470395219
 20
66.161825094897608
 30
0.0
 11
-161.62601621469389
 21
66.161825094897608
 31
0.0
  0
LINE
  5
14C
100
AcDbEntity
  8
0
  6
CONTINUOUS
 62
               4
100
AcDbLine
 10
-141.526016217624
 20
98.161825097144373
 30
0.0
 11
-151.52601621762398
 21
98.161825097144373
 31
0.0
  0
LINE
  5
14D
100
AcDbEntity
  8
0
  6
CONTINUOUS
 62
               4
100
AcDbLine
 10
-141.526016217624
 20
96.559825097144369
 30
0.0
 11
-143.776016217624
 21
96.559825097144369
 31
0.0
  0
LINE
  5
14E
100
AcDbEntity
  8
0
  6
CONTINUOUS
 62
               4
100
AcDbLine
 10
-144.72601621762402
 20
98.059825097144397
 30
0.0
 11
-151.02601621762398
 21
98.059825097144397
 31
0.0
  0
LINE
  5
14F
100
AcDbEntity
  8
0
  6
CONTINUOUS
 62
               4
100
AcDbLine
 10
-144.72601621762402
 20
98.059825097144397
 30
0.0
 11
-144.72601621762402
 21
97.263825097144405
 31
0.0
  0
ARC
  5
150
100
AcDbEntity
  8
0
  6
CONTINUOUS
 62
               4
100
AcDbCircle
 10
-151.02601621762398
 20
97.559825097144397
 30
0.0
 40
0.5
100
AcDbArc
 50
89.999999999999815
 51
179.99999999999963
  0
LINE
  5
151
100
AcDbEntity
  8
0
  6
CONTINUOUS
 62
               4
100
AcDbLine
 10
-141.526016217624
 20
97.561825097144379
 30
0.0
 11
-144.72601621762399
 21
97.561825097144379
 31
0.0
  0
ARC
  5
152
100
AcDbEntity
  8
0
  6
CONTINUOUS
 62
               4
100
AcDbCircle
 10
-142.3219210709658
 20
97.561920243802547
 30
0.0
 40
0.5999048608870732
100
AcDbArc
 50
359.99091272245295
 51
90.009087277546172
  0
ARC
  5
153
100
AcDbEntity
  8
0
  6
CONTINUOUS
 62
               4
100
AcDbCircle
 10
-144.12310422286103
 20
97.562913102381401
 30
0.0
 40
0.5989129830170392
100
AcDbArc
 50
89.895914524772735
 51
180.10408547522667
  0
LINE
  5
154
100
AcDbEntity
  8
0
  6
CONTINUOUS
 62
               4
100
AcDbLine
 10
-141.526016217624
 20
98.161825097144373
 30
0.0
 11
-141.526016217624
 21
75.661825097144387
 31
0.0
  0
LINE
  5
155
100
AcDbEntity
  8
0
  6
CONTINUOUS
 62
               4
100
AcDbLine
 10
-151.52601621762398
 20
98.161825097144373
 30
0.0
 11
-151.52601621762398
 21
75.661825097144387
 31
0.0
  0
ARC
  5
156
100
AcDbEntity
  8
0
  6
CONTINUOUS
 62
               4
100
AcDbCircle
 10
-142.0257193697598
 20
76.161528249280181
 30
0.0
 40
0.4997032403068001
100
AcDbArc
 50
269.96596353714654
 51
0.0340364628527164
  0
ARC
  5
157
100
AcDbEntity
  8
0
  6
CONTINUOUS
 62
               4
100
AcDbCircle
 10
-151.0257191934179
 20
76.162122121350492
 30
0.0
 40
0.5002971123771115
100
AcDbArc
 50
180.03401625554557
 51
269.96598374445358
  0
LINE
  5
158
100
AcDbEntity
  8
0
  6
CONTINUOUS
 62
               4
100
AcDbLine
 10
-148.94601621762399
 20
94.563825097144388
 30
0.0
 11
-144.11601621762401
 21
94.563825097144388
 31
0.0
  0
LINE
  5
159
100
AcDbEntity
  8
0
  6
CONTINUOUS
 62
               4
100
AcDbLine
 10
-149.246016217624
 20
94.263825097144405
 30
0.0
 11
-143.81601621762402
 21
94.263825097144405
 31
0.0
  0
LINE
  5
15A
100
AcDbEntity
  8
0
  6
CONTINUOUS
 62
               4
100
AcDbLine
 10
-149.27601621762398
 20
95.263825097144405
 30
0.0
 11
-143.776016217624
 21
95.263825097144405
 31
0.0
  0
LINE
  5
15B
100
AcDbEntity
  8
0
  6
CONTINUOUS
 62
               4
100
AcDbLine
 10
-149.27601621762398
 20
96.263825097144405
 30
0.0
 11
-143.776016217624
 21
96.263825097144405
 31
0.0
  0
LINE
  5
15C
100
AcDbEntity
  8
0
  6
CONTINUOUS
 62
               4
100
AcDbLine
 10
-149.27601621762398
 20
97.263825097144405
 30
0.0
 11
-143.776016217624
 21
97.263825097144405
 31
0.0
  0
CIRCLE
  5
15D
100
AcDbEntity
  8
0
  6
CONTINUOUS
 62
               4
100
AcDbCircle
 10
-147.77601621762398
 20
92.763809838355343
 30
0.0
 40
0.8499675393104554
  0
LINE
  5
15E
100
AcDbEntity
  8
0
  6
CONTINUOUS
 62
               4
100
AcDbLine
 10
-148.72601621762396
 20
93.913825097144411
 30
0.0
 11
-146.82601621762402
 21
93.913825097144411
 31
0.0
  0
LINE
  5
15F
100
AcDbEntity
  8
0
  6
CONTINUOUS
 62
               4
100
AcDbLine
 10
-148.72601621762396
 20
93.713825097144394
 30
0.0
 11
-146.82601621762402
 21
93.713825097144394
 31
0.0
  0
ARC
  5
160
100
AcDbEntity
  8
0
  6
CONTINUOUS
 62
               4
100
AcDbCircle
 10
-151.02600553645067
 20
94.663814415971103
 30
0.0
 40
0.5000106812873828
100
AcDbArc
 50
90.001223946153161
 51
179.9987760538454
  0
LINE
  5
161
100
AcDbEntity
  8
0
  6
CONTINUOUS
 62
               4
100
AcDbLine
 10
-148.72601621762396
 20
93.913825097144411
 30
0.0
 11
-148.72601621762396
 21
91.813825097144388
 31
0.0
  0
LINE
  5
162
100
AcDbEntity
  8
0
  6
CONTINUOUS
 62
               4
100
AcDbLine
 10
-150.27601621762398
 20
91.763825097144405
 30
0.0
 11
-150.27601621762398
 21
93.563825097144388
 31
0.0
  0
LINE
  5
163
100
AcDbEntity
  8
0
  6
CONTINUOUS
 62
               4
100
AcDbLine
 10
-150.376016217624
 20
93.663825097144411
 30
0.0
 11
-150.376016217624
 21
91.663825097144411
 31
0.0
  0
LINE
  5
164
100
AcDbEntity
  8
0
  6
CONTINUOUS
 62
               4
100
AcDbLine
 10
-151.02601621762398
 20
95.163825097144411
 30
0.0
 11
-149.27601621762398
 21
95.163825097144411
 31
0.0
  0
LINE
  5
165
100
AcDbEntity
  8
0
  6
CONTINUOUS
 62
               4
100
AcDbLine
 10
-149.376016217624
 20
95.163825097144411
 30
0.0
 11
-149.376016217624
 21
93.663825097144411
 31
0.0
  0
LINE
  5
166
100
AcDbEntity
  8
0
  6
CONTINUOUS
 62
               4
100
AcDbLine
 10
-149.27601621762398
 20
94.223825097144413
 30
0.0
 11
-148.94601621762399
 21
94.563825097144388
 31
0.0
  0
LINE
  5
167
100
AcDbEntity
  8
0
  6
CONTINUOUS
 62
               4
100
AcDbLine
 10
-150.376016217624
 20
93.663825097144411
 30
0.0
 11
-149.376016217624
 21
93.663825097144411
 31
0.0
  0
LINE
  5
168
100
AcDbEntity
  8
0
  6
CONTINUOUS
 62
               4
100
AcDbLine
 10
-150.27601621762398
 20
93.563825097144388
 30
0.0
 11
-149.27601621762398
 21
93.563825097144388
 31
0.0
  0
LINE
  5
169
100
AcDbEntity
  8
0
  6
CONTINUOUS
 62
               4
100
AcDbLine
 10
-149.27601621762398
 20
97.263825097144405
 30
0.0
 11
-149.27601621762398
 21
93.563825097144388
 31
0.0
  0
LINE
  5
16A
100
AcDbEntity
  8
0
  6
PHANTOM
 62
             200
100
AcDbLine
 10
-148.02601621762398
 20
83.163825097144382
 30
0.0
 11
-145.026016217624
 21
83.163825097144382
 31
0.0
  0
LINE
  5
16B
100
AcDbEntity
  8
0
  6
PHANTOM
 62
             200
100
AcDbLine
 10
-148.02601621762398
 20
81.163825097144382
 30
0.0
 11
-145.026016217624
 21
81.163825097144382
 31
0.0
  0
LINE
  5
16C
100
AcDbEntity
  8
0
  6
PHANTOM
 62
             200
100
AcDbLine
 10
-148.02601621762398
 20
83.163825097144382
 30
0.0
 11
-148.02601621762398
 21
81.163825097144382
 31
0.0
  0
LINE
  5
16D
100
AcDbEntity
  8
0
  6
CONTINUOUS
 62
               4
100
AcDbLine
 10
-149.376016217624
 20
90.163825097144411
 30
0.0
 11
-143.67601621762401
 21
90.163825097144411
 31
0.0
  0
LINE
  5
16E
100
AcDbEntity
  8
0
  6
CONTINUOUS
 62
               4
100
AcDbLine
 10
-149.27601621762398
 20
90.263825097144405
 30
0.0
 11
-143.776016217624
 21
90.263825097144405
 31
0.0
  0
LINE
  5
16F
100
AcDbEntity
  8
0
  6
CONTINUOUS
 62
               4
100
AcDbLine
 10
-147.27601621762398
 20
91.813825097144388
 30
0.0
 11
-147.27601621762398
 21
91.513825097144405
 31
0.0
  0
LINE
  5
170
100
AcDbEntity
  8
0
  6
CONTINUOUS
 62
               4
100
AcDbLine
 10
-146.82601621762402
 20
93.913825097144411
 30
0.0
 11
-146.82601621762402
 21
91.813825097144388
 31
0.0
  0
LINE
  5
171
100
AcDbEntity
  8
0
  6
CONTINUOUS
 62
               4
100
AcDbLine
 10
-149.27601621762398
 20
91.763825097144405
 30
0.0
 11
-149.27601621762398
 21
90.263825097144405
 31
0.0
  0
LINE
  5
172
100
AcDbEntity
  8
0
  6
CONTINUOUS
 62
               4
100
AcDbLine
 10
-148.27601621762398
 20
91.813825097144388
 30
0.0
 11
-148.27601621762398
 21
91.513825097144405
 31
0.0
  0
LINE
  5
173
100
AcDbEntity
  8
0
  6
CONTINUOUS
 62
               4
100
AcDbLine
 10
-149.376016217624
 20
91.663825097144411
 30
0.0
 11
-149.376016217624
 21
90.163825097144411
 31
0.0
  0
LINE
  5
174
100
AcDbEntity
  8
0
  6
CONTINUOUS
 62
               4
100
AcDbLine
 10
-150.376016217624
 20
91.663825097144411
 30
0.0
 11
-149.376016217624
 21
91.663825097144411
 31
0.0
  0
LINE
  5
175
100
AcDbEntity
  8
0
  6
CONTINUOUS
 62
               4
100
AcDbLine
 10
-150.27601621762398
 20
91.763825097144405
 30
0.0
 11
-149.27601621762398
 21
91.763825097144405
 31
0.0
  0
LINE
  5
176
100
AcDbEntity
  8
0
  6
CONTINUOUS
 62
               4
100
AcDbLine
 10
-148.27601621762398
 20
91.513825097144405
 30
0.0
 11
-147.27601621762398
 21
91.513825097144405
 31
0.0
  0
LINE
  5
177
100
AcDbEntity
  8
0
  6
CONTINUOUS
 62
               4
100
AcDbLine
 10
-148.72601621762396
 20
91.813825097144388
 30
0.0
 11
-146.82601621762402
 21
91.813825097144388
 31
0.0
  0
LINE
  5
178
100
AcDbEntity
  8
0
  6
CONTINUOUS
 62
               4
100
AcDbLine
 10
-143.776016217624
 20
97.263825097144405
 30
0.0
 11
-143.776016217624
 21
93.563825097144388
 31
0.0
  0
LINE
  5
179
100
AcDbEntity
  8
0
  6
CONTINUOUS
 62
               4
100
AcDbLine
 10
-143.67601621762401
 20
91.663825097144411
 30
0.0
 11
-143.67601621762401
 21
90.163825097144411
 31
0.0
  0
LINE
  5
17A
100
AcDbEntity
  8
0
  6
CONTINUOUS
 62
               4
100
AcDbLine
 10
-143.67601621762401
 20
95.163825097144411
 30
0.0
 11
-143.67601621762401
 21
93.663825097144411
 31
0.0
  0
LINE
  5
17B
100
AcDbEntity
  8
0
  6
CONTINUOUS
 62
               4
100
AcDbLine
 10
-145.776016217624
 20
91.813825097144388
 30
0.0
 11
-145.776016217624
 21
91.513825097144405
 31
0.0
  0
LINE
  5
17C
100
AcDbEntity
  8
0
  6
CONTINUOUS
 62
               4
100
AcDbLine
 10
-146.22601621762399
 20
93.913825097144411
 30
0.0
 11
-146.22601621762399
 21
91.813825097144388
 31
0.0
  0
LINE
  5
17D
100
AcDbEntity
  8
0
  6
CONTINUOUS
 62
               4
100
AcDbLine
 10
-142.776016217624
 20
91.763825097144405
 30
0.0
 11
-142.776016217624
 21
93.563825097144388
 31
0.0
  0
LINE
  5
17E
100
AcDbEntity
  8
0
  6
CONTINUOUS
 62
               4
100
AcDbLine
 10
-142.67601621762401
 20
93.663825097144411
 30
0.0
 11
-142.67601621762401
 21
91.663825097144411
 31
0.0
  0
LINE
  5
17F
100
AcDbEntity
  8
0
  6
CONTINUOUS
 62
               4
100
AcDbLine
 10
-143.776016217624
 20
93.563825097144388
 30
0.0
 11
-142.776016217624
 21
93.563825097144388
 31
0.0
  0
LINE
  5
180
100
AcDbEntity
  8
0
  6
CONTINUOUS
 62
               4
100
AcDbLine
 10
-143.67601621762401
 20
93.663825097144411
 30
0.0
 11
-142.67601621762401
 21
93.663825097144411
 31
0.0
  0
LINE
  5
181
100
AcDbEntity
  8
0
  6
CONTINUOUS
 62
               4
100
AcDbLine
 10
-143.67601621762401
 20
91.663825097144411
 30
0.0
 11
-142.67601621762401
 21
91.663825097144411
 31
0.0
  0
LINE
  5
182
100
AcDbEntity
  8
0
  6
CONTINUOUS
 62
               4
100
AcDbLine
 10
-143.776016217624
 20
91.763825097144405
 30
0.0
 11
-142.776016217624
 21
91.763825097144405
 31
0.0
  0
LINE
  5
183
100
AcDbEntity
  8
0
  6
CONTINUOUS
 62
               4
100
AcDbLine
 10
-143.776016217624
 20
91.763825097144405
 30
0.0
 11
-143.776016217624
 21
90.263825097144405
 31
0.0
  0
LINE
  5
184
100
AcDbEntity
  8
0
  6
CONTINUOUS
 62
               4
100
AcDbLine
 10
-144.776016217624
 20
91.813825097144388
 30
0.0
 11
-144.776016217624
 21
91.513825097144405
 31
0.0
  0
LINE
  5
185
100
AcDbEntity
  8
0
  6
CONTINUOUS
 62
               4
100
AcDbLine
 10
-143.81601621762402
 20
94.263825097144405
 30
0.0
 11
-144.11601621762401
 21
94.563825097144388
 31
0.0
  0
LINE
  5
186
100
AcDbEntity
  8
0
  6
CONTINUOUS
 62
               4
100
AcDbLine
 10
-144.32601621762402
 20
93.913825097144411
 30
0.0
 11
-144.32601621762402
 21
91.813825097144388
 31
0.0
  0
LINE
  5
187
100
AcDbEntity
  8
0
  6
CONTINUOUS
 62
               4
100
AcDbLine
 10
-145.776016217624
 20
91.513825097144405
 30
0.0
 11
-144.776016217624
 21
91.513825097144405
 31
0.0
  0
LINE
  5
188
100
AcDbEntity
  8
0
  6
CONTINUOUS
 62
               4
100
AcDbLine
 10
-146.22601621762399
 20
93.713825097144394
 30
0.0
 11
-144.32601621762402
 21
93.713825097144394
 31
0.0
  0
LINE
  5
189
100
AcDbEntity
  8
0
  6
CONTINUOUS
 62
               4
100
AcDbLine
 10
-146.22601621762399
 20
91.813825097144388
 30
0.0
 11
-144.32601621762402
 21
91.813825097144388
 31
0.0
  0
LINE
  5
18A
100
AcDbEntity
  8
0
  6
CONTINUOUS
 62
               4
100
AcDbLine
 10
-146.22601621762399
 20
93.913825097144411
 30
0.0
 11
-144.32601621762402
 21
93.913825097144411
 31
0.0
  0
CIRCLE
  5
18B
100
AcDbEntity
  8
0
  6
CONTINUOUS
 62
               4
100
AcDbCircle
 10
-145.276016217624
 20
92.763809838355343
 30
0.0
 40
0.8499675393104554
  0
ARC
  5
18C
100
AcDbEntity
  8
0
  6
CONTINUOUS
 62
               4
100
AcDbCircle
 10
-142.02601164010136
 20
94.663829674667028
 30
0.0
 40
0.4999954224983215
100
AcDbArc
 50
359.99947544974214
 51
90.000524550256856
  0
LINE
  5
18D
100
AcDbEntity
  8
0
  6
CONTINUOUS
 62
               4
100
AcDbLine
 10
-143.776016217624
 20
95.163825097144411
 30
0.0
 11
-142.026016217624
 21
95.163825097144411
 31
0.0
  0
LINE
  5
18E
100
AcDbEntity
  8
0
  6
PHANTOM
 62
             200
100
AcDbLine
 10
-145.026016217624
 20
83.163825097144382
 30
0.0
 11
-145.026016217624
 21
81.163825097144382
 31
0.0
  0
LINE
  5
18F
100
AcDbEntity
  8
0
  6
CONTINUOUS
 62
               7
100
AcDbLine
 10
-151.57601621762399
 20
75.661825097144387
 30
0.0
 11
-141.47601621762402
 21
75.661825097144387
 31
0.0
  0
LINE
  5
190
100
AcDbEntity
  8
0
  6
CONTINUOUS
 62
               7
100
AcDbLine
 10
-133.42601621762401
 20
19.161825092875034
 30
0.0
 11
-140.52601621762403
 21
19.161825092875034
 31
0.0
  0
LINE
  5
191
100
AcDbEntity
  8
0
  6
DASHED
 62
             200
100
AcDbLine
 10
-112.92601621762401
 20
32.521825093886335
 30
0.0
 11
-109.42601621762401
 21
32.661825093886321
 31
0.0
  0
LINE
  5
192
100
AcDbEntity
  8
0
  6
DASHED
 62
             200
100
AcDbLine
 10
-112.92601621762401
 20
19.801825093886308
 30
0.0
 11
-109.42601621762401
 21
19.661825093886321
 31
0.0
  0
LINE
  5
193
100
AcDbEntity
  8
0
  6
DASHED
 62
             200
100
AcDbLine
 10
-109.42601621762401
 20
25.161825093886321
 30
0.0
 11
-112.92601621762401
 21
24.90182509388633
 31
0.0
  0
LINE
  5
194
100
AcDbEntity
  8
0
  6
DASHED
 62
             200
100
AcDbLine
 10
-109.42601621762401
 20
27.161825093886321
 30
0.0
 11
-112.92601621762401
 21
27.421825093886312
 31
0.0
  0
LINE
  5
195
100
AcDbEntity
  8
0
  6
DASHED
 62
             200
100
AcDbLine
 10
-124.42601621762401
 20
34.161825093886321
 30
0.0
 11
-104.92601621762401
 21
34.161825093886321
 31
0.0
  0
LINE
  5
196
100
AcDbEntity
  8
0
  6
DASHED
 62
             200
100
AcDbLine
 10
-124.42601621762401
 20
18.161825093886321
 30
0.0
 11
-104.92601621762401
 21
18.161825093886321
 31
0.0
  0
LINE
  5
197
100
AcDbEntity
  8
0
  6
CENTER
 62
             200
100
AcDbLine
 10
-134.93113669525539
 20
26.161825093886321
 30
0.0
 11
-102.64601621762401
 21
26.161825093886321
 31
0.0
  0
LINE
  5
198
100
AcDbEntity
  8
0
  6
DASHED
 62
             200
100
AcDbLine
 10
-112.92601621762401
 20
65.521825093886335
 30
0.0
 11
-109.42601621762401
 21
65.661825093886321
 31
0.0
  0
LINE
  5
199
100
AcDbEntity
  8
0
  6
DASHED
 62
             200
100
AcDbLine
 10
-112.92601621762401
 20
52.801825093886308
 30
0.0
 11
-109.42601621762401
 21
52.661825093886321
 31
0.0
  0
LINE
  5
19A
100
AcDbEntity
  8
0
  6
DASHED
 62
             200
100
AcDbLine
 10
-109.42601621762401
 20
58.161825093886321
 30
0.0
 11
-112.92601621762401
 21
57.90182509388633
 31
0.0
  0
LINE
  5
19B
100
AcDbEntity
  8
0
  6
DASHED
 62
             200
100
AcDbLine
 10
-109.42601621762401
 20
60.161825093886321
 30
0.0
 11
-112.92601621762401
 21
60.421825093886312
 31
0.0
  0
LINE
  5
19C
100
AcDbEntity
  8
0
  6
DASHED
 62
             200
100
AcDbLine
 10
-124.42601621762401
 20
67.161825093886321
 30
0.0
 11
-104.92601621762401
 21
67.161825093886321
 31
0.0
  0
LINE
  5
19D
100
AcDbEntity
  8
0
  6
DASHED
 62
             200
100
AcDbLine
 10
-124.42601621762401
 20
51.161825093886321
 30
0.0
 11
-104.92601621762401
 21
51.161825093886321
 31
0.0
  0
LINE
  5
19E
100
AcDbEntity
  8
0
  6
CENTER
 62
             200
100
AcDbLine
 10
-134.93113669525539
 20
59.161825093886321
 30
0.0
 11
-102.64601621762401
 21
59.161825093886321
 31
0.0
  0
LINE
  5
19F
100
AcDbEntity
  8
0
  6
CONTINUOUS
 62
               7
100
AcDbLine
 10
17.790670028845909
 20
-148.53313341373493
 30
0.0
 11
17.090670028845892
 21
-148.53313341373493
 31
0.0
  0
LINE
  5
1A0
100
AcDbEntity
  8
0
  6
CONTINUOUS
 62
               7
100
AcDbLine
 10
17.090670028845892
 20
-110.53313341373493
 30
0.0
 11
17.790670028845909
 21
-110.53313341373493
 31
0.0
  0
LINE
  5
1A1
100
AcDbEntity
  8
0
  6
CONTINUOUS
 62
               7
100
AcDbLine
 10
17.790670028845909
 20
-153.0331334142077
 30
0.0
 11
17.790670028845909
 21
-106.03313341171236
 31
0.0
  0
LINE
  5
1A2
100
AcDbEntity
  8
0
  6
CENTER
 62
               2
100
AcDbLine
 10
26.290670028845909
 20
-107.03313341272364
 30
0.0
 11
26.290670028845909
 21
-119.03313341272364
 31
0.0
  0
CIRCLE
  5
1A3
100
AcDbEntity
  8
0
  6
CONTINUOUS
 62
               7
100
AcDbCircle
 10
26.290670028845909
 20
-129.53313341272366
 30
0.0
 40
4.2779998779296875
  0
CIRCLE
  5
1A4
100
AcDbEntity
  8
0
  6
CONTINUOUS
 62
               2
100
AcDbCircle
 10
26.290670028845909
 20
-129.53313341272366
 30
0.0
 40
4.8639993667602539
  0
LINE
  5
1A5
100
AcDbEntity
  8
0
  6
CENTER
 62
               2
100
AcDbLine
 10
20.290670028845909
 20
-129.53313341272366
 30
0.0
 11
32.290670028845909
 21
-129.53313341272366
 31
0.0
  0
CIRCLE
  5
1A6
100
AcDbEntity
  8
0
  6
CONTINUOUS
 62
               7
100
AcDbCircle
 10
26.290670028845909
 20
-113.03313341272364
 30
0.0
 40
4.2779998779296875
  0
CIRCLE
  5
1A7
100
AcDbEntity
  8
0
  6
CONTINUOUS
 62
               2
100
AcDbCircle
 10
26.290670028845909
 20
-113.03313341272364
 30
0.0
 40
4.8639993667602539
  0
LINE
  5
1A8
100
AcDbEntity
  8
0
  6
CENTER
 62
               2
100
AcDbLine
 10
20.290670028845909
 20
-113.03313341272364
 30
0.0
 11
32.290670028845909
 21
-113.03313341272364
 31
0.0
  0
CIRCLE
  5
1A9
100
AcDbEntity
  8
0
  6
CONTINUOUS
 62
               7
100
AcDbCircle
 10
26.290670028845909
 20
-146.03313341272366
 30
0.0
 40
4.2779998779296875
  0
CIRCLE
  5
1AA
100
AcDbEntity
  8
0
  6
CONTINUOUS
 62
               2
100
AcDbCircle
 10
26.290670028845909
 20
-146.03313341272366
 30
0.0
 40
4.8639993667602539
  0
LINE
  5
1AB
100
AcDbEntity
  8
0
  6
CENTER
 62
               2
100
AcDbLine
 10
20.290670028845909
 20
-146.03313341272366
 30
0.0
 11
32.290670028845909
 21
-146.03313341272366
 31
0.0
  0
LINE
  5
1AC
100
AcDbEntity
  8
0
  6
CONTINUOUS
 62
               7
100
AcDbLine
 10
34.790670024207031
 20
-106.03313341171236
 30
0.0
 11
17.790670028845909
 21
-106.03313341171236
 31
0.0
  0
LINE
  5
1AD
100
AcDbEntity
  8
0
  6
CONTINUOUS
 62
               7
100
AcDbLine
 10
34.790670024207031
 20
-153.03313341373493
 30
0.0
 11
17.790670028845909
 21
-153.03313341373493
 31
0.0
  0
LINE
  5
1AE
100
AcDbEntity
  8
0
  6
CONTINUOUS
 62
               7
100
AcDbLine
 10
34.790670028845909
 20
-153.03313341373493
 30
0.0
 11
34.790670028845909
 21
-106.03313341171236
 31
0.0
  0
LINE
  5
1AF
100
AcDbEntity
  8
0
  6
CONTINUOUS
 62
               7
100
AcDbLine
 10
16.990670028845898
 20
-110.03313341373493
 30
0.0
 11
-0.9093299711540794
 21
-110.03313341373493
 31
0.0
  0
LINE
  5
1B0
100
AcDbEntity
  8
0
  6
CONTINUOUS
 62
               7
100
AcDbLine
 10
17.090670028845921
 20
-110.13313341373492
 30
0.0
 11
16.990670028845898
 21
-110.03313341373493
 31
0.0
  0
LINE
  5
1B1
100
AcDbEntity
  8
0
  6
CONTINUOUS
 62
               7
100
AcDbLine
 10
-0.9093299711541079
 20
-149.03313341373493
 30
0.0
 11
17.090670028845892
 21
-149.03313341373493
 31
0.0
  0
LINE
  5
1B2
100
AcDbEntity
  8
0
  6
CONTINUOUS
 62
               7
100
AcDbLine
 10
0.0906700197108705
 20
-139.88313341800426
 30
0.0
 11
-0.9093299711540794
 21
-139.88313341800426
 31
0.0
  0
LINE
  5
1B3
100
AcDbEntity
  8
0
  6
CONTINUOUS
 62
               7
100
AcDbLine
 10
0.0906700197108705
 20
-136.58313341800428
 30
0.0
 11
-0.9093299711540794
 21
-136.58313341800428
 31
0.0
  0
LINE
  5
1B4
100
AcDbEntity
  8
0
  6
CONTINUOUS
 62
               7
100
AcDbLine
 10
0.0906700288459206
 20
-136.58313341800428
 30
0.0
 11
0.0906700288459206
 21
-139.88313341800426
 31
0.0
  0
ARC
  5
1B5
100
AcDbEntity
  8
0
  6
CONTINUOUS
 62
               7
100
AcDbCircle
 10
0.0895820236089264
 20
-139.13422142324129
 30
0.0
 40
0.5989129830170392
100
AcDbArc
 50
179.89591452477256
 51
270.1040854752265
  0
LINE
  5
1B6
100
AcDbEntity
  8
0
  6
CONTINUOUS
 62
               7
100
AcDbLine
 10
-0.5093299711540453
 20
-137.33303827134608
 30
0.0
 11
-0.5093299711540453
 21
-139.13422142324129
 31
0.0
  0
ARC
  5
1B7
100
AcDbEntity
  8
0
  6
CONTINUOUS
 62
               7
100
AcDbCircle
 10
0.0905748821877808
 20
-137.33303827134608
 30
0.0
 40
0.5999048608870732
100
AcDbArc
 50
89.990912722453572
 51
180.00908727754597
  0
LINE
  5
1B8
100
AcDbEntity
  8
0
  6
CENTER
 62
               2
100
AcDbLine
 10
26.290670028845909
 20
-123.53313341272366
 30
0.0
 11
26.290670028845909
 21
-135.53313341272366
 31
0.0
  0
LINE
  5
1B9
100
AcDbEntity
  8
0
  6
CENTER
 62
               2
100
AcDbLine
 10
26.290670028845909
 20
-140.03313341272366
 30
0.0
 11
26.290670028845909
 21
-152.03313341272366
 31
0.0
  0
LINE
  5
1BA
100
AcDbEntity
  8
0
  6
CONTINUOUS
 62
               7
100
AcDbLine
 10
-0.4093299711541079
 20
-154.03313341373502
 30
0.0
 11
16.590670028845892
 21
-154.03313341373502
 31
0.0
  0
ARC
  5
1BB
100
AcDbEntity
  8
0
  6
CONTINUOUS
 62
               7
100
AcDbCircle
 10
16.590670028845921
 20
-153.53313341373502
 30
0.0
 40
0.5
100
AcDbArc
 50
270.00000000000023
 51
0.0
  0
ARC
  5
1BC
100
AcDbEntity
  8
0
  6
CONTINUOUS
 62
               7
100
AcDbCircle
 10
-0.4093299711541079
 20
-153.53313341373502
 30
0.0
 40
0.5
100
AcDbArc
 50
179.99999999999963
 51
269.99999999999937
  0
LINE
  5
1BD
100
AcDbEntity
  8
0
  6
CONTINUOUS
 62
               7
100
AcDbLine
 10
3.2906700288458808
 20
-152.43313343074158
 30
0.0
 11
3.2906700288458808
 21
-153.83313341373503
 31
0.0
  0
LINE
  5
1BE
100
AcDbEntity
  8
0
  6
CONTINUOUS
 62
               7
100
AcDbLine
 10
-0.7093299711541192
 20
-152.233133413735
 30
0.0
 11
3.0906700288458921
 21
-152.233133413735
 31
0.0
  0
ARC
  5
1BF
100
AcDbEntity
  8
0
  6
CONTINUOUS
 62
               7
100
AcDbCircle
 10
3.0906700288458921
 20
-152.43313341373499
 30
0.0
 40
0.2
100
AcDbArc
 50
0.0
 51
89.999999999999815
  0
ARC
  5
1C0
100
AcDbEntity
  8
0
  6
CONTINUOUS
 62
               7
100
AcDbCircle
 10
3.4906700288458694
 20
-153.83313341373503
 30
0.0
 40
0.2
100
AcDbArc
 50
179.99999999999963
 51
269.99999999999937
  0
ARC
  5
1C1
100
AcDbEntity
  8
0
  6
CONTINUOUS
 62
               7
100
AcDbCircle
 10
-0.7093299711541192
 20
-152.03313341373502
 30
0.0
 40
0.2
100
AcDbArc
 50
179.99999999999963
 51
269.99999999999937
  0
LINE
  5
1C2
100
AcDbEntity
  8
0
  6
CONTINUOUS
 62
               7
100
AcDbLine
 10
-0.6593299711541079
 20
-152.77313341373502
 30
0.0
 11
-0.6593299711541079
 21
-152.233133413735
 31
0.0
  0
ARC
  5
1C3
100
AcDbEntity
  8
0
  6
CONTINUOUS
 62
               7
100
AcDbCircle
 10
2.4077697300690204
 20
-152.76051971449533
 30
0.0
 40
0.4330840265925726
100
AcDbArc
 50
297.93703700787626
 51
358.33100760491578
  0
LINE
  5
1C4
100
AcDbEntity
  8
0
  6
CONTINUOUS
 62
               7
100
AcDbLine
 10
2.8406700288458921
 20
-152.77313341373502
 30
0.0
 11
2.8406700288458921
 21
-152.233133413735
 31
0.0
  0
ARC
  5
1C5
100
AcDbEntity
  8
0
  6
CONTINUOUS
 62
               7
100
AcDbCircle
 10
-0.237443840586451
 20
-152.77268760637043
 30
0.0
 40
0.4218863661100916
100
AcDbArc
 50
180.06054446711471
 51
241.41043093672513
  0
ARC
  5
1C6
100
AcDbEntity
  8
0
  6
CONTINUOUS
 62
               7
100
AcDbCircle
 10
1.0856700288458967
 20
-150.32812120907778
 30
0.0
 40
3.2015494236961581
100
AcDbArc
 50
241.55389706210474
 51
298.44610293789401
  0
LINE
  5
1C7
100
AcDbEntity
  8
0
  6
CENTER
 62
               2
100
AcDbLine
 10
37.290670024415789
 20
-112.03313321996617
 30
0.0
 11
32.290670024415789
 21
-112.03313321996617
 31
0.0
  0
LINE
  5
1C8
100
AcDbEntity
  8
0
  6
CENTER
 62
               2
100
AcDbLine
 10
37.290670024415789
 20
-147.03313360548105
 30
0.0
 11
32.290670024415789
 21
-147.03313360548105
 31
0.0
  0
LINE
  5
1C9
100
AcDbEntity
  8
0
  6
DASHED
 62
               2
100
AcDbLine
 10
17.090670028845892
 20
-100.833133413735
 30
0.0
 11
15.490670028845898
 21
-100.833133413735
 31
0.0
  0
LINE
  5
1CA
100
AcDbEntity
  8
0
  6
CENTER
 62
               2
100
AcDbLine
 10
14.67347767742578
 20
-101.833133413735
 30
0.0
 11
17.955536083243857
 21
-101.83313341373501
 31
0.0
  0
LINE
  5
1CB
100
AcDbEntity
  8
0
  6
DASHED
 62
               2
100
AcDbLine
 10
17.090670028845892
 20
-102.833133413735
 30
0.0
 11
15.490670028845898
 21
-102.833133413735
 31
0.0
  0
LINE
  5
1CC
100
AcDbEntity
  8
0
  6
CONTINUOUS
 62
               7
100
AcDbLine
 10
16.790670028845909
 20
-96.033133413735015
 30
0.0
 11
-0.9093299711541079
 21
-96.033133413735015
 31
0.0
  0
LINE
  5
1CD
100
AcDbEntity
  8
0
  6
CONTINUOUS
 62
               7
100
AcDbLine
 10
16.790670028845909
 20
-96.033133413735015
 30
0.0
 11
17.090670028845921
 21
-96.333133413734998
 31
0.0
  0
LINE
  5
1CE
100
AcDbEntity
  8
0
  6
CONTINUOUS
 62
               4
100
AcDbLine
 10
-0.9093299711541079
 20
-96.533133718910804
 30
0.0
 11
-1.9093327876808814
 21
-96.533133718910804
 31
0.0
  0
LINE
  5
1CF
100
AcDbEntity
  8
0
  6
CONTINUOUS
 62
               4
100
AcDbLine
 10
-14.706233910358463
 20
-81.285951101723342
 30
0.0
 11
-14.706233910358463
 21
-81.785951101723342
 31
0.0
  0
ARC
  5
1D0
100
AcDbEntity
  8
0
  6
CONTINUOUS
 62
               4
100
AcDbCircle
 10
1.7735748821877166
 20
-74.633038572252602
 30
0.0
 40
0.5999048608870732
100
AcDbArc
 50
89.99091272245343
 51
123.56005066674096
  0
ARC
  5
1D1
100
AcDbEntity
  8
0
  6
CONTINUOUS
 62
               4
100
AcDbCircle
 10
1.590670028845949
 20
-74.633133718910798
 30
0.0
 40
0.5
100
AcDbArc
 50
114.73039869686018
 51
179.99999999999963
  0
ARC
  5
1D2
100
AcDbEntity
  8
0
  6
CONTINUOUS
 62
               4
100
AcDbCircle
 10
14.590670028845949
 20
-74.633133718910798
 30
0.0
 40
0.5
100
AcDbArc
 50
0.0
 51
89.999999999999815
  0
LINE
  5
1D3
100
AcDbEntity
  8
0
  6
CONTINUOUS
 62
               4
100
AcDbLine
 10
14.590670028845949
 20
-74.133133718910798
 30
0.0
 11
13.090670028845949
 21
-74.133133718910798
 31
0.0
  0
LINE
  5
1D4
100
AcDbEntity
  8
0
  6
CONTINUOUS
 62
               4
100
AcDbLine
 10
1.0906700288458921
 20
-75.633133718910713
 30
0.0
 11
13.090672845372666
 21
-75.633133718910713
 31
0.0
  0
LINE
  5
1D5
100
AcDbEntity
  8
0
  6
CONTINUOUS
 62
               4
100
AcDbLine
 10
13.090672845372666
 20
-74.033133718910719
 30
0.0
 11
13.090672845372666
 21
-75.633133718910713
 31
0.0
  0
LINE
  5
1D6
100
AcDbEntity
  8
0
  6
CONTINUOUS
 62
               4
100
AcDbLine
 10
1.090670028845949
 20
-74.633133718910685
 30
0.0
 11
4.7906700288458808
 21
-74.633133718910685
 31
0.0
  0
ARC
  5
1D7
100
AcDbEntity
  8
0
  6
CONTINUOUS
 62
               4
100
AcDbCircle
 10
1.7735748821877166
 20
-74.633038572252602
 30
0.0
 40
0.5999048608870732
100
AcDbArc
 50
123.56005066674096
 51
180.00908727754583
  0
ARC
  5
1D8
100
AcDbEntity
  8
0
  6
CONTINUOUS
 62
               4
100
AcDbCircle
 10
3.5747580340829188
 20
-74.632045713673776
 30
0.0
 40
0.5989129830170392
100
AcDbArc
 50
359.89591452477293
 51
90.104085475226867
  0
LINE
  5
1D9
100
AcDbEntity
  8
0
  6
CONTINUOUS
 62
               4
100
AcDbLine
 10
1.7735748821876598
 20
-74.033133718910804
 30
0.0
 11
13.090672845372666
 21
-74.033133718910719
 31
0.0
  0
LINE
  5
1DA
100
AcDbEntity
  8
0
  6
CONTINUOUS
 62
               4
100
AcDbLine
 10
4.7906700288458808
 20
-74.633133718910685
 30
0.0
 11
4.7906700288458808
 21
-74.033133718910776
 31
0.0
  0
LINE
  5
1DB
100
AcDbEntity
  8
0
  6
CONTINUOUS
 62
               4
100
AcDbLine
 10
-4.5093327876809042
 20
-79.035133718910785
 30
0.0
 11
-4.5093327876809042
 21
-95.001133718910822
 31
0.0
  0
LINE
  5
1DC
100
AcDbEntity
  8
0
  6
CONTINUOUS
 62
               4
100
AcDbLine
 10
-5.7093327876808928
 20
-82.185133718910819
 30
0.0
 11
-7.9362339103584816
 21
-82.185133718910819
 31
0.0
  0
LINE
  5
1DD
100
AcDbEntity
  8
0
  6
CONTINUOUS
 62
               4
100
AcDbLine
 10
1.0906672123191186
 20
-78.035133718910785
 30
0.0
 11
-4.0093327876809042
 21
-78.035133718910785
 31
0.0
  0
ARC
  5
1DE
100
AcDbEntity
  8
0
  6
CONTINUOUS
 62
               4
100
AcDbCircle
 10
-4.0093703116862969
 20
-78.535096194905393
 30
0.0
 40
0.4999624774027422
100
AcDbArc
 50
89.995699743000799
 51
180.00430025699865
  0
ARC
  5
1DF
100
AcDbEntity
  8
0
  6
CONTINUOUS
 62
               4
100
AcDbCircle
 10
-4.0088683431629022
 20
-95.002006494194532
 30
0.0
 40
0.5004652055472239
100
AcDbArc
 50
179.9000802353213
 51
244.87883575679555
  0
LINE
  5
1E0
100
AcDbEntity
  8
0
  6
CONTINUOUS
 62
               4
100
AcDbLine
 10
-4.5093327876809042
 20
-78.535133718910785
 30
0.0
 11
-4.5093327876809042
 21
-79.035133718910785
 31
0.0
  0
LINE
  5
1E1
100
AcDbEntity
  8
0
  6
CONTINUOUS
 62
               4
100
AcDbLine
 10
-8.4362339103584816
 20
-82.185133718910819
 30
0.0
 11
-11.206233910358463
 21
-82.185133718910819
 31
0.0
  0
LINE
  5
1E2
100
AcDbEntity
  8
0
  6
CONTINUOUS
 62
               4
100
AcDbLine
 10
-7.6862339103584816
 20
-80.885133718910808
 30
0.0
 11
-11.206233910358463
 21
-80.885133718910808
 31
0.0
  0
LINE
  5
1E3
100
AcDbEntity
  8
0
  6
CONTINUOUS
 62
               4
100
AcDbLine
 10
-11.206233910358463
 20
-80.885951101723364
 30
0.0
 11
-11.206233910358463
 21
-82.185951101723319
 31
0.0
  0
LINE
  5
1E4
100
AcDbEntity
  8
0
  6
CONTINUOUS
 62
               4
100
AcDbLine
 10
-4.5093327876809042
 20
-84.035133718910814
 30
0.0
 11
-5.2093327876808928
 21
-84.035133718910814
 31
0.0
  0
LINE
  5
1E5
100
AcDbEntity
  8
0
  6
CONTINUOUS
 62
               4
100
AcDbLine
 10
-5.7093327876808928
 20
-83.535133718910814
 30
0.0
 11
-5.7093327876808928
 21
-79.535133718910785
 31
0.0
  0
LINE
  5
1E6
100
AcDbEntity
  8
0
  6
CONTINUOUS
 62
               4
100
AcDbLine
 10
-4.5093327876809042
 20
-79.035133718910785
 30
0.0
 11
-5.2093327876808928
 21
-79.035133718910785
 31
0.0
  0
ARC
  5
1E7
100
AcDbEntity
  8
0
  6
CONTINUOUS
 62
               4
100
AcDbCircle
 10
-5.2093327876808928
 20
-83.535133718910814
 30
0.0
 40
0.5
100
AcDbArc
 50
179.99999999999963
 51
269.99999999999937
  0
ARC
  5
1E8
100
AcDbEntity
  8
0
  6
CONTINUOUS
 62
               4
100
AcDbCircle
 10
-5.2093327876808928
 20
-79.535133718910785
 30
0.0
 40
0.5
100
AcDbArc
 50
89.999999999999815
 51
179.99999999999963
  0
LINE
  5
1E9
100
AcDbEntity
  8
0
  6
CONTINUOUS
 62
               4
100
AcDbLine
 10
-11.206233910358463
 20
-81.785951101723342
 30
0.0
 11
-14.706233910358463
 21
-81.785951101723342
 31
0.0
  0
LINE
  5
1EA
100
AcDbEntity
  8
0
  6
CONTINUOUS
 62
               4
100
AcDbLine
 10
-11.206233910358463
 20
-81.285951101723342
 30
0.0
 11
-14.706233910358463
 21
-81.285951101723342
 31
0.0
  0
LINE
  5
1EB
100
AcDbEntity
  8
0
  6
CONTINUOUS
 62
               4
100
AcDbLine
 10
-1.9093327876808814
 20
-96.533133718910804
 30
0.0
 11
-4.2213327876808933
 21
-95.455133718910801
 31
0.0
  0
LINE
  5
1EC
100
AcDbEntity
  8
0
  6
CONTINUOUS
 62
               4
100
AcDbLine
 10
-1.9093327876808814
 20
-96.533133718910804
 30
0.0
 11
-1.9093327876808814
 21
-78.035133718910785
 31
0.0
  0
LINE
  5
1ED
100
AcDbEntity
  8
0
  6
CONTINUOUS
 62
               4
100
AcDbLine
 10
15.090670028845892
 20
-74.633133718910798
 30
0.0
 11
15.090670028845892
 21
-96.033133413735015
 31
0.0
  0
LINE
  5
1EE
100
AcDbEntity
  8
0
  6
CONTINUOUS
 62
               4
100
AcDbLine
 10
1.0906700288458921
 20
-96.033133413735015
 30
0.0
 11
1.0906700288458921
 21
-74.633133723978531
 31
0.0
  0
LINE
  5
1EF
100
AcDbEntity
  8
0
  6
CONTINUOUS
 62
             200
100
AcDbLine
 10
-7.3402339103584779
 20
-80.285133718910785
 30
0.0
 11
-8.7842339103584379
 21
-82.785133718910814
 31
0.0
  0
LINE
  5
1F0
100
AcDbEntity
  8
0
  6
CONTINUOUS
 62
               4
100
AcDbLine
 10
-5.7093327876808928
 20
-80.885133718910808
 30
0.0
 11
-7.1862339103584816
 21
-80.885133718910808
 31
0.0
  0
LINE
  5
1F1
100
AcDbEntity
  8
0
  6
CONTINUOUS
 62
             200
100
AcDbLine
 10
-6.8402339103584779
 20
-80.285133718910785
 30
0.0
 11
-8.2842339103584379
 21
-82.785133718910814
 31
0.0
  0
LINE
  5
1F2
100
AcDbEntity
  8
0
  6
CONTINUOUS
 62
               7
100
AcDbLine
 10
-0.9093299711541079
 20
-153.53313341373502
 30
0.0
 11
-0.9093299711541079
 21
-96.033133413735015
 31
0.0
  0
LINE
  5
1F3
100
AcDbEntity
  8
0
  6
CONTINUOUS
 62
               7
100
AcDbLine
 10
17.090670028845921
 20
-153.53313341373502
 30
0.0
 11
17.090670028845921
 21
-96.333133413734998
 31
0.0
  0
LINE
  5
1F4
100
AcDbEntity
  8
0
  6
CENTER
 62
               2
100
AcDbLine
 10
8.0906700288458921
 20
-72.133133714641332
 30
0.0
 11
8.0906700288458921
 21
-157.00630644882639
 31
0.0
  0
LINE
  5
1F5
100
AcDbEntity
  8
0
  6
CENTER
 62
               2
100
AcDbLine
 10
-158.44266321034411
 20
-143.83313341272367
 30
0.0
 11
-158.44266321034411
 21
-131.83313341272367
 31
0.0
  0
CIRCLE
  5
1F6
100
AcDbEntity
  8
0
  6
CONTINUOUS
 62
               2
100
AcDbCircle
 10
-158.44266321034411
 20
-121.33313341272367
 30
0.0
 40
4.8639993667602539
  0
CIRCLE
  5
1F7
100
AcDbEntity
  8
0
  6
CONTINUOUS
 62
               7
100
AcDbCircle
 10
-158.44266321034411
 20
-121.33313341272367
 30
0.0
 40
4.2779998779296875
  0
LINE
  5
1F8
100
AcDbEntity
  8
0
  6
CONTINUOUS
 62
               7
100
AcDbLine
 10
-149.94266321498301
 20
-153.0331334142077
 30
0.0
 11
-149.94266321498299
 21
-106.03313341171237
 31
0.0
  0
LINE
  5
1F9
100
AcDbEntity
  8
0
  6
CONTINUOUS
 62
               7
100
AcDbLine
 10
-166.94266321498299
 20
-153.03313341373493
 30
0.0
 11
-166.94266321498299
 21
-106.03313341171237
 31
0.0
  0
LINE
  5
1FA
100
AcDbEntity
  8
0
  6
CONTINUOUS
 62
               7
100
AcDbLine
 10
-131.242663214983
 20
-149.03313341373493
 30
0.0
 11
-149.242663214983
 21
-149.0331334137349
 31
0.0
  0
LINE
  5
1FB
100
AcDbEntity
  8
0
  6
CONTINUOUS
 62
               7
100
AcDbLine
 10
-166.94266321034411
 20
-153.03313341373493
 30
0.0
 11
-149.94266321498301
 21
-153.03313341373493
 31
0.0
  0
LINE
  5
1FC
100
AcDbEntity
  8
0
  6
CONTINUOUS
 62
               7
100
AcDbLine
 10
-149.94266321498299
 20
-148.5331334137349
 30
0.0
 11
-149.242663214983
 21
-148.5331334137349
 31
0.0
  0
CIRCLE
  5
1FD
100
AcDbEntity
  8
0
  6
CONTINUOUS
 62
               7
100
AcDbCircle
 10
-158.44266321034411
 20
-137.83313341272367
 30
0.0
 40
4.2779998779296875
  0
CIRCLE
  5
1FE
100
AcDbEntity
  8
0
  6
CONTINUOUS
 62
               2
100
AcDbCircle
 10
-158.44266321034411
 20
-137.83313341272367
 30
0.0
 40
4.8639993667602539
  0
LINE
  5
1FF
100
AcDbEntity
  8
0
  6
CENTER
 62
               2
100
AcDbLine
 10
-152.44266321034411
 20
-137.83313341272367
 30
0.0
 11
-164.44266321034411
 21
-137.83313341272367
 31
0.0
  0
LINE
  5
200
100
AcDbEntity
  8
0
  6
CONTINUOUS
 62
               7
100
AcDbLine
 10
-149.14266321498297
 20
-110.03313341373492
 30
0.0
 11
-131.242663214983
 21
-110.03313341373492
 31
0.0
  0
LINE
  5
201
100
AcDbEntity
  8
0
  6
CONTINUOUS
 62
               7
100
AcDbLine
 10
-148.94266321498299
 20
-96.033133413734987
 30
0.0
 11
-149.242663214983
 21
-96.333133413734998
 31
0.0
  0
LINE
  5
202
100
AcDbEntity
  8
0
  6
CONTINUOUS
 62
               7
100
AcDbLine
 10
-149.24266321498297
 20
-110.133133413735
 30
0.0
 11
-149.14266321498297
 21
-110.033133413735
 31
0.0
  0
LINE
  5
203
100
AcDbEntity
  8
0
  6
CONTINUOUS
 62
               7
100
AcDbLine
 10
-148.94266321498299
 20
-96.033133413734987
 30
0.0
 11
-131.24266321498297
 21
-96.033133413734987
 31
0.0
  0
LINE
  5
204
100
AcDbEntity
  8
0
  6
CONTINUOUS
 62
               7
100
AcDbLine
 10
-166.94266321034411
 20
-106.03313341171237
 30
0.0
 11
-149.94266321498299
 21
-106.03313341171237
 31
0.0
  0
LINE
  5
205
100
AcDbEntity
  8
0
  6
CONTINUOUS
 62
               7
100
AcDbLine
 10
-149.24266321498297
 20
-110.53313341373492
 30
0.0
 11
-149.94266321498299
 21
-110.53313341373492
 31
0.0
  0
LINE
  5
206
100
AcDbEntity
  8
0
  6
CENTER
 62
               2
100
AcDbLine
 10
-152.44266321034411
 20
-121.33313341272367
 30
0.0
 11
-164.44266321034411
 21
-121.33313341272367
 31
0.0
  0
LINE
  5
207
100
AcDbEntity
  8
0
  6
CONTINUOUS
 62
               7
100
AcDbLine
 10
-132.24266320584795
 20
-119.18313340946558
 30
0.0
 11
-131.242663214983
 21
-119.18313340946558
 31
0.0
  0
LINE
  5
208
100
AcDbEntity
  8
0
  6
CONTINUOUS
 62
               7
100
AcDbLine
 10
-132.24266320584795
 20
-122.48313340946558
 30
0.0
 11
-131.242663214983
 21
-122.48313340946558
 31
0.0
  0
ARC
  5
209
100
AcDbEntity
  8
0
  6
CONTINUOUS
 62
               7
100
AcDbCircle
 10
-132.24256806832486
 20
-121.73322855612378
 30
0.0
 40
0.5999048608870732
100
AcDbArc
 50
269.99091272245317
 51
0.0090872775463741
  0
LINE
  5
20A
100
AcDbEntity
  8
0
  6
CONTINUOUS
 62
               7
100
AcDbLine
 10
-131.64266321498303
 20
-121.73322855612378
 30
0.0
 11
-131.64266321498303
 21
-119.93204540422857
 31
0.0
  0
ARC
  5
20B
100
AcDbEntity
  8
0
  6
CONTINUOUS
 62
               7
100
AcDbCircle
 10
-132.241575209746
 20
-119.93204540422857
 30
0.0
 40
0.5989129830170392
100
AcDbArc
 50
359.89591452477219
 51
90.104085475226924
  0
LINE
  5
20C
100
AcDbEntity
  8
0
  6
CONTINUOUS
 62
               7
100
AcDbLine
 10
-132.242663214983
 20
-122.48313340946558
 30
0.0
 11
-132.242663214983
 21
-119.18313340946558
 31
0.0
  0
LINE
  5
20D
100
AcDbEntity
  8
0
  6
CENTER
 62
               2
100
AcDbLine
 10
-158.44266321034411
 20
-127.33313341272367
 30
0.0
 11
-158.44266321034411
 21
-115.33313341272367
 31
0.0
  0
LINE
  5
20E
100
AcDbEntity
  8
0
  6
CONTINUOUS
 62
               7
100
AcDbLine
 10
-131.24266321498297
 20
-153.53313341373502
 30
0.0
 11
-131.24266321498297
 21
-96.033133413734987
 31
0.0
  0
LINE
  5
20F
100
AcDbEntity
  8
0
  6
CONTINUOUS
 62
               7
100
AcDbLine
 10
-149.242663214983
 20
-153.53313341373502
 30
0.0
 11
-149.242663214983
 21
-96.33313341373497
 31
0.0
  0
ARC
  5
210
100
AcDbEntity
  8
0
  6
CONTINUOUS
 62
               7
100
AcDbCircle
 10
-147.24766321498299
 20
-150.32812120907778
 30
0.0
 40
3.2015494236961581
100
AcDbArc
 50
241.55389706210474
 51
298.44610293789401
  0
ARC
  5
211
100
AcDbEntity
  8
0
  6
CONTINUOUS
 62
               7
100
AcDbCircle
 10
-148.57077708441534
 20
-152.77268760637043
 30
0.0
 40
0.4218863661100916
100
AcDbArc
 50
180.06054446711471
 51
241.41043093672513
  0
LINE
  5
212
100
AcDbEntity
  8
0
  6
CONTINUOUS
 62
               7
100
AcDbLine
 10
-145.492663214983
 20
-152.77313341373502
 30
0.0
 11
-145.492663214983
 21
-152.233133413735
 31
0.0
  0
ARC
  5
213
100
AcDbEntity
  8
0
  6
CONTINUOUS
 62
               7
100
AcDbCircle
 10
-145.92556351375987
 20
-152.76051971449533
 30
0.0
 40
0.4330840265925726
100
AcDbArc
 50
297.93703700787626
 51
358.33100760491578
  0
LINE
  5
214
100
AcDbEntity
  8
0
  6
CONTINUOUS
 62
               7
100
AcDbLine
 10
-148.992663214983
 20
-152.77313341373502
 30
0.0
 11
-148.992663214983
 21
-152.233133413735
 31
0.0
  0
ARC
  5
215
100
AcDbEntity
  8
0
  6
CONTINUOUS
 62
               7
100
AcDbCircle
 10
-149.04266321498301
 20
-152.03313341373502
 30
0.0
 40
0.2
100
AcDbArc
 50
179.99999999999963
 51
269.99999999999937
  0
ARC
  5
216
100
AcDbEntity
  8
0
  6
CONTINUOUS
 62
               7
100
AcDbCircle
 10
-144.84266321498302
 20
-153.83313341373503
 30
0.0
 40
0.2
100
AcDbArc
 50
179.99999999999963
 51
269.99999999999937
  0
ARC
  5
217
100
AcDbEntity
  8
0
  6
CONTINUOUS
 62
               7
100
AcDbCircle
 10
-145.242663214983
 20
-152.43313341373499
 30
0.0
 40
0.2
100
AcDbArc
 50
0.0
 51
89.999999999999815
  0
LINE
  5
218
100
AcDbEntity
  8
0
  6
CONTINUOUS
 62
               7
100
AcDbLine
 10
-149.04266321498301
 20
-152.233133413735
 30
0.0
 11
-145.242663214983
 21
-152.233133413735
 31
0.0
  0
LINE
  5
219
100
AcDbEntity
  8
0
  6
CONTINUOUS
 62
               7
100
AcDbLine
 10
-145.04266321498301
 20
-152.43313343074158
 30
0.0
 11
-145.04266321498301
 21
-153.83313341373503
 31
0.0
  0
ARC
  5
21A
100
AcDbEntity
  8
0
  6
CONTINUOUS
 62
               7
100
AcDbCircle
 10
-148.742663214983
 20
-153.53313341373502
 30
0.0
 40
0.5
100
AcDbArc
 50
179.99999999999963
 51
269.99999999999937
  0
ARC
  5
21B
100
AcDbEntity
  8
0
  6
CONTINUOUS
 62
               7
100
AcDbCircle
 10
-131.74266321498297
 20
-153.53313341373502
 30
0.0
 40
0.5
100
AcDbArc
 50
270.00000000000023
 51
0.0
  0
LINE
  5
21C
100
AcDbEntity
  8
0
  6
CONTINUOUS
 62
               7
100
AcDbLine
 10
-148.742663214983
 20
-154.03313341373502
 30
0.0
 11
-131.742663214983
 21
-154.03313341373502
 31
0.0
  0
LINE
  5
21D
100
AcDbEntity
  8
0
  6
CENTER
 62
               2
100
AcDbLine
 10
-140.242663214983
 20
-71.403882667898657
 30
0.0
 11
-140.242663214983
 21
-157.00630644882639
 31
0.0
  0
LINE
  5
21E
100
AcDbEntity
  8
0
  6
CENTER
 62
               2
100
AcDbLine
 10
-169.44266320127514
 20
-112.03313321996619
 30
0.0
 11
-164.44266320127514
 21
-112.03313321996619
 31
0.0
  0
LINE
  5
21F
100
AcDbEntity
  8
0
  6
CENTER
 62
               2
100
AcDbLine
 10
-169.44266320127514
 20
-147.03313360548105
 30
0.0
 11
-164.44266320127514
 21
-147.03313360548105
 31
0.0
  0
LINE
  5
220
100
AcDbEntity
  8
0
  6
CONTINUOUS
 62
               4
100
AcDbLine
 10
-133.242663214983
 20
-96.033133413734987
 30
0.0
 11
-133.242663214983
 21
-74.633133723978503
 31
0.0
  0
LINE
  5
221
100
AcDbEntity
  8
0
  6
CONTINUOUS
 62
               4
100
AcDbLine
 10
-147.242663214983
 20
-74.63313371891077
 30
0.0
 11
-147.242663214983
 21
-96.033133413734987
 31
0.0
  0
LINE
  5
222
100
AcDbEntity
  8
0
  6
CONTINUOUS
 62
               4
100
AcDbLine
 10
-130.24266039845622
 20
-96.533133718910776
 30
0.0
 11
-130.24266039845622
 21
-78.035133718910757
 31
0.0
  0
LINE
  5
223
100
AcDbEntity
  8
0
  6
CONTINUOUS
 62
               4
100
AcDbLine
 10
-130.24266039845622
 20
-96.533133718910776
 30
0.0
 11
-127.93066039845621
 21
-95.455133718910773
 31
0.0
  0
LINE
  5
224
100
AcDbEntity
  8
0
  6
CONTINUOUS
 62
               4
100
AcDbLine
 10
-120.94575927577864
 20
-81.285951101723313
 30
0.0
 11
-117.44575927577864
 21
-81.285951101723313
 31
0.0
  0
LINE
  5
225
100
AcDbEntity
  8
0
  6
CONTINUOUS
 62
               4
100
AcDbLine
 10
-120.94575927577864
 20
-81.785951101723313
 30
0.0
 11
-117.44575927577864
 21
-81.785951101723313
 31
0.0
  0
ARC
  5
226
100
AcDbEntity
  8
0
  6
CONTINUOUS
 62
               4
100
AcDbCircle
 10
-126.94266039845621
 20
-79.535133718910757
 30
0.0
 40
0.5
100
AcDbArc
 50
0.0
 51
89.999999999999815
  0
ARC
  5
227
100
AcDbEntity
  8
0
  6
CONTINUOUS
 62
               4
100
AcDbCircle
 10
-126.94266039845621
 20
-83.535133718910785
 30
0.0
 40
0.5
100
AcDbArc
 50
270.00000000000023
 51
0.0
  0
LINE
  5
228
100
AcDbEntity
  8
0
  6
CONTINUOUS
 62
               4
100
AcDbLine
 10
-127.6426603984562
 20
-79.035133718910757
 30
0.0
 11
-126.94266039845621
 21
-79.035133718910757
 31
0.0
  0
LINE
  5
229
100
AcDbEntity
  8
0
  6
CONTINUOUS
 62
               4
100
AcDbLine
 10
-126.44266039845621
 20
-83.535133718910785
 30
0.0
 11
-126.44266039845621
 21
-79.535133718910757
 31
0.0
  0
LINE
  5
22A
100
AcDbEntity
  8
0
  6
CONTINUOUS
 62
               4
100
AcDbLine
 10
-131.24266321498297
 20
-96.533133718910776
 30
0.0
 11
-130.24266039845622
 21
-96.533133718910776
 31
0.0
  0
LINE
  5
22B
100
AcDbEntity
  8
0
  6
CONTINUOUS
 62
               4
100
AcDbLine
 10
-117.44575927577864
 20
-81.285951101723313
 30
0.0
 11
-117.44575927577864
 21
-81.785951101723313
 31
0.0
  0
ARC
  5
22C
100
AcDbEntity
  8
0
  6
CONTINUOUS
 62
               4
100
AcDbCircle
 10
-146.55975836164117
 20
-74.633038572252573
 30
0.0
 40
0.5999048608870732
100
AcDbArc
 50
89.99091272245343
 51
123.56005066674096
  0
ARC
  5
22D
100
AcDbEntity
  8
0
  6
CONTINUOUS
 62
               4
100
AcDbCircle
 10
-146.74266321498294
 20
-74.63313371891077
 30
0.0
 40
0.5
100
AcDbArc
 50
114.73039869686018
 51
179.99999999999963
  0
ARC
  5
22E
100
AcDbEntity
  8
0
  6
CONTINUOUS
 62
               4
100
AcDbCircle
 10
-133.74266321498294
 20
-74.63313371891077
 30
0.0
 40
0.5
100
AcDbArc
 50
0.0
 51
89.999999999999815
  0
LINE
  5
22F
100
AcDbEntity
  8
0
  6
CONTINUOUS
 62
               4
100
AcDbLine
 10
-133.74266321498294
 20
-74.13313371891077
 30
0.0
 11
-135.24266321498294
 21
-74.13313371891077
 31
0.0
  0
LINE
  5
230
100
AcDbEntity
  8
0
  6
CONTINUOUS
 62
               4
100
AcDbLine
 10
-147.242663214983
 20
-75.633133718910685
 30
0.0
 11
-135.24266039845622
 21
-75.633133718910685
 31
0.0
  0
LINE
  5
231
100
AcDbEntity
  8
0
  6
CONTINUOUS
 62
               4
100
AcDbLine
 10
-135.24266039845622
 20
-74.03313371891069
 30
0.0
 11
-135.24266039845622
 21
-75.633133718910685
 31
0.0
  0
LINE
  5
232
100
AcDbEntity
  8
0
  6
CONTINUOUS
 62
               4
100
AcDbLine
 10
-147.24266321498294
 20
-74.633133718910656
 30
0.0
 11
-143.54266321498301
 21
-74.633133718910656
 31
0.0
  0
ARC
  5
233
100
AcDbEntity
  8
0
  6
CONTINUOUS
 62
               4
100
AcDbCircle
 10
-146.55975836164117
 20
-74.633038572252573
 30
0.0
 40
0.5999048608870732
100
AcDbArc
 50
123.56005066674096
 51
180.00908727754583
  0
ARC
  5
234
100
AcDbEntity
  8
0
  6
CONTINUOUS
 62
               4
100
AcDbCircle
 10
-144.75857520974597
 20
-74.632045713673747
 30
0.0
 40
0.5989129830170392
100
AcDbArc
 50
359.89591452477293
 51
90.104085475226867
  0
LINE
  5
235
100
AcDbEntity
  8
0
  6
CONTINUOUS
 62
               4
100
AcDbLine
 10
-146.55975836164123
 20
-74.033133718910776
 30
0.0
 11
-135.24266039845622
 21
-74.03313371891069
 31
0.0
  0
LINE
  5
236
100
AcDbEntity
  8
0
  6
CONTINUOUS
 62
               4
100
AcDbLine
 10
-143.54266321498301
 20
-74.633133718910656
 30
0.0
 11
-143.54266321498301
 21
-74.033133718910747
 31
0.0
  0
LINE
  5
237
100
AcDbEntity
  8
0
  6
CONTINUOUS
 62
               4
100
AcDbLine
 10
-127.6426603984562
 20
-79.035133718910757
 30
0.0
 11
-127.6426603984562
 21
-95.001133718910793
 31
0.0
  0
LINE
  5
238
100
AcDbEntity
  8
0
  6
CONTINUOUS
 62
               4
100
AcDbLine
 10
-126.44266039845621
 20
-80.88513371891078
 30
0.0
 11
-124.96575927577862
 21
-80.88513371891078
 31
0.0
  0
LINE
  5
239
100
AcDbEntity
  8
0
  6
CONTINUOUS
 62
               4
100
AcDbLine
 10
-126.44266039845621
 20
-82.185133718910791
 30
0.0
 11
-124.21575927577862
 21
-82.185133718910791
 31
0.0
  0
LINE
  5
23A
100
AcDbEntity
  8
0
  6
CONTINUOUS
 62
               4
100
AcDbLine
 10
-133.24266039845622
 20
-78.035133718910757
 30
0.0
 11
-128.1426603984562
 21
-78.035133718910757
 31
0.0
  0
ARC
  5
23B
100
AcDbEntity
  8
0
  6
CONTINUOUS
 62
               4
100
AcDbCircle
 10
-128.14262287445081
 20
-78.535096194905364
 30
0.0
 40
0.4999624774027422
100
AcDbArc
 50
359.99569974300096
 51
90.004300256998803
  0
ARC
  5
23C
100
AcDbEntity
  8
0
  6
CONTINUOUS
 62
               4
100
AcDbCircle
 10
-128.1431248429742
 20
-95.002006494194504
 30
0.0
 40
0.5004652055472239
100
AcDbArc
 50
295.12116424320402
 51
0.0999197646782735
  0
LINE
  5
23D
100
AcDbEntity
  8
0
  6
CONTINUOUS
 62
               4
100
AcDbLine
 10
-127.6426603984562
 20
-78.535133718910757
 30
0.0
 11
-127.6426603984562
 21
-79.035133718910757
 31
0.0
  0
LINE
  5
23E
100
AcDbEntity
  8
0
  6
CONTINUOUS
 62
               4
100
AcDbLine
 10
-123.71575927577862
 20
-82.185133718910791
 30
0.0
 11
-120.94575927577864
 21
-82.185133718910791
 31
0.0
  0
LINE
  5
23F
100
AcDbEntity
  8
0
  6
CONTINUOUS
 62
               4
100
AcDbLine
 10
-124.46575927577862
 20
-80.88513371891078
 30
0.0
 11
-120.94575927577864
 21
-80.88513371891078
 31
0.0
  0
LINE
  5
240
100
AcDbEntity
  8
0
  6
CONTINUOUS
 62
               4
100
AcDbLine
 10
-120.94575927577864
 20
-80.885951101723336
 30
0.0
 11
-120.94575927577864
 21
-82.18595110172329
 31
0.0
  0
LINE
  5
241
100
AcDbEntity
  8
0
  6
CONTINUOUS
 62
               4
100
AcDbLine
 10
-127.6426603984562
 20
-84.035133718910785
 30
0.0
 11
-126.94266039845621
 21
-84.035133718910785
 31
0.0
  0
LINE
  5
242
100
AcDbEntity
  8
0
  6
CONTINUOUS
 62
             200
100
AcDbLine
 10
-125.31175927577863
 20
-80.285133718910757
 30
0.0
 11
-123.86775927577867
 21
-82.785133718910785
 31
0.0
  0
LINE
  5
243
100
AcDbEntity
  8
0
  6
CONTINUOUS
 62
             200
100
AcDbLine
 10
-124.81175927577863
 20
-80.285133718910757
 30
0.0
 11
-123.36775927577867
 21
-82.785133718910785
 31
0.0
  0
LINE
  5
244
100
AcDbEntity
  8
0
  6
CONTINUOUS
 62
               7
100
AcDbLine
 10
-55.475996593068544
 20
-153.03313341373493
 30
0.0
 11
-62.575996593068567
 21
-153.03313341373493
 31
0.0
  0
LINE
  5
245
100
AcDbEntity
  8
0
  6
CONTINUOUS
 62
               7
100
AcDbLine
 10
-73.625996593068521
 20
-96.533133409465577
 30
0.0
 11
-63.525996593068555
 21
-96.533133409465577
 31
0.0
  0
LINE
  5
246
100
AcDbEntity
  8
0
  6
PHANTOM
 62
             200
100
AcDbLine
 10
-70.07599659306851
 20
-89.031133409465582
 30
0.0
 11
-70.07599659306851
 21
-91.031133409465582
 31
0.0
  0
LINE
  5
247
100
AcDbEntity
  8
0
  6
CONTINUOUS
 62
               7
100
AcDbLine
 10
-74.576945079396722
 20
-106.03313341171236
 30
0.0
 11
-83.675996590138425
 21
-106.03313341171236
 31
0.0
  0
CIRCLE
  5
248
100
AcDbEntity
  8
0
  6
CONTINUOUS
 62
               7
100
AcDbCircle
 10
-79.675996593068533
 20
-147.03313360548105
 30
0.0
 40
2.25
  0
CIRCLE
  5
249
100
AcDbEntity
  8
0
  6
CONTINUOUS
 62
               7
100
AcDbCircle
 10
-79.675996593068533
 20
-112.03313321996619
 30
0.0
 40
2.25
  0
LINE
  5
24A
100
AcDbEntity
  8
0
  6
CONTINUOUS
 62
               7
100
AcDbLine
 10
-83.675996593068533
 20
-153.03313341373493
 30
0.0
 11
-83.675996593068533
 21
-106.03313341171236
 31
0.0
  0
LINE
  5
24B
100
AcDbEntity
  8
0
  6
CONTINUOUS
 62
               7
100
AcDbLine
 10
-55.475996593068544
 20
-153.03313341373493
 30
0.0
 11
-55.475996593068544
 21
-106.03313341171236
 31
0.0
  0
LINE
  5
24C
100
AcDbEntity
  8
0
  6
CENTER
 62
               2
100
AcDbLine
 10
-75.168676932379526
 20
-147.03313360548105
 30
0.0
 11
-83.960550462244612
 21
-147.03313360548105
 31
0.0
  0
LINE
  5
24D
100
AcDbEntity
  8
0
  6
CENTER
 62
               2
100
AcDbLine
 10
-79.675996593068533
 20
-151.03313360548105
 30
0.0
 11
-79.675996593068533
 21
-142.2083269892799
 31
0.0
  0
LINE
  5
24E
100
AcDbEntity
  8
0
  6
CENTER
 62
               2
100
AcDbLine
 10
-75.168676932379526
 20
-112.03313321996619
 30
0.0
 11
-83.960550462244612
 21
-112.03313321996619
 31
0.0
  0
LINE
  5
24F
100
AcDbEntity
  8
0
  6
CENTER
 62
               2
100
AcDbLine
 10
-79.675996593068533
 20
-108.0331332199662
 30
0.0
 11
-79.675996593068533
 21
-116.85793983616735
 31
0.0
  0
LINE
  5
250
100
AcDbEntity
  8
0
  6
CONTINUOUS
 62
               7
100
AcDbLine
 10
-55.475996593068544
 20
-106.03313341171236
 30
0.0
 11
-62.576945079396722
 21
-106.03313341171236
 31
0.0
  0
LINE
  5
251
100
AcDbEntity
  8
0
  6
CONTINUOUS
 62
               7
100
AcDbLine
 10
-63.525996593068555
 20
-96.23313340946558
 30
0.0
 11
-63.325996593068538
 21
-96.033133409465577
 31
0.0
  0
LINE
  5
252
100
AcDbEntity
  8
0
  6
CONTINUOUS
 62
               7
100
AcDbLine
 10
-73.625996593068521
 20
-96.23313340946558
 30
0.0
 11
-73.825996593068538
 21
-96.033133409465577
 31
0.0
  0
LINE
  5
253
100
AcDbEntity
  8
0
  6
CONTINUOUS
 62
               7
100
AcDbLine
 10
-73.625996593068521
 20
-96.23313340946558
 30
0.0
 11
-73.625996593068521
 21
-96.533133409465577
 31
0.0
  0
LINE
  5
254
100
AcDbEntity
  8
0
  6
CONTINUOUS
 62
               7
100
AcDbLine
 10
-63.525996593068555
 20
-96.23313340946558
 30
0.0
 11
-63.525996593068555
 21
-96.533133409465577
 31
0.0
  0
LINE
  5
255
100
AcDbEntity
  8
0
  6
CONTINUOUS
 62
               7
100
AcDbLine
 10
-62.87599659306855
 20
-96.033133409465577
 30
0.0
 11
-62.575996593068538
 21
-96.333133409465574
 31
0.0
  0
LINE
  5
256
100
AcDbEntity
  8
0
  6
CONTINUOUS
 62
               7
100
AcDbLine
 10
-74.275996593068555
 20
-96.033133409465577
 30
0.0
 11
-74.575996593068538
 21
-96.333133409465574
 31
0.0
  0
LINE
  5
257
100
AcDbEntity
  8
0
  6
CONTINUOUS
 62
               7
100
AcDbLine
 10
-74.275996593068555
 20
-96.033133409465577
 30
0.0
 11
-73.825996593068538
 21
-96.033133409465577
 31
0.0
  0
CIRCLE
  5
258
100
AcDbEntity
  8
0
  6
CONTINUOUS
 62
               7
100
AcDbCircle
 10
-68.575746593068544
 20
-98.833133409465574
 30
0.0
 40
1.1500000000000001
  0
LINE
  5
259
100
AcDbEntity
  8
0
  6
CONTINUOUS
 62
               7
100
AcDbLine
 10
-63.325996593068538
 20
-96.033133409465577
 30
0.0
 11
-62.87599659306855
 21
-96.033133409465577
 31
0.0
  0
LINE
  5
25A
100
AcDbEntity
  8
0
  6
CONTINUOUS
 62
               7
100
AcDbLine
 10
-74.575996593068538
 20
-149.03313340946556
 30
0.0
 11
-62.575996593068567
 21
-149.03313340946556
 31
0.0
  0
LINE
  5
25B
100
AcDbEntity
  8
0
  6
CENTER
 62
               2
100
AcDbLine
 10
-66.261066457344185
 20
-98.833133395878605
 30
0.0
 11
-70.799940745744209
 21
-98.833133395878605
 31
0.0
  0
CIRCLE
  5
25C
100
AcDbEntity
  8
0
  6
CONTINUOUS
 62
               7
100
AcDbCircle
 10
-68.575996593068538
 20
-98.833133395878605
 30
0.0
 40
1.1000000000000001
  0
CIRCLE
  5
25D
100
AcDbEntity
  8
0
  6
CONTINUOUS
 62
               7
100
AcDbCircle
 10
-68.575996593068538
 20
-98.833133395878605
 30
0.0
 40
0.75
  0
CIRCLE
  5
25E
100
AcDbEntity
  8
0
  6
CONTINUOUS
 62
               7
100
AcDbCircle
 10
-68.575996593068538
 20
-98.833133395878605
 30
0.0
 40
1.3999999999999997
  0
LINE
  5
25F
100
AcDbEntity
  8
0
  6
CONTINUOUS
 62
               7
100
AcDbLine
 10
-74.475996596620604
 20
-110.03313340946556
 30
0.0
 11
-74.575996593068567
 21
-110.1331334059135
 31
0.0
  0
LINE
  5
260
100
AcDbEntity
  8
0
  6
CONTINUOUS
 62
               7
100
AcDbLine
 10
-62.575996593068538
 20
-110.13313340946556
 30
0.0
 11
-62.675996593068561
 21
-110.03313340946556
 31
0.0
  0
LINE
  5
261
100
AcDbEntity
  8
0
  6
CONTINUOUS
 62
               7
100
AcDbLine
 10
-74.57599659306851
 20
-110.03313340946556
 30
0.0
 11
-62.57599659306851
 21
-110.03313340946556
 31
0.0
  0
LINE
  5
262
100
AcDbEntity
  8
0
  6
CONTINUOUS
 62
               7
100
AcDbLine
 10
-73.37599659306855
 20
-122.48313340946558
 30
0.0
 11
-74.575996593068538
 21
-122.48313340946558
 31
0.0
  0
LINE
  5
263
100
AcDbEntity
  8
0
  6
CONTINUOUS
 62
               7
100
AcDbLine
 10
-73.37599659306855
 20
-119.18313340946557
 30
0.0
 11
-74.575996593068538
 21
-119.18313340946557
 31
0.0
  0
ARC
  5
264
100
AcDbEntity
  8
0
  6
CONTINUOUS
 62
               7
100
AcDbCircle
 10
-73.37599659306855
 20
-120.83313340946557
 30
0.0
 40
1.6499999999999999
100
AcDbArc
 50
269.99999999999937
 51
89.999999999999801
  0
LINE
  5
265
100
AcDbEntity
  8
0
  6
CONTINUOUS
 62
               7
100
AcDbLine
 10
-63.775996593068555
 20
-139.88313340946559
 30
0.0
 11
-62.575996593068567
 21
-139.88313340946559
 31
0.0
  0
LINE
  5
266
100
AcDbEntity
  8
0
  6
CONTINUOUS
 62
               7
100
AcDbLine
 10
-63.775996593068555
 20
-136.58313340946557
 30
0.0
 11
-62.575996593068567
 21
-136.58313340946557
 31
0.0
  0
ARC
  5
267
100
AcDbEntity
  8
0
  6
CONTINUOUS
 62
               7
100
AcDbCircle
 10
-63.775996593068555
 20
-138.23313340946555
 30
0.0
 40
1.6499999999999999
100
AcDbArc
 50
89.999999999999815
 51
269.99999999999937
  0
LINE
  5
268
100
AcDbEntity
  8
0
  6
CENTER
 62
               2
100
AcDbLine
 10
-68.575996593068538
 20
-72.133133714641318
 30
0.0
 11
-68.575996593068538
 21
-157.13778613527865
 31
0.0
  0
LINE
  5
269
100
AcDbEntity
  8
0
  6
CONTINUOUS
 62
               7
100
AcDbLine
 10
-62.575996593068567
 20
-153.53313341029587
 30
0.0
 11
-62.575996593068538
 21
-139.13313340946564
 31
0.0
  0
LINE
  5
26A
100
AcDbEntity
  8
0
  6
CONTINUOUS
 62
               7
100
AcDbLine
 10
-74.575996593068538
 20
-153.5331334102959
 30
0.0
 11
-74.575996593068538
 21
-121.73313340946552
 31
0.0
  0
ARC
  5
26B
100
AcDbEntity
  8
0
  6
CONTINUOUS
 62
               7
100
AcDbCircle
 10
-66.975996593068515
 20
-153.83313340946557
 30
0.0
 40
0.2
100
AcDbArc
 50
270.00000000000023
 51
0.0
  0
LINE
  5
26C
100
AcDbEntity
  8
0
  6
CONTINUOUS
 62
               7
100
AcDbLine
 10
-62.825996593068538
 20
-152.77313340946557
 30
0.0
 11
-62.825996593068538
 21
-152.23313340946558
 31
0.0
  0
ARC
  5
26D
100
AcDbEntity
  8
0
  6
CONTINUOUS
 62
               7
100
AcDbCircle
 10
-63.25889689184541
 20
-152.76051971022588
 30
0.0
 40
0.4330840265925726
100
AcDbArc
 50
297.93703700787626
 51
358.33100760491578
  0
ARC
  5
26E
100
AcDbEntity
  8
0
  6
CONTINUOUS
 62
               7
100
AcDbCircle
 10
-66.57599659306851
 20
-152.43313340946557
 30
0.0
 40
0.2
100
AcDbArc
 50
89.999999999999815
 51
179.99999999999963
  0
ARC
  5
26F
100
AcDbEntity
  8
0
  6
CONTINUOUS
 62
               7
100
AcDbCircle
 10
-65.904110462500853
 20
-152.772687602101
 30
0.0
 40
0.4218863661100916
100
AcDbArc
 50
180.06054446711468
 51
241.41043093672513
  0
LINE
  5
270
100
AcDbEntity
  8
0
  6
CONTINUOUS
 62
               7
100
AcDbLine
 10
-66.325996593068538
 20
-152.77313340946557
 30
0.0
 11
-66.325996593068538
 21
-152.23313340946558
 31
0.0
  0
ARC
  5
271
100
AcDbEntity
  8
0
  6
CONTINUOUS
 62
               7
100
AcDbCircle
 10
-64.580996593068534
 20
-150.32812120480835
 30
0.0
 40
3.2015494236961581
100
AcDbArc
 50
241.55389706210474
 51
298.44610293789401
  0
LINE
  5
272
100
AcDbEntity
  8
0
  6
CONTINUOUS
 62
               7
100
AcDbLine
 10
-66.57599659306851
 20
-152.23313340946558
 30
0.0
 11
-62.575996593068481
 21
-152.23313340946558
 31
0.0
  0
LINE
  5
273
100
AcDbEntity
  8
0
  6
CONTINUOUS
 62
               7
100
AcDbLine
 10
-66.775996593068527
 20
-153.83313340946557
 30
0.0
 11
-66.775996593068527
 21
-152.43313340946557
 31
0.0
  0
ARC
  5
274
100
AcDbEntity
  8
0
  6
CONTINUOUS
 62
               7
100
AcDbCircle
 10
-63.075996593068567
 20
-153.53313340946556
 30
0.0
 40
0.5
100
AcDbArc
 50
269.99999999999937
 51
0.0
  0
ARC
  5
275
100
AcDbEntity
  8
0
  6
CONTINUOUS
 62
               7
100
AcDbCircle
 10
-74.075996593068538
 20
-153.53313340946559
 30
0.0
 40
0.5
100
AcDbArc
 50
179.99999999999963
 51
269.99999999999937
  0
LINE
  5
276
100
AcDbEntity
  8
0
  6
CONTINUOUS
 62
               7
100
AcDbLine
 10
-74.075996593068538
 20
-154.03313340946559
 30
0.0
 11
-63.075996593068567
 21
-154.03313340946556
 31
0.0
  0
LINE
  5
277
100
AcDbEntity
  8
0
  6
CONTINUOUS
 62
               7
100
AcDbLine
 10
-74.575996593068538
 20
-153.03313341373493
 30
0.0
 11
-83.675996593068533
 21
-153.03313341373493
 31
0.0
  0
LINE
  5
278
100
AcDbEntity
  8
0
  6
CONTINUOUS
 62
               7
100
AcDbLine
 10
-64.483103374255052
 20
-138.9402401906521
 30
0.0
 11
-63.068889811882002
 21
-137.52602662827903
 31
0.0
  0
LINE
  5
279
100
AcDbEntity
  8
0
  6
CONTINUOUS
 62
               7
100
AcDbLine
 10
-63.068889811882002
 20
-138.9402401906521
 30
0.0
 11
-64.483103374255052
 21
-137.52602662827903
 31
0.0
  0
CIRCLE
  5
27A
100
AcDbEntity
  8
0
  6
CONTINUOUS
 62
               7
100
AcDbCircle
 10
-63.775996593068498
 20
-138.23313340946555
 30
0.0
 40
1.5
  0
LINE
  5
27B
100
AcDbEntity
  8
0
  6
CONTINUOUS
 62
               7
100
AcDbLine
 10
-74.083103374255046
 20
-121.54024019065211
 30
0.0
 11
-72.668889811881996
 21
-120.12602662827902
 31
0.0
  0
LINE
  5
27C
100
AcDbEntity
  8
0
  6
CONTINUOUS
 62
               7
100
AcDbLine
 10
-72.668889811881996
 20
-121.54024019065213
 30
0.0
 11
-74.083103374255046
 21
-120.12602662827902
 31
0.0
  0
CIRCLE
  5
27D
100
AcDbEntity
  8
0
  6
CONTINUOUS
 62
               7
100
AcDbCircle
 10
-73.375996593068493
 20
-120.83313340946556
 30
0.0
 40
1.5
  0
ARC
  5
27E
100
AcDbEntity
  8
0
  6
DASHED
 62
             200
100
AcDbCircle
 10
-26.975996593068544
 20
-153.53313341272366
 30
0.0
 40
0.5
100
AcDbArc
 50
269.99999999999937
 51
0.0
  0
ARC
  5
27F
100
AcDbEntity
  8
0
  6
DASHED
 62
             200
100
AcDbCircle
 10
-26.975996593068544
 20
-138.53313341272366
 30
0.0
 40
0.5
100
AcDbArc
 50
0.0
 51
89.999999999999815
  0
LINE
  5
280
100
AcDbEntity
  8
0
  6
DASHED
 62
             200
100
AcDbLine
 10
-55.475996593068544
 20
-150.89131523090543
 30
0.0
 11
-53.475996593068544
 21
-150.95313341272362
 31
0.0
  0
LINE
  5
281
100
AcDbEntity
  8
0
  6
DASHED
 62
             200
100
AcDbLine
 10
-55.475996593068544
 20
-141.17495159454182
 30
0.0
 11
-53.475996593068544
 21
-141.11313341272364
 31
0.0
  0
LINE
  5
282
100
AcDbEntity
  8
0
  6
DASHED
 62
             200
100
AcDbLine
 10
-34.975996593068544
 20
-139.67313341272364
 30
0.0
 11
-31.475996593068544
 21
-139.53313341272366
 31
0.0
  0
LINE
  5
283
100
AcDbEntity
  8
0
  6
DASHED
 62
             200
100
AcDbLine
 10
-39.725996593068544
 20
-139.85313341272365
 30
0.0
 11
-36.225996593068544
 21
-139.72313341272366
 31
0.0
  0
LINE
  5
284
100
AcDbEntity
  8
0
  6
DASHED
 62
             200
100
AcDbLine
 10
-34.975996593068544
 20
-152.39313341272367
 30
0.0
 11
-31.475996593068544
 21
-152.53313341272366
 31
0.0
  0
LINE
  5
285
100
AcDbEntity
  8
0
  6
DASHED
 62
             200
100
AcDbLine
 10
-39.725996593068544
 20
-152.21313341272366
 30
0.0
 11
-36.225996593068544
 21
-152.34313341272366
 31
0.0
  0
LINE
  5
286
100
AcDbEntity
  8
0
  6
DASHED
 62
             200
100
AcDbLine
 10
-44.475996593068544
 20
-152.03313341272366
 30
0.0
 11
-40.975996593068544
 21
-152.16313341272365
 31
0.0
  0
LINE
  5
287
100
AcDbEntity
  8
0
  6
DASHED
 62
             200
100
AcDbLine
 10
-44.475996593068544
 20
-140.03313341272366
 30
0.0
 11
-40.975996593068544
 21
-139.90313341272366
 31
0.0
  0
LINE
  5
288
100
AcDbEntity
  8
0
  6
DASHED
 62
             200
100
AcDbLine
 10
-36.225996593068544
 20
-144.67313341272364
 30
0.0
 11
-39.725996593068544
 21
-144.40313341272366
 31
0.0
  0
LINE
  5
289
100
AcDbEntity
  8
0
  6
DASHED
 62
             200
100
AcDbLine
 10
-36.225996593068544
 20
-147.39313341272367
 30
0.0
 11
-39.725996593068544
 21
-147.66313341272365
 31
0.0
  0
LINE
  5
28A
100
AcDbEntity
  8
0
  6
DASHED
 62
             200
100
AcDbLine
 10
-40.975996593068544
 20
-147.76313341272362
 30
0.0
 11
-44.475996593068544
 21
-148.03313341272366
 31
0.0
  0
LINE
  5
28B
100
AcDbEntity
  8
0
  6
DASHED
 62
             200
100
AcDbLine
 10
-40.975996593068544
 20
-144.30313341272364
 30
0.0
 11
-44.475996593068544
 21
-144.03313341272366
 31
0.0
  0
LINE
  5
28C
100
AcDbEntity
  8
0
  6
DASHED
 62
             200
100
AcDbLine
 10
-34.975996593068544
 20
-147.29313341272365
 30
0.0
 11
-34.975996593068544
 21
-154.03313341272366
 31
0.0
  0
LINE
  5
28D
100
AcDbEntity
  8
0
  6
DASHED
 62
             200
100
AcDbLine
 10
-31.475996593068544
 20
-147.03313341272366
 30
0.0
 11
-31.475996593068544
 21
-154.03313341272366
 31
0.0
  0
LINE
  5
28E
100
AcDbEntity
  8
0
  6
DASHED
 62
             200
100
AcDbLine
 10
-36.225996593068544
 20
-147.39313341272367
 30
0.0
 11
-36.225996593068544
 21
-154.03313341272366
 31
0.0
  0
LINE
  5
28F
100
AcDbEntity
  8
0
  6
DASHED
 62
             200
100
AcDbLine
 10
-39.725996593068544
 20
-147.66313341272365
 30
0.0
 11
-39.725996593068544
 21
-154.03313341272366
 31
0.0
  0
LINE
  5
290
100
AcDbEntity
  8
0
  6
DASHED
 62
             200
100
AcDbLine
 10
-40.975996593068544
 20
-147.76313341272362
 30
0.0
 11
-40.975996593068544
 21
-154.03313341272366
 31
0.0
  0
LINE
  5
291
100
AcDbEntity
  8
0
  6
DASHED
 62
             200
100
AcDbLine
 10
-44.475996593068544
 20
-148.03313341272366
 30
0.0
 11
-44.475996593068544
 21
-154.03313341272366
 31
0.0
  0
LINE
  5
292
100
AcDbEntity
  8
0
  6
DASHED
 62
             200
100
AcDbLine
 10
-39.725996593068544
 20
-138.03313341272366
 30
0.0
 11
-39.725996593068544
 21
-144.40313341272366
 31
0.0
  0
LINE
  5
293
100
AcDbEntity
  8
0
  6
DASHED
 62
             200
100
AcDbLine
 10
-36.225996593068544
 20
-138.03313341272366
 30
0.0
 11
-36.225996593068544
 21
-144.67313341272364
 31
0.0
  0
LINE
  5
294
100
AcDbEntity
  8
0
  6
DASHED
 62
             200
100
AcDbLine
 10
-34.975996593068544
 20
-138.03313341272366
 30
0.0
 11
-34.975996593068544
 21
-144.77313341272367
 31
0.0
  0
LINE
  5
295
100
AcDbEntity
  8
0
  6
DASHED
 62
             200
100
AcDbLine
 10
-40.975996593068544
 20
-138.03313341272366
 30
0.0
 11
-40.975996593068544
 21
-144.30313341272364
 31
0.0
  0
LINE
  5
296
100
AcDbEntity
  8
0
  6
DASHED
 62
             200
100
AcDbLine
 10
-31.475996593068544
 20
-147.03313341272366
 30
0.0
 11
-34.975996593068544
 21
-147.29313341272365
 31
0.0
  0
LINE
  5
297
100
AcDbEntity
  8
0
  6
DASHED
 62
             200
100
AcDbLine
 10
-31.475996593068544
 20
-145.03313341272366
 30
0.0
 11
-34.975996593068544
 21
-144.77313341272367
 31
0.0
  0
LINE
  5
298
100
AcDbEntity
  8
0
  6
DASHED
 62
             200
100
AcDbLine
 10
-28.475996593068544
 20
-138.03313341272366
 30
0.0
 11
-28.475996593068544
 21
-154.03313341272366
 31
0.0
  0
LINE
  5
299
100
AcDbEntity
  8
0
  6
DASHED
 62
             200
100
AcDbLine
 10
-44.475996593068544
 20
-138.03313341272366
 30
0.0
 11
-44.475996593068544
 21
-144.03313341272366
 31
0.0
  0
LINE
  5
29A
100
AcDbEntity
  8
0
  6
DASHED
 62
             200
100
AcDbLine
 10
-31.475996593068544
 20
-138.03313341272366
 30
0.0
 11
-31.475996593068544
 21
-145.03313341272366
 31
0.0
  0
LINE
  5
29B
100
AcDbEntity
  8
0
  6
DASHED
 62
             200
100
AcDbLine
 10
-46.475996593068544
 20
-137.95313341272362
 30
0.0
 11
-46.475996593068544
 21
-154.11313341272364
 31
0.0
  0
LINE
  5
29C
100
AcDbEntity
  8
0
  6
DASHED
 62
             200
100
AcDbLine
 10
-53.475996593068544
 20
-154.11313341272364
 30
0.0
 11
-46.475996593068544
 21
-154.11313341272364
 31
0.0
  0
LINE
  5
29D
100
AcDbEntity
  8
0
  6
DASHED
 62
             200
100
AcDbLine
 10
-53.475996593068544
 20
-150.07313341272362
 30
0.0
 11
-46.475996593068544
 21
-150.07313341272362
 31
0.0
  0
LINE
  5
29E
100
AcDbEntity
  8
0
  6
DASHED
 62
             200
100
AcDbLine
 10
-53.475996593068544
 20
-141.99313341272364
 30
0.0
 11
-46.475996593068544
 21
-141.99313341272364
 31
0.0
  0
LINE
  5
29F
100
AcDbEntity
  8
0
  6
DASHED
 62
             200
100
AcDbLine
 10
-53.475996593068544
 20
-137.95313341272362
 30
0.0
 11
-46.475996593068544
 21
-137.95313341272362
 31
0.0
  0
LINE
  5
2A0
100
AcDbEntity
  8
0
  6
DASHED
 62
             200
100
AcDbLine
 10
-53.475996593068544
 20
-137.95313341272362
 30
0.0
 11
-53.475996593068544
 21
-154.11313341272364
 31
0.0
  0
LINE
  5
2A1
100
AcDbEntity
  8
0
  6
DASHED
 62
             200
100
AcDbLine
 10
-26.475996593068544
 20
-138.53313341272366
 30
0.0
 11
-26.475996593068544
 21
-153.53313341272366
 31
0.0
  0
LINE
  5
2A2
100
AcDbEntity
  8
0
  6
DASHED
 62
             200
100
AcDbLine
 10
-46.475996593068544
 20
-138.03313341272366
 30
0.0
 11
-26.975996593068544
 21
-138.03313341272366
 31
0.0
  0
LINE
  5
2A3
100
AcDbEntity
  8
0
  6
DASHED
 62
             200
100
AcDbLine
 10
-46.475996593068544
 20
-154.03313341272366
 30
0.0
 11
-26.975996593068544
 21
-154.03313341272366
 31
0.0
  0
LINE
  5
2A4
100
AcDbEntity
  8
0
  6
CENTER
 62
             200
100
AcDbLine
 10
-56.981117070699923
 20
-146.03313341272366
 30
0.0
 11
-24.695996593068543
 21
-146.03313341272366
 31
0.0
  0
ARC
  5
2A5
100
AcDbEntity
  8
0
  6
DASHED
 62
             200
100
AcDbCircle
 10
-26.975996593068544
 20
-120.53313341272364
 30
0.0
 40
0.5
100
AcDbArc
 50
269.99999999999937
 51
0.0
  0
ARC
  5
2A6
100
AcDbEntity
  8
0
  6
DASHED
 62
             200
100
AcDbCircle
 10
-26.975996593068544
 20
-105.53313341272364
 30
0.0
 40
0.5
100
AcDbArc
 50
0.0
 51
89.999999999999815
  0
LINE
  5
2A7
100
AcDbEntity
  8
0
  6
DASHED
 62
             200
100
AcDbLine
 10
-55.475996593068544
 20
-117.89131523090545
 30
0.0
 11
-53.475996593068544
 21
-117.95313341272363
 31
0.0
  0
LINE
  5
2A8
100
AcDbEntity
  8
0
  6
DASHED
 62
             200
100
AcDbLine
 10
-55.475996593068544
 20
-108.17495159454184
 30
0.0
 11
-53.475996593068544
 21
-108.11313341272366
 31
0.0
  0
LINE
  5
2A9
100
AcDbEntity
  8
0
  6
DASHED
 62
             200
100
AcDbLine
 10
-34.975996593068544
 20
-106.67313341272363
 30
0.0
 11
-31.475996593068544
 21
-106.53313341272364
 31
0.0
  0
LINE
  5
2AA
100
AcDbEntity
  8
0
  6
DASHED
 62
             200
100
AcDbLine
 10
-39.725996593068544
 20
-106.85313341272364
 30
0.0
 11
-36.225996593068544
 21
-106.72313341272364
 31
0.0
  0
LINE
  5
2AB
100
AcDbEntity
  8
0
  6
DASHED
 62
             200
100
AcDbLine
 10
-34.975996593068544
 20
-119.39313341272366
 30
0.0
 11
-31.475996593068544
 21
-119.53313341272364
 31
0.0
  0
LINE
  5
2AC
100
AcDbEntity
  8
0
  6
DASHED
 62
             200
100
AcDbLine
 10
-39.725996593068544
 20
-119.21313341272365
 30
0.0
 11
-36.225996593068544
 21
-119.34313341272365
 31
0.0
  0
LINE
  5
2AD
100
AcDbEntity
  8
0
  6
DASHED
 62
             200
100
AcDbLine
 10
-44.475996593068544
 20
-119.03313341272364
 30
0.0
 11
-40.975996593068544
 21
-119.16313341272364
 31
0.0
  0
LINE
  5
2AE
100
AcDbEntity
  8
0
  6
DASHED
 62
             200
100
AcDbLine
 10
-44.475996593068544
 20
-107.03313341272364
 30
0.0
 11
-40.975996593068544
 21
-106.90313341272365
 31
0.0
  0
LINE
  5
2AF
100
AcDbEntity
  8
0
  6
DASHED
 62
             200
100
AcDbLine
 10
-36.225996593068544
 20
-111.67313341272363
 30
0.0
 11
-39.725996593068544
 21
-111.40313341272365
 31
0.0
  0
LINE
  5
2B0
100
AcDbEntity
  8
0
  6
DASHED
 62
             200
100
AcDbLine
 10
-36.225996593068544
 20
-114.39313341272366
 30
0.0
 11
-39.725996593068544
 21
-114.66313341272364
 31
0.0
  0
LINE
  5
2B1
100
AcDbEntity
  8
0
  6
DASHED
 62
             200
100
AcDbLine
 10
-40.975996593068544
 20
-114.76313341272363
 30
0.0
 11
-44.475996593068544
 21
-115.03313341272364
 31
0.0
  0
LINE
  5
2B2
100
AcDbEntity
  8
0
  6
DASHED
 62
             200
100
AcDbLine
 10
-40.975996593068544
 20
-111.30313341272365
 30
0.0
 11
-44.475996593068544
 21
-111.03313341272364
 31
0.0
  0
LINE
  5
2B3
100
AcDbEntity
  8
0
  6
DASHED
 62
             200
100
AcDbLine
 10
-34.975996593068544
 20
-114.29313341272363
 30
0.0
 11
-34.975996593068544
 21
-121.03313341272364
 31
0.0
  0
LINE
  5
2B4
100
AcDbEntity
  8
0
  6
DASHED
 62
             200
100
AcDbLine
 10
-31.475996593068544
 20
-114.03313341272364
 30
0.0
 11
-31.475996593068544
 21
-121.03313341272364
 31
0.0
  0
LINE
  5
2B5
100
AcDbEntity
  8
0
  6
DASHED
 62
             200
100
AcDbLine
 10
-36.225996593068544
 20
-114.39313341272366
 30
0.0
 11
-36.225996593068544
 21
-121.03313341272364
 31
0.0
  0
LINE
  5
2B6
100
AcDbEntity
  8
0
  6
DASHED
 62
             200
100
AcDbLine
 10
-39.725996593068544
 20
-114.66313341272364
 30
0.0
 11
-39.725996593068544
 21
-121.03313341272364
 31
0.0
  0
LINE
  5
2B7
100
AcDbEntity
  8
0
  6
DASHED
 62
             200
100
AcDbLine
 10
-40.975996593068544
 20
-114.76313341272363
 30
0.0
 11
-40.975996593068544
 21
-121.03313341272364
 31
0.0
  0
LINE
  5
2B8
100
AcDbEntity
  8
0
  6
DASHED
 62
             200
100
AcDbLine
 10
-44.475996593068544
 20
-115.03313341272364
 30
0.0
 11
-44.475996593068544
 21
-121.03313341272364
 31
0.0
  0
LINE
  5
2B9
100
AcDbEntity
  8
0
  6
DASHED
 62
             200
100
AcDbLine
 10
-39.725996593068544
 20
-105.03313341272364
 30
0.0
 11
-39.725996593068544
 21
-111.40313341272365
 31
0.0
  0
LINE
  5
2BA
100
AcDbEntity
  8
0
  6
DASHED
 62
             200
100
AcDbLine
 10
-36.225996593068544
 20
-105.03313341272364
 30
0.0
 11
-36.225996593068544
 21
-111.67313341272363
 31
0.0
  0
LINE
  5
2BB
100
AcDbEntity
  8
0
  6
DASHED
 62
             200
100
AcDbLine
 10
-34.975996593068544
 20
-105.03313341272364
 30
0.0
 11
-34.975996593068544
 21
-111.77313341272365
 31
0.0
  0
LINE
  5
2BC
100
AcDbEntity
  8
0
  6
DASHED
 62
             200
100
AcDbLine
 10
-40.975996593068544
 20
-105.03313341272364
 30
0.0
 11
-40.975996593068544
 21
-111.30313341272365
 31
0.0
  0
LINE
  5
2BD
100
AcDbEntity
  8
0
  6
DASHED
 62
             200
100
AcDbLine
 10
-31.475996593068544
 20
-114.03313341272364
 30
0.0
 11
-34.975996593068544
 21
-114.29313341272363
 31
0.0
  0
LINE
  5
2BE
100
AcDbEntity
  8
0
  6
DASHED
 62
             200
100
AcDbLine
 10
-31.475996593068544
 20
-112.03313341272364
 30
0.0
 11
-34.975996593068544
 21
-111.77313341272365
 31
0.0
  0
LINE
  5
2BF
100
AcDbEntity
  8
0
  6
DASHED
 62
             200
100
AcDbLine
 10
-28.475996593068544
 20
-105.03313341272364
 30
0.0
 11
-28.475996593068544
 21
-121.03313341272364
 31
0.0
  0
LINE
  5
2C0
100
AcDbEntity
  8
0
  6
DASHED
 62
             200
100
AcDbLine
 10
-44.475996593068544
 20
-105.03313341272364
 30
0.0
 11
-44.475996593068544
 21
-111.03313341272364
 31
0.0
  0
LINE
  5
2C1
100
AcDbEntity
  8
0
  6
DASHED
 62
             200
100
AcDbLine
 10
-31.475996593068544
 20
-105.03313341272364
 30
0.0
 11
-31.475996593068544
 21
-112.03313341272364
 31
0.0
  0
LINE
  5
2C2
100
AcDbEntity
  8
0
  6
DASHED
 62
             200
100
AcDbLine
 10
-46.475996593068544
 20
-104.95313341272363
 30
0.0
 11
-46.475996593068544
 21
-121.11313341272363
 31
0.0
  0
LINE
  5
2C3
100
AcDbEntity
  8
0
  6
DASHED
 62
             200
100
AcDbLine
 10
-53.475996593068544
 20
-121.11313341272363
 30
0.0
 11
-46.475996593068544
 21
-121.11313341272363
 31
0.0
  0
LINE
  5
2C4
100
AcDbEntity
  8
0
  6
DASHED
 62
             200
100
AcDbLine
 10
-53.475996593068544
 20
-117.07313341272364
 30
0.0
 11
-46.475996593068544
 21
-117.07313341272364
 31
0.0
  0
LINE
  5
2C5
100
AcDbEntity
  8
0
  6
DASHED
 62
             200
100
AcDbLine
 10
-53.475996593068544
 20
-108.99313341272365
 30
0.0
 11
-46.475996593068544
 21
-108.99313341272365
 31
0.0
  0
LINE
  5
2C6
100
AcDbEntity
  8
0
  6
DASHED
 62
             200
100
AcDbLine
 10
-53.475996593068544
 20
-104.95313341272363
 30
0.0
 11
-46.475996593068544
 21
-104.95313341272363
 31
0.0
  0
LINE
  5
2C7
100
AcDbEntity
  8
0
  6
DASHED
 62
             200
100
AcDbLine
 10
-53.475996593068544
 20
-104.95313341272363
 30
0.0
 11
-53.475996593068544
 21
-121.11313341272363
 31
0.0
  0
LINE
  5
2C8
100
AcDbEntity
  8
0
  6
DASHED
 62
             200
100
AcDbLine
 10
-26.475996593068544
 20
-105.53313341272364
 30
0.0
 11
-26.475996593068544
 21
-120.53313341272364
 31
0.0
  0
LINE
  5
2C9
100
AcDbEntity
  8
0
  6
DASHED
 62
             200
100
AcDbLine
 10
-46.475996593068544
 20
-105.03313341272364
 30
0.0
 11
-26.975996593068544
 21
-105.03313341272364
 31
0.0
  0
LINE
  5
2CA
100
AcDbEntity
  8
0
  6
DASHED
 62
             200
100
AcDbLine
 10
-46.475996593068544
 20
-121.03313341272364
 30
0.0
 11
-26.975996593068544
 21
-121.03313341272364
 31
0.0
  0
LINE
  5
2CB
100
AcDbEntity
  8
0
  6
CENTER
 62
             200
100
AcDbLine
 10
-56.981117070699923
 20
-113.03313341272364
 30
0.0
 11
-24.695996593068543
 21
-113.03313341272364
 31
0.0
  0
LINE
  5
2CC
100
AcDbEntity
  8
0
  6
CONTINUOUS
 62
               7
100
AcDbLine
 10
-74.575996593068538
 20
-119.9331334094656
 30
0.0
 11
-74.57599659306851
 21
-96.333133409465574
 31
0.0
  0
LINE
  5
2CD
100
AcDbEntity
  8
0
  6
CONTINUOUS
 62
               7
100
AcDbLine
 10
-62.575996593068538
 20
-137.33313340946549
 30
0.0
 11
-62.57599659306851
 21
-96.333133409465574
 31
0.0
  0
CIRCLE
  5
2CE
100
AcDbEntity
  8
0
  6
CONTINUOUS
 62
               4
100
AcDbCircle
 10
-69.825402720998198
 20
-81.533133409465577
 30
0.0
 40
0.7250000000000001
  0
CIRCLE
  5
2CF
100
AcDbEntity
  8
0
  6
CONTINUOUS
 62
               4
100
AcDbCircle
 10
-67.325402720998198
 20
-81.533133409465577
 30
0.0
 40
0.7250000000000001
  0
LINE
  5
2D0
100
AcDbEntity
  8
0
  6
CONTINUOUS
 62
               4
100
AcDbLine
 10
-67.325996593068538
 20
-83.533133409465577
 30
0.0
 11
-69.825996593068538
 21
-83.533133409465577
 31
0.0
  0
LINE
  5
2D1
100
AcDbEntity
  8
0
  6
CONTINUOUS
 62
               4
100
AcDbLine
 10
-67.325996593068538
 20
-79.533133409465577
 30
0.0
 11
-69.825996593068538
 21
-79.533133409465577
 31
0.0
  0
ARC
  5
2D2
100
AcDbEntity
  8
0
  6
CONTINUOUS
 62
               4
100
AcDbCircle
 10
-69.825996593068538
 20
-81.533133409465577
 30
0.0
 40
2.0000000881710065
100
AcDbArc
 50
89.999999999999815
 51
269.99999999999937
  0
ARC
  5
2D3
100
AcDbEntity
  8
0
  6
CONTINUOUS
 62
               4
100
AcDbCircle
 10
-67.325996593068538
 20
-81.533133409465577
 30
0.0
 40
2.0000000881710065
100
AcDbArc
 50
269.99999999999937
 51
89.999999999999801
  0
CIRCLE
  5
2D4
100
AcDbEntity
  8
0
  6
CONTINUOUS
 62
               4
100
AcDbCircle
 10
-69.825402720998198
 20
-81.533133409465577
 30
0.0
 40
0.25
  0
CIRCLE
  5
2D5
100
AcDbEntity
  8
0
  6
CONTINUOUS
 62
               4
100
AcDbCircle
 10
-67.325402720998198
 20
-81.533133409465577
 30
0.0
 40
0.25
  0
ARC
  5
2D6
100
AcDbEntity
  8
0
  6
CONTINUOUS
 62
               4
100
AcDbCircle
 10
-72.845996593068548
 20
-78.533133409465577
 30
0.0
 40
0.5
100
AcDbArc
 50
89.999999999999815
 51
179.99999999999963
  0
ARC
  5
2D7
100
AcDbEntity
  8
0
  6
CONTINUOUS
 62
               4
100
AcDbCircle
 10
-64.305996593068528
 20
-78.533133409465577
 30
0.0
 40
0.5
100
AcDbArc
 50
0.0
 51
89.999999999999815
  0
ARC
  5
2D8
100
AcDbEntity
  8
0
  6
CONTINUOUS
 62
               4
100
AcDbCircle
 10
-72.845996593068548
 20
-94.820849676710836
 30
0.0
 40
0.5
100
AcDbArc
 50
179.99999999999963
 51
269.99999999999937
  0
ARC
  5
2D9
100
AcDbEntity
  8
0
  6
CONTINUOUS
 62
               4
100
AcDbCircle
 10
-64.305996593068528
 20
-94.820849676710836
 30
0.0
 40
0.5
100
AcDbArc
 50
269.99999999999937
 51
0.0
  0
LINE
  5
2DA
100
AcDbEntity
  8
0
  6
CONTINUOUS
 62
               4
100
AcDbLine
 10
-73.345996593068548
 20
-78.533133409465577
 30
0.0
 11
-73.345996593068548
 21
-94.820849676710836
 31
0.0
  0
LINE
  5
2DB
100
AcDbEntity
  8
0
  6
CONTINUOUS
 62
               4
100
AcDbLine
 10
-63.805996593068528
 20
-78.533133409465577
 30
0.0
 11
-63.805996593068528
 21
-94.820849676710836
 31
0.0
  0
LINE
  5
2DC
100
AcDbEntity
  8
0
  6
CONTINUOUS
 62
               4
100
AcDbLine
 10
-72.845996593068548
 20
-95.320849676710836
 30
0.0
 11
-64.305996593068528
 21
-95.320849676710836
 31
0.0
  0
LINE
  5
2DD
100
AcDbEntity
  8
0
  6
CONTINUOUS
 62
               4
100
AcDbLine
 10
-63.575996593068538
 20
-74.033133409465577
 30
0.0
 11
-63.575996593068538
 21
-96.533133409465577
 31
0.0
  0
ARC
  5
2DE
100
AcDbEntity
  8
0
  6
CONTINUOUS
 62
               4
100
AcDbCircle
 10
-64.371901446410362
 20
-74.633038262807403
 30
0.0
 40
0.5999048608870732
100
AcDbArc
 50
359.99091272245295
 51
90.009087277546172
  0
ARC
  5
2DF
100
AcDbEntity
  8
0
  6
CONTINUOUS
 62
               4
100
AcDbCircle
 10
-64.075699745204332
 20
-78.5328365616014
 30
0.0
 40
0.4997032403068001
100
AcDbArc
 50
359.96596353714654
 51
90.034036462852711
  0
ARC
  5
2E0
100
AcDbEntity
  8
0
  6
CONTINUOUS
 62
               4
100
AcDbCircle
 10
-64.075699745204332
 20
-96.033430257329783
 30
0.0
 40
0.4997032403068001
100
AcDbArc
 50
269.96596353714654
 51
0.0340364628527164
  0
LINE
  5
2E1
100
AcDbEntity
  8
0
  6
CONTINUOUS
 62
               4
100
AcDbLine
 10
-73.575996593068538
 20
-74.033133409465577
 30
0.0
 11
-73.575996593068538
 21
-96.533133409465577
 31
0.0
  0
ARC
  5
2E2
100
AcDbEntity
  8
0
  6
CONTINUOUS
 62
               4
100
AcDbCircle
 10
-66.173084598305621
 20
-74.632045404228577
 30
0.0
 40
0.5989129830170392
100
AcDbArc
 50
89.895914524772735
 51
180.10408547522667
  0
ARC
  5
2E3
100
AcDbEntity
  8
0
  6
CONTINUOUS
 62
               4
100
AcDbCircle
 10
-73.075699568862404
 20
-78.533430433671711
 30
0.0
 40
0.5002971123771114
100
AcDbArc
 50
90.034016255545609
 51
179.96598374445358
  0
ARC
  5
2E4
100
AcDbEntity
  8
0
  6
CONTINUOUS
 62
               4
100
AcDbCircle
 10
-73.075996593068538
 20
-74.6331334094656
 30
0.0
 40
0.5
100
AcDbArc
 50
89.999999999999815
 51
179.99999999999963
  0
LINE
  5
2E5
100
AcDbEntity
  8
0
  6
CONTINUOUS
 62
               4
100
AcDbLine
 10
-66.775996593068584
 20
-74.1331334094656
 30
0.0
 11
-66.775996593068584
 21
-75.6331334094656
 31
0.0
  0
LINE
  5
2E6
100
AcDbEntity
  8
0
  6
CONTINUOUS
 62
               4
100
AcDbLine
 10
-66.775996593068584
 20
-74.1331334094656
 30
0.0
 11
-73.075996593068538
 21
-74.1331334094656
 31
0.0
  0
ARC
  5
2E7
100
AcDbEntity
  8
0
  6
CONTINUOUS
 62
               4
100
AcDbCircle
 10
-73.075699568862404
 20
-96.032836385259472
 30
0.0
 40
0.5002971123771115
100
AcDbArc
 50
180.03401625554557
 51
269.96598374445358
  0
LINE
  5
2E8
100
AcDbEntity
  8
0
  6
CONTINUOUS
 62
               4
100
AcDbLine
 10
-63.575996593068538
 20
-74.6331334094656
 30
0.0
 11
-66.775996593068584
 21
-74.6331334094656
 31
0.0
  0
LINE
  5
2E9
100
AcDbEntity
  8
0
  6
CONTINUOUS
 62
               4
100
AcDbLine
 10
-63.575996593068538
 20
-74.033133409465577
 30
0.0
 11
-73.575996593068538
 21
-74.033133409465577
 31
0.0
  0
LINE
  5
2EA
100
AcDbEntity
  8
0
  6
CONTINUOUS
 62
               4
100
AcDbLine
 10
-63.575996593068538
 20
-75.6331334094656
 30
0.0
 11
-66.775996593068584
 21
-75.6331334094656
 31
0.0
  0
LINE
  5
2EB
100
AcDbEntity
  8
0
  6
CONTINUOUS
 62
               4
100
AcDbLine
 10
-64.075996593068538
 20
-78.033133409465577
 30
0.0
 11
-73.075996593068538
 21
-78.033133409465577
 31
0.0
  0
LINE
  5
2EC
100
AcDbEntity
  8
0
  6
PHANTOM
 62
             200
100
AcDbLine
 10
-70.076014903615402
 20
-89.033133413735058
 30
0.0
 11
-67.076014903615402
 21
-89.033133413735058
 31
0.0
  0
LINE
  5
2ED
100
AcDbEntity
  8
0
  6
PHANTOM
 62
             200
100
AcDbLine
 10
-70.076014903615402
 20
-91.033133413735058
 30
0.0
 11
-67.076014903615402
 21
-91.033133413735058
 31
0.0
  0
LINE
  5
2EE
100
AcDbEntity
  8
0
  6
PHANTOM
 62
             200
100
AcDbLine
 10
-67.076014903615402
 20
-89.033133413735058
 30
0.0
 11
-67.076014903615402
 21
-91.033133413735058
 31
0.0
  0
LINE
  5
2EF
100
AcDbEntity
  8
0
  6
DASHED
 62
               2
100
AcDbLine
 10
220.81557716210293
 20
71.361825092874966
 30
0.0
 11
219.21557716210293
 21
71.361825092874966
 31
0.0
  0
LINE
  5
2F0
100
AcDbEntity
  8
0
  6
CENTER
 62
               2
100
AcDbLine
 10
218.39838481068281
 20
70.361825092874966
 30
0.0
 11
221.68044321650089
 21
70.361825092874952
 31
0.0
  0
LINE
  5
2F1
100
AcDbEntity
  8
0
  6
DASHED
 62
               2
100
AcDbLine
 10
220.81557716210293
 20
69.361825092874966
 30
0.0
 11
219.21557716210293
 21
69.361825092874966
 31
0.0
  0
LINE
  5
2F2
100
AcDbEntity
  8
0
  6
CONTINUOUS
 62
               7
100
AcDbLine
 10
221.51557716210294
 20
23.661825092875034
 30
0.0
 11
220.81557716210293
 21
23.661825092875034
 31
0.0
  0
LINE
  5
2F3
100
AcDbEntity
  8
0
  6
CONTINUOUS
 62
               7
100
AcDbLine
 10
220.81557716210293
 20
61.661825092875034
 30
0.0
 11
221.51557716210294
 21
61.661825092875034
 31
0.0
  0
LINE
  5
2F4
100
AcDbEntity
  8
0
  6
CONTINUOUS
 62
               7
100
AcDbLine
 10
221.51557716210294
 20
19.161825092402268
 30
0.0
 11
221.51557716210294
 21
66.161825094897608
 31
0.0
  0
LINE
  5
2F5
100
AcDbEntity
  8
0
  6
CENTER
 62
               2
100
AcDbLine
 10
230.01557716210294
 20
65.161825093886321
 30
0.0
 11
230.01557716210294
 21
53.161825093886321
 31
0.0
  0
CIRCLE
  5
2F6
100
AcDbEntity
  8
0
  6
CONTINUOUS
 62
               7
100
AcDbCircle
 10
230.01557716210294
 20
42.661825093886307
 30
0.0
 40
4.2779998779296875
  0
CIRCLE
  5
2F7
100
AcDbEntity
  8
0
  6
CONTINUOUS
 62
               2
100
AcDbCircle
 10
230.01557716210294
 20
42.661825093886307
 30
0.0
 40
4.8639993667602539
  0
LINE
  5
2F8
100
AcDbEntity
  8
0
  6
CENTER
 62
               2
100
AcDbLine
 10
224.01557716210294
 20
42.661825093886307
 30
0.0
 11
236.01557716210294
 21
42.661825093886307
 31
0.0
  0
CIRCLE
  5
2F9
100
AcDbEntity
  8
0
  6
CONTINUOUS
 62
               7
100
AcDbCircle
 10
230.01557716210294
 20
59.161825093886321
 30
0.0
 40
4.2779998779296875
  0
CIRCLE
  5
2FA
100
AcDbEntity
  8
0
  6
CONTINUOUS
 62
               2
100
AcDbCircle
 10
230.01557716210294
 20
59.161825093886321
 30
0.0
 40
4.8639993667602539
  0
LINE
  5
2FB
100
AcDbEntity
  8
0
  6
CENTER
 62
               2
100
AcDbLine
 10
224.01557716210294
 20
59.161825093886321
 30
0.0
 11
236.01557716210294
 21
59.161825093886321
 31
0.0
  0
CIRCLE
  5
2FC
100
AcDbEntity
  8
0
  6
CONTINUOUS
 62
               7
100
AcDbCircle
 10
230.01557716210294
 20
26.161825093886321
 30
0.0
 40
4.2779998779296875
  0
CIRCLE
  5
2FD
100
AcDbEntity
  8
0
  6
CONTINUOUS
 62
               2
100
AcDbCircle
 10
230.01557716210294
 20
26.161825093886321
 30
0.0
 40
4.8639993667602539
  0
LINE
  5
2FE
100
AcDbEntity
  8
0
  6
CENTER
 62
               2
100
AcDbLine
 10
224.01557716210294
 20
26.161825093886321
 30
0.0
 11
236.01557716210294
 21
26.161825093886321
 31
0.0
  0
LINE
  5
2FF
100
AcDbEntity
  8
0
  6
CONTINUOUS
 62
               7
100
AcDbLine
 10
238.51557715746407
 20
66.161825094897608
 30
0.0
 11
221.51557716210294
 21
66.161825094897608
 31
0.0
  0
LINE
  5
300
100
AcDbEntity
  8
0
  6
CONTINUOUS
 62
               7
100
AcDbLine
 10
238.51557715746407
 20
19.161825092875034
 30
0.0
 11
221.51557716210294
 21
19.161825092875034
 31
0.0
  0
LINE
  5
301
100
AcDbEntity
  8
0
  6
CONTINUOUS
 62
               7
100
AcDbLine
 10
238.51557716210294
 20
19.161825092875034
 30
0.0
 11
238.51557716210294
 21
66.161825094897608
 31
0.0
  0
LINE
  5
302
100
AcDbEntity
  8
0
  6
CONTINUOUS
 62
               7
100
AcDbLine
 10
220.51557716210294
 20
76.161825092874949
 30
0.0
 11
202.81557716210293
 21
76.161825092874949
 31
0.0
  0
LINE
  5
303
100
AcDbEntity
  8
0
  6
CONTINUOUS
 62
               7
100
AcDbLine
 10
220.51557716210294
 20
76.161825092874949
 30
0.0
 11
220.81557716210295
 21
75.861825092874966
 31
0.0
  0
LINE
  5
304
100
AcDbEntity
  8
0
  6
CONTINUOUS
 62
               7
100
AcDbLine
 10
220.71557716210293
 20
62.161825092875034
 30
0.0
 11
202.81557716210295
 21
62.161825092875034
 31
0.0
  0
LINE
  5
305
100
AcDbEntity
  8
0
  6
CONTINUOUS
 62
               7
100
AcDbLine
 10
220.81557716210295
 20
62.06182509287504
 30
0.0
 11
220.71557716210293
 21
62.161825092875034
 31
0.0
  0
LINE
  5
306
100
AcDbEntity
  8
0
  6
CONTINUOUS
 62
               7
100
AcDbLine
 10
202.81557716210293
 20
23.161825092875034
 30
0.0
 11
220.81557716210293
 21
23.161825092875034
 31
0.0
  0
LINE
  5
307
100
AcDbEntity
  8
0
  6
CONTINUOUS
 62
               7
100
AcDbLine
 10
203.8155771529679
 20
32.311825088605687
 30
0.0
 11
202.81557716210295
 21
32.311825088605687
 31
0.0
  0
LINE
  5
308
100
AcDbEntity
  8
0
  6
CONTINUOUS
 62
               7
100
AcDbLine
 10
203.8155771529679
 20
35.611825088605684
 30
0.0
 11
202.81557716210295
 21
35.611825088605684
 31
0.0
  0
LINE
  5
309
100
AcDbEntity
  8
0
  6
CONTINUOUS
 62
               7
100
AcDbLine
 10
203.81557716210295
 20
35.611825088605684
 30
0.0
 11
203.81557716210295
 21
32.311825088605687
 31
0.0
  0
ARC
  5
30A
100
AcDbEntity
  8
0
  6
CONTINUOUS
 62
               7
100
AcDbCircle
 10
203.81448915686596
 20
33.060737083368679
 30
0.0
 40
0.5989129830170392
100
AcDbArc
 50
179.89591452477256
 51
270.1040854752265
  0
LINE
  5
30B
100
AcDbEntity
  8
0
  6
CONTINUOUS
 62
               7
100
AcDbLine
 10
203.21557716210299
 20
34.861920235263881
 30
0.0
 11
203.21557716210299
 21
33.060737083368679
 31
0.0
  0
ARC
  5
30C
100
AcDbEntity
  8
0
  6
CONTINUOUS
 62
               7
100
AcDbCircle
 10
203.81548201544481
 20
34.861920235263881
 30
0.0
 40
0.5999048608870732
100
AcDbArc
 50
89.990912722453572
 51
180.00908727754597
  0
LINE
  5
30D
100
AcDbEntity
  8
0
  6
CENTER
 62
               2
100
AcDbLine
 10
230.01557716210294
 20
48.661825093886307
 30
0.0
 11
230.01557716210294
 21
36.661825093886307
 31
0.0
  0
LINE
  5
30E
100
AcDbEntity
  8
0
  6
CENTER
 62
               2
100
AcDbLine
 10
230.01557716210294
 20
32.161825093886321
 30
0.0
 11
230.01557716210294
 21
20.161825093886321
 31
0.0
  0
LINE
  5
30F
100
AcDbEntity
  8
0
  6
CENTER
 62
               2
100
AcDbLine
 10
211.81557716210293
 20
100.06182479196863
 30
0.0
 11
211.81557716210293
 21
15.188652057783564
 31
0.0
  0
LINE
  5
310
100
AcDbEntity
  8
0
  6
CONTINUOUS
 62
               7
100
AcDbLine
 10
220.81557716210295
 20
18.661825092874949
 30
0.0
 11
220.81557716210295
 21
75.861825092874966
 31
0.0
  0
LINE
  5
311
100
AcDbEntity
  8
0
  6
CONTINUOUS
 62
               7
100
AcDbLine
 10
202.81557716210293
 20
18.661825092874956
 30
0.0
 11
202.81557716210293
 21
76.161825092874949
 31
0.0
  0
LINE
  5
312
100
AcDbEntity
  8
0
  6
CONTINUOUS
 62
               7
100
AcDbLine
 10
203.31557716210293
 20
18.161825092874956
 30
0.0
 11
220.31557716210293
 21
18.161825092874956
 31
0.0
  0
ARC
  5
313
100
AcDbEntity
  8
0
  6
CONTINUOUS
 62
               7
100
AcDbCircle
 10
220.31557716210295
 20
18.661825092874949
 30
0.0
 40
0.5
100
AcDbArc
 50
270.00000000000023
 51
0.0
  0
ARC
  5
314
100
AcDbEntity
  8
0
  6
CONTINUOUS
 62
               7
100
AcDbCircle
 10
203.31557716210293
 20
18.661825092874963
 30
0.0
 40
0.5
100
AcDbArc
 50
179.99999999999963
 51
269.99999999999937
  0
LINE
  5
315
100
AcDbEntity
  8
0
  6
CONTINUOUS
 62
               7
100
AcDbLine
 10
207.01557716210291
 20
19.761825075868394
 30
0.0
 11
207.01557716210291
 21
18.361825092874945
 31
0.0
  0
LINE
  5
316
100
AcDbEntity
  8
0
  6
CONTINUOUS
 62
               7
100
AcDbLine
 10
203.01557716210291
 20
19.961825092874967
 30
0.0
 11
206.81557716210293
 21
19.961825092874967
 31
0.0
  0
ARC
  5
317
100
AcDbEntity
  8
0
  6
CONTINUOUS
 62
               7
100
AcDbCircle
 10
206.81557716210293
 20
19.761825092874979
 30
0.0
 40
0.2
100
AcDbArc
 50
0.0
 51
89.999999999999815
  0
ARC
  5
318
100
AcDbEntity
  8
0
  6
CONTINUOUS
 62
               7
100
AcDbCircle
 10
207.2155771621029
 20
18.361825092874945
 30
0.0
 40
0.2
100
AcDbArc
 50
179.99999999999963
 51
269.99999999999937
  0
ARC
  5
319
100
AcDbEntity
  8
0
  6
CONTINUOUS
 62
               7
100
AcDbCircle
 10
203.01557716210291
 20
20.161825092874956
 30
0.0
 40
0.2
100
AcDbArc
 50
179.99999999999963
 51
269.99999999999937
  0
LINE
  5
31A
100
AcDbEntity
  8
0
  6
CONTINUOUS
 62
               7
100
AcDbLine
 10
203.06557716210293
 20
19.421825092874947
 30
0.0
 11
203.06557716210293
 21
19.961825092874967
 31
0.0
  0
ARC
  5
31B
100
AcDbEntity
  8
0
  6
CONTINUOUS
 62
               7
100
AcDbCircle
 10
206.13267686332605
 20
19.434438792114641
 30
0.0
 40
0.4330840265925726
100
AcDbArc
 50
297.93703700787626
 51
358.33100760491578
  0
LINE
  5
31C
100
AcDbEntity
  8
0
  6
CONTINUOUS
 62
               7
100
AcDbLine
 10
206.56557716210293
 20
19.421825092874947
 30
0.0
 11
206.56557716210293
 21
19.961825092874967
 31
0.0
  0
ARC
  5
31D
100
AcDbEntity
  8
0
  6
CONTINUOUS
 62
               7
100
AcDbCircle
 10
203.48746329267058
 20
19.422270900239546
 30
0.0
 40
0.4218863661100916
100
AcDbArc
 50
180.06054446711471
 51
241.41043093672513
  0
ARC
  5
31E
100
AcDbEntity
  8
0
  6
CONTINUOUS
 62
               7
100
AcDbCircle
 10
204.81057716210293
 20
21.866837297532193
 30
0.0
 40
3.2015494236961581
100
AcDbArc
 50
241.55389706210474
 51
298.44610293789401
  0
LINE
  5
31F
100
AcDbEntity
  8
0
  6
CENTER
 62
               2
100
AcDbLine
 10
241.01557715767282
 20
60.16182528664379
 30
0.0
 11
236.01557715767282
 21
60.16182528664379
 31
0.0
  0
LINE
  5
320
100
AcDbEntity
  8
0
  6
CENTER
 62
               2
100
AcDbLine
 10
241.01557715767282
 20
25.161824901128909
 30
0.0
 11
236.01557715767282
 21
25.161824901128909
 31
0.0
  0
LINE
  5
321
100
AcDbEntity
  8
0
  6
CONTINUOUS
 62
               4
100
AcDbLine
 10
199.56204181556964
 20
114.15677427636575
 30
0.0
 11
199.56204181556964
 21
110.65677427836573
 31
0.0
  0
LINE
  5
322
100
AcDbEntity
  8
0
  6
CONTINUOUS
 62
               4
100
AcDbLine
 10
199.06709232090296
 20
114.15677427636575
 30
0.0
 11
199.06709232090296
 21
110.65677427836573
 31
0.0
  0
ARC
  5
323
100
AcDbEntity
  8
0
  6
CONTINUOUS
 62
               4
100
AcDbCircle
 10
197.31365603940495
 20
95.562270930192909
 30
0.0
 40
0.4029462287748787
100
AcDbArc
 50
190.60882798227402
 51
359.50566908284389
  0
ARC
  5
324
100
AcDbEntity
  8
0
  6
CONTINUOUS
 62
               4
100
AcDbCircle
 10
197.21559022123611
 20
94.156096521143724
 30
0.0
 40
0.5030505883944908
100
AcDbArc
 50
143.43739164534688
 51
179.69271070880976
  0
ARC
  5
325
100
AcDbEntity
  8
0
  6
CONTINUOUS
 62
               4
100
AcDbCircle
 10
196.01768104401108
 20
87.460898350807412
 30
0.0
 40
0.3021474965435785
100
AcDbArc
 50
180.97363298451145
 51
269.02636701548755
  0
ARC
  5
326
100
AcDbEntity
  8
0
  6
CONTINUOUS
 62
               4
100
AcDbCircle
 10
197.31174304282425
 20
94.655533302482837
 30
0.0
 40
0.5002341568128574
100
AcDbArc
 50
89.792236286845736
 51
179.39507124653611
  0
ARC
  5
327
100
AcDbEntity
  8
0
  6
CONTINUOUS
 62
               4
100
AcDbCircle
 10
197.31754410453382
 20
78.311309285190816
 30
0.0
 40
0.5060324378497572
100
AcDbArc
 50
180.57067216988474
 51
244.71860809994666
  0
LINE
  5
328
100
AcDbEntity
  8
0
  6
CONTINUOUS
 62
               4
100
AcDbLine
 10
201.8105266627696
 20
75.661824787699061
 30
0.0
 11
201.8105266627696
 21
95.155764170499225
 31
0.0
  0
LINE
  5
329
100
AcDbEntity
  8
0
  6
CONTINUOUS
 62
               4
100
AcDbLine
 10
201.31557716810292
 20
102.1577843842324
 30
0.0
 11
201.31557716810292
 21
97.156774270365844
 31
0.0
  0
LINE
  5
32A
100
AcDbEntity
  8
0
  6
CONTINUOUS
 62
               4
100
AcDbLine
 10
201.8105266627696
 20
97.156774270365844
 30
0.0
 11
201.8105266627696
 21
95.155764170499225
 31
0.0
  0
LINE
  5
32B
100
AcDbEntity
  8
0
  6
CONTINUOUS
 62
               4
100
AcDbLine
 10
201.8105266627696
 20
103.16182478769906
 30
0.0
 11
201.8105266627696
 21
102.1577843842324
 31
0.0
  0
LINE
  5
32C
100
AcDbEntity
  8
0
  6
CONTINUOUS
 62
               4
100
AcDbLine
 10
198.6640620181029
 20
106.98000660369905
 30
0.0
 11
198.6640620181029
 21
103.16182478769906
 31
0.0
  0
LINE
  5
32D
100
AcDbEntity
  8
0
  6
CONTINUOUS
 62
             200
100
AcDbLine
 10
197.8155771701029
 20
106.48505710903243
 30
0.0
 11
200.81355696636959
 21
108.21738034036576
 31
0.0
  0
LINE
  5
32E
100
AcDbEntity
  8
0
  6
CONTINUOUS
 62
             200
100
AcDbLine
 10
197.8155771701029
 20
106.83152175529909
 30
0.0
 11
200.81355696636959
 21
108.56384498663238
 31
0.0
  0
LINE
  5
32F
100
AcDbEntity
  8
0
  6
CONTINUOUS
 62
               4
100
AcDbLine
 10
199.96507211836959
 20
110.65677427836573
 30
0.0
 11
198.6640620181029
 21
110.65677427836573
 31
0.0
  0
LINE
  5
330
100
AcDbEntity
  8
0
  6
CONTINUOUS
 62
               4
100
AcDbLine
 10
199.96507211836959
 20
110.65677427836573
 30
0.0
 11
199.96507211836959
 21
108.07596619903239
 31
0.0
  0
LINE
  5
331
100
AcDbEntity
  8
0
  6
CONTINUOUS
 62
               4
100
AcDbLine
 10
198.6640620181029
 20
110.65677427836573
 30
0.0
 11
198.6640620181029
 21
107.32647124996572
 31
0.0
  0
LINE
  5
332
100
AcDbEntity
  8
0
  6
CONTINUOUS
 62
               4
100
AcDbLine
 10
199.96507211836959
 20
107.72950155276573
 30
0.0
 11
199.96507211836959
 21
103.16182478769906
 31
0.0
  0
LINE
  5
333
100
AcDbEntity
  8
0
  6
CONTINUOUS
 62
               4
100
AcDbLine
 10
196.81153676663624
 20
87.257784377032493
 30
0.0
 11
196.71254686770297
 21
87.158794478099168
 31
0.0
  0
LINE
  5
334
100
AcDbEntity
  8
0
  6
CONTINUOUS
 62
               4
100
AcDbLine
 10
196.81153676663624
 20
88.459804578365862
 30
0.0
 11
196.71254686770297
 21
88.459804578365862
 31
0.0
  0
LINE
  5
335
100
AcDbEntity
  8
0
  6
CONTINUOUS
 62
               4
100
AcDbLine
 10
196.71254686770297
 20
87.158794478099168
 30
0.0
 11
196.01254686810299
 21
87.158794478099168
 31
0.0
  0
LINE
  5
336
100
AcDbEntity
  8
0
  6
CONTINUOUS
 62
               4
100
AcDbLine
 10
195.71557717130295
 20
96.555764169699188
 30
0.0
 11
195.71557717130295
 21
87.455764174899201
 31
0.0
  0
LINE
  5
337
100
AcDbEntity
  8
0
  6
CONTINUOUS
 62
               4
100
AcDbLine
 10
197.71658727116963
 20
96.65475406863257
 30
0.0
 11
197.41254686730295
 21
96.958794472499193
 31
0.0
  0
LINE
  5
338
100
AcDbEntity
  8
0
  6
CONTINUOUS
 62
               4
100
AcDbLine
 10
201.8105266627696
 20
97.156774270365844
 30
0.0
 11
201.31557716810292
 21
97.156774270365844
 31
0.0
  0
LINE
  5
339
100
AcDbEntity
  8
0
  6
CONTINUOUS
 62
               4
100
AcDbLine
 10
201.8105266627696
 20
102.1577843842324
 30
0.0
 11
201.31557716810292
 21
102.1577843842324
 31
0.0
  0
LINE
  5
33A
100
AcDbEntity
  8
0
  6
CONTINUOUS
 62
               4
100
AcDbLine
 10
197.71658727116963
 20
103.16182478769906
 30
0.0
 11
197.41254686730295
 21
102.85778438383238
 31
0.0
  0
LINE
  5
33B
100
AcDbEntity
  8
0
  6
CONTINUOUS
 62
               4
100
AcDbLine
 10
197.41254686730295
 20
102.85778438383238
 30
0.0
 11
197.41254686730295
 21
96.958794472499193
 31
0.0
  0
LINE
  5
33C
100
AcDbEntity
  8
0
  6
CONTINUOUS
 62
               4
100
AcDbLine
 10
197.71658727116963
 20
103.16182478769906
 30
0.0
 11
197.71658727116963
 21
95.55879447329923
 31
0.0
  0
LINE
  5
33D
100
AcDbEntity
  8
0
  6
CONTINUOUS
 62
               4
100
AcDbLine
 10
196.71254686770297
 20
94.15879447409921
 30
0.0
 11
196.71254686770297
 21
88.459804578365862
 31
0.0
  0
LINE
  5
33E
100
AcDbEntity
  8
0
  6
CONTINUOUS
 62
               4
100
AcDbLine
 10
196.91759737263627
 20
95.488087402632544
 30
0.0
 11
195.81456707023622
 21
101.75224800804193
 31
0.0
  0
LINE
  5
33F
100
AcDbEntity
  8
0
  6
CONTINUOUS
 62
               4
100
AcDbLine
 10
195.81456707023622
 20
103.16182478769906
 30
0.0
 11
194.81759737383632
 21
103.16182478769906
 31
0.0
  0
LINE
  5
340
100
AcDbEntity
  8
0
  6
CONTINUOUS
 62
               4
100
AcDbLine
 10
195.81456707023622
 20
103.16182478769906
 30
0.0
 11
195.81456707023622
 21
101.74768337436569
 31
0.0
  0
LINE
  5
341
100
AcDbEntity
  8
0
  6
CONTINUOUS
 62
               4
100
AcDbLine
 10
195.71557717130295
 20
96.555764169699188
 30
0.0
 11
194.81759737383632
 21
101.66283488956572
 31
0.0
  0
LINE
  5
342
100
AcDbEntity
  8
0
  6
CONTINUOUS
 62
               4
100
AcDbLine
 10
194.81759737383632
 20
103.16182478769906
 30
0.0
 11
194.81759737383632
 21
101.66283488956572
 31
0.0
  0
LINE
  5
343
100
AcDbEntity
  8
0
  6
CONTINUOUS
 62
               4
100
AcDbLine
 10
198.41658727076961
 20
103.16182478769906
 30
0.0
 11
198.41658727076961
 21
95.155764170499225
 31
0.0
  0
LINE
  5
344
100
AcDbEntity
  8
0
  6
CONTINUOUS
 62
               4
100
AcDbLine
 10
200.21254686570299
 20
103.16182478769906
 30
0.0
 11
200.21254686570299
 21
95.155764170499225
 31
0.0
  0
LINE
  5
345
100
AcDbEntity
  8
0
  6
CONTINUOUS
 62
               4
100
AcDbLine
 10
201.8105266627696
 20
103.16182478769906
 30
0.0
 11
197.71658727116963
 21
103.16182478769906
 31
0.0
  0
LINE
  5
346
100
AcDbEntity
  8
0
  6
CONTINUOUS
 62
               4
100
AcDbLine
 10
201.8105266627696
 20
75.661824787699061
 30
0.0
 11
197.10143575636963
 21
77.853743978365799
 31
0.0
  0
LINE
  5
347
100
AcDbEntity
  8
0
  6
CONTINUOUS
 62
               4
100
AcDbLine
 10
196.81153676663624
 20
94.66081467583254
 30
0.0
 11
196.81153676663624
 21
78.306269230632438
 31
0.0
  0
LINE
  5
348
100
AcDbEntity
  8
0
  6
CONTINUOUS
 62
               4
100
AcDbLine
 10
204.81557716610294
 20
95.155764170499225
 30
0.0
 11
197.31355696836957
 21
95.155764170499225
 31
0.0
  0
LINE
  5
349
100
AcDbEntity
  8
0
  6
CONTINUOUS
 62
               4
100
AcDbLine
 10
216.81557716210298
 20
96.561824787699237
 30
0.0
 11
204.81557716610294
 21
96.561824787699237
 31
0.0
  0
LINE
  5
34A
100
AcDbEntity
  8
0
  6
CONTINUOUS
 62
               4
100
AcDbLine
 10
216.81557716210298
 20
98.161824787699203
 30
0.0
 11
216.81557716210298
 21
96.561824787699237
 31
0.0
  0
ARC
  5
34B
100
AcDbEntity
  8
0
  6
CONTINUOUS
 62
               4
100
AcDbCircle
 10
218.31557715810291
 20
97.561824787699237
 30
0.0
 40
0.5
100
AcDbArc
 50
0.0
 51
89.999999999999815
  0
ARC
  5
34C
100
AcDbEntity
  8
0
  6
CONTINUOUS
 62
               4
100
AcDbCircle
 10
205.31557716610294
 20
97.561824787699237
 30
0.0
 40
0.5
100
AcDbArc
 50
93.919585899650798
 51
179.99999999999963
  0
ARC
  5
34D
100
AcDbEntity
  8
0
  6
CONTINUOUS
 62
               4
100
AcDbCircle
 10
205.61448924697473
 20
97.562912792827404
 30
0.0
 40
0.5989129231257409
100
AcDbArc
 50
89.895914524772735
 51
180.10408547522667
  0
ARC
  5
34E
100
AcDbEntity
  8
0
  6
CONTINUOUS
 62
               4
100
AcDbCircle
 10
218.01567221875158
 20
97.561919934347856
 30
0.0
 40
0.5999048008965869
100
AcDbArc
 50
56.247417870393882
 51
90.009087277546172
  0
LINE
  5
34F
100
AcDbEntity
  8
0
  6
CONTINUOUS
 62
               4
100
AcDbLine
 10
218.01557707210296
 20
98.161824787699203
 30
0.0
 11
205.6155772521029
 21
98.161824787699203
 31
0.0
  0
LINE
  5
350
100
AcDbEntity
  8
0
  6
CONTINUOUS
 62
               4
100
AcDbLine
 10
218.31557715810291
 20
98.061824787699237
 30
0.0
 11
216.81557716210298
 21
98.061824787699237
 31
0.0
  0
LINE
  5
351
100
AcDbEntity
  8
0
  6
CONTINUOUS
 62
               4
100
AcDbLine
 10
207.51557716210291
 20
97.561824787699237
 30
0.0
 11
204.81557716610294
 21
97.561824787699237
 31
0.0
  0
LINE
  5
352
100
AcDbEntity
  8
0
  6
CONTINUOUS
 62
               4
100
AcDbLine
 10
207.51557716210291
 20
98.161824787699203
 30
0.0
 11
207.51557716210291
 21
97.561824787699237
 31
0.0
  0
LINE
  5
353
100
AcDbEntity
  8
0
  6
CONTINUOUS
 62
               7
100
AcDbLine
 10
220.51557716210291
 20
76.161825092874949
 30
0.0
 11
220.81557716210293
 21
75.861825092874966
 31
0.0
  0
LINE
  5
354
100
AcDbEntity
  8
0
  6
CONTINUOUS
 62
               4
100
AcDbLine
 10
202.8155771621029
 20
75.661824787699175
 30
0.0
 11
201.81557434557615
 21
75.661824787699175
 31
0.0
  0
LINE
  5
355
100
AcDbEntity
  8
0
  6
CONTINUOUS
 62
               4
100
AcDbLine
 10
218.81557716210293
 20
97.561824787699152
 30
0.0
 11
218.81557716210293
 21
76.161825092874949
 31
0.0
  0
LINE
  5
356
100
AcDbEntity
  8
0
  6
CONTINUOUS
 62
               4
100
AcDbLine
 10
204.81557716210293
 20
76.161825092874949
 30
0.0
 11
204.81557716210293
 21
97.561824782631447
 31
0.0
  0
LINE
  5
357
100
AcDbEntity
  8
0
  6
CONTINUOUS
 62
               4
100
AcDbLine
 10
199.56204181556964
 20
114.15677427636575
 30
0.0
 11
199.06709232090296
 21
114.15677427636575
 31
0.0
  0
LINE
  5
358
100
AcDbEntity
  8
0
  6
CENTER
 62
               2
100
AcDbLine
 10
45.282243922912926
 20
28.36182509388631
 30
0.0
 11
45.282243922912926
 21
40.36182509388631
 31
0.0
  0
CIRCLE
  5
359
100
AcDbEntity
  8
0
  6
CONTINUOUS
 62
               2
100
AcDbCircle
 10
45.282243922912926
 20
50.861825093886296
 30
0.0
 40
4.8639993667602539
  0
CIRCLE
  5
35A
100
AcDbEntity
  8
0
  6
CONTINUOUS
 62
               7
100
AcDbCircle
 10
45.282243922912926
 20
50.861825093886296
 30
0.0
 40
4.2779998779296875
  0
LINE
  5
35B
100
AcDbEntity
  8
0
  6
CONTINUOUS
 62
               7
100
AcDbLine
 10
53.78224391827402
 20
19.161825092402268
 30
0.0
 11
53.782243918274048
 21
66.161825094897594
 31
0.0
  0
LINE
  5
35C
100
AcDbEntity
  8
0
  6
CONTINUOUS
 62
               7
100
AcDbLine
 10
36.782243918274048
 20
19.161825092875034
 30
0.0
 11
36.782243918274048
 21
66.161825094897594
 31
0.0
  0
LINE
  5
35D
100
AcDbEntity
  8
0
  6
CONTINUOUS
 62
               7
100
AcDbLine
 10
72.482243918274037
 20
23.161825092875034
 30
0.0
 11
54.482243918274037
 21
23.161825092875063
 31
0.0
  0
LINE
  5
35E
100
AcDbEntity
  8
0
  6
CONTINUOUS
 62
               7
100
AcDbLine
 10
36.782243922912926
 20
19.161825092875034
 30
0.0
 11
53.78224391827402
 21
19.161825092875034
 31
0.0
  0
LINE
  5
35F
100
AcDbEntity
  8
0
  6
CONTINUOUS
 62
               7
100
AcDbLine
 10
53.782243918274048
 20
23.661825092875063
 30
0.0
 11
54.482243918274037
 21
23.661825092875063
 31
0.0
  0
CIRCLE
  5
360
100
AcDbEntity
  8
0
  6
CONTINUOUS
 62
               7
100
AcDbCircle
 10
45.282243922912926
 20
34.36182509388631
 30
0.0
 40
4.2779998779296875
  0
CIRCLE
  5
361
100
AcDbEntity
  8
0
  6
CONTINUOUS
 62
               2
100
AcDbCircle
 10
45.282243922912926
 20
34.36182509388631
 30
0.0
 40
4.8639993667602539
  0
LINE
  5
362
100
AcDbEntity
  8
0
  6
CENTER
 62
               2
100
AcDbLine
 10
51.282243922912926
 20
34.36182509388631
 30
0.0
 11
39.282243922912926
 21
34.36182509388631
 31
0.0
  0
LINE
  5
363
100
AcDbEntity
  8
0
  6
CONTINUOUS
 62
               7
100
AcDbLine
 10
54.58224391827406
 20
62.161825092875048
 30
0.0
 11
72.482243918274037
 21
62.161825092875048
 31
0.0
  0
LINE
  5
364
100
AcDbEntity
  8
0
  6
CONTINUOUS
 62
               7
100
AcDbLine
 10
54.782243918274048
 20
76.161825092874977
 30
0.0
 11
54.482243918274037
 21
75.861825092874966
 31
0.0
  0
LINE
  5
365
100
AcDbEntity
  8
0
  6
CONTINUOUS
 62
               7
100
AcDbLine
 10
54.482243918274065
 20
62.061825092874969
 30
0.0
 11
54.58224391827406
 21
62.161825092874963
 31
0.0
  0
LINE
  5
366
100
AcDbEntity
  8
0
  6
CONTINUOUS
 62
               7
100
AcDbLine
 10
54.782243918274048
 20
76.161825092874977
 30
0.0
 11
72.482243918274065
 21
76.161825092874977
 31
0.0
  0
LINE
  5
367
100
AcDbEntity
  8
0
  6
CONTINUOUS
 62
               7
100
AcDbLine
 10
36.782243922912926
 20
66.161825094897594
 30
0.0
 11
53.782243918274048
 21
66.161825094897594
 31
0.0
  0
LINE
  5
368
100
AcDbEntity
  8
0
  6
CONTINUOUS
 62
               7
100
AcDbLine
 10
54.482243918274065
 20
61.661825092875048
 30
0.0
 11
53.782243918274048
 21
61.661825092875048
 31
0.0
  0
LINE
  5
369
100
AcDbEntity
  8
0
  6
CENTER
 62
               2
100
AcDbLine
 10
51.282243922912926
 20
50.861825093886296
 30
0.0
 11
39.282243922912926
 21
50.861825093886296
 31
0.0
  0
LINE
  5
36A
100
AcDbEntity
  8
0
  6
CONTINUOUS
 62
               7
100
AcDbLine
 10
71.482243927409087
 20
53.011825097144381
 30
0.0
 11
72.482243918274037
 21
53.011825097144381
 31
0.0
  0
LINE
  5
36B
100
AcDbEntity
  8
0
  6
CONTINUOUS
 62
               7
100
AcDbLine
 10
71.482243927409087
 20
49.711825097144384
 30
0.0
 11
72.482243918274037
 21
49.711825097144384
 31
0.0
  0
ARC
  5
36C
100
AcDbEntity
  8
0
  6
CONTINUOUS
 62
               7
100
AcDbCircle
 10
71.482339064932177
 20
50.461729950486188
 30
0.0
 40
0.5999048608870732
100
AcDbArc
 50
269.99091272245317
 51
0.0090872775463741
  0
LINE
  5
36D
100
AcDbEntity
  8
0
  6
CONTINUOUS
 62
               7
100
AcDbLine
 10
72.082243918274003
 20
50.461729950486188
 30
0.0
 11
72.082243918274003
 21
52.26291310238139
 31
0.0
  0
ARC
  5
36E
100
AcDbEntity
  8
0
  6
CONTINUOUS
 62
               7
100
AcDbCircle
 10
71.483331923511031
 20
52.26291310238139
 30
0.0
 40
0.5989129830170392
100
AcDbArc
 50
359.89591452477219
 51
90.104085475226924
  0
LINE
  5
36F
100
AcDbEntity
  8
0
  6
CONTINUOUS
 62
               7
100
AcDbLine
 10
71.482243918274037
 20
49.711825097144384
 30
0.0
 11
71.482243918274037
 21
53.011825097144381
 31
0.0
  0
LINE
  5
370
100
AcDbEntity
  8
0
  6
CENTER
 62
               2
100
AcDbLine
 10
45.282243922912926
 20
44.861825093886296
 30
0.0
 11
45.282243922912926
 21
56.861825093886296
 31
0.0
  0
LINE
  5
371
100
AcDbEntity
  8
0
  6
CONTINUOUS
 62
               7
100
AcDbLine
 10
72.482243918274065
 20
18.661825092874949
 30
0.0
 11
72.482243918274065
 21
76.161825092874977
 31
0.0
  0
LINE
  5
372
100
AcDbEntity
  8
0
  6
CONTINUOUS
 62
               7
100
AcDbLine
 10
54.482243918274037
 20
18.661825092874956
 30
0.0
 11
54.482243918274037
 21
75.861825092874994
 31
0.0
  0
ARC
  5
373
100
AcDbEntity
  8
0
  6
CONTINUOUS
 62
               7
100
AcDbCircle
 10
56.477243918274041
 20
21.866837297532193
 30
0.0
 40
3.2015494236961581
100
AcDbArc
 50
241.55389706210474
 51
298.44610293789401
  0
ARC
  5
374
100
AcDbEntity
  8
0
  6
CONTINUOUS
 62
               7
100
AcDbCircle
 10
55.154130048841694
 20
19.422270900239546
 30
0.0
 40
0.4218863661100916
100
AcDbArc
 50
180.06054446711471
 51
241.41043093672513
  0
LINE
  5
375
100
AcDbEntity
  8
0
  6
CONTINUOUS
 62
               7
100
AcDbLine
 10
58.232243918274037
 20
19.421825092874947
 30
0.0
 11
58.232243918274037
 21
19.961825092874967
 31
0.0
  0
ARC
  5
376
100
AcDbEntity
  8
0
  6
CONTINUOUS
 62
               7
100
AcDbCircle
 10
57.799343619497165
 20
19.434438792114641
 30
0.0
 40
0.4330840265925726
100
AcDbArc
 50
297.93703700787626
 51
358.33100760491578
  0
LINE
  5
377
100
AcDbEntity
  8
0
  6
CONTINUOUS
 62
               7
100
AcDbLine
 10
54.732243918274037
 20
19.421825092874947
 30
0.0
 11
54.732243918274037
 21
19.961825092874967
 31
0.0
  0
ARC
  5
378
100
AcDbEntity
  8
0
  6
CONTINUOUS
 62
               7
100
AcDbCircle
 10
54.682243918274025
 20
20.161825092874956
 30
0.0
 40
0.2
100
AcDbArc
 50
179.99999999999963
 51
269.99999999999937
  0
ARC
  5
379
100
AcDbEntity
  8
0
  6
CONTINUOUS
 62
               7
100
AcDbCircle
 10
58.882243918274014
 20
18.361825092874945
 30
0.0
 40
0.2
100
AcDbArc
 50
179.99999999999963
 51
269.99999999999937
  0
ARC
  5
37A
100
AcDbEntity
  8
0
  6
CONTINUOUS
 62
               7
100
AcDbCircle
 10
58.482243918274037
 20
19.761825092874979
 30
0.0
 40
0.2
100
AcDbArc
 50
0.0
 51
89.999999999999815
  0
LINE
  5
37B
100
AcDbEntity
  8
0
  6
CONTINUOUS
 62
               7
100
AcDbLine
 10
54.682243918274025
 20
19.961825092874967
 30
0.0
 11
58.482243918274037
 21
19.961825092874967
 31
0.0
  0
LINE
  5
37C
100
AcDbEntity
  8
0
  6
CONTINUOUS
 62
               7
100
AcDbLine
 10
58.682243918274025
 20
19.761825075868394
 30
0.0
 11
58.682243918274025
 21
18.361825092874945
 31
0.0
  0
ARC
  5
37D
100
AcDbEntity
  8
0
  6
CONTINUOUS
 62
               7
100
AcDbCircle
 10
54.982243918274037
 20
18.661825092874963
 30
0.0
 40
0.5
100
AcDbArc
 50
179.99999999999963
 51
269.99999999999937
  0
ARC
  5
37E
100
AcDbEntity
  8
0
  6
CONTINUOUS
 62
               7
100
AcDbCircle
 10
71.982243918274065
 20
18.661825092874949
 30
0.0
 40
0.5
100
AcDbArc
 50
270.00000000000023
 51
0.0
  0
LINE
  5
37F
100
AcDbEntity
  8
0
  6
CONTINUOUS
 62
               7
100
AcDbLine
 10
54.982243918274037
 20
18.161825092874956
 30
0.0
 11
71.982243918274037
 21
18.161825092874956
 31
0.0
  0
LINE
  5
380
100
AcDbEntity
  8
0
  6
CENTER
 62
               2
100
AcDbLine
 10
63.482243918274037
 20
100.79107583871131
 30
0.0
 11
63.482243918274037
 21
15.188652057783564
 31
0.0
  0
LINE
  5
381
100
AcDbEntity
  8
0
  6
CENTER
 62
               2
100
AcDbLine
 10
34.282243931981895
 20
60.161825286643776
 30
0.0
 11
39.282243931981895
 21
60.161825286643776
 31
0.0
  0
LINE
  5
382
100
AcDbEntity
  8
0
  6
CENTER
 62
               2
100
AcDbLine
 10
34.282243931981895
 20
25.161824901128895
 30
0.0
 11
39.282243931981895
 21
25.161824901128895
 31
0.0
  0
LINE
  5
383
100
AcDbEntity
  8
0
  6
CONTINUOUS
 62
               4
100
AcDbLine
 10
68.482243918274094
 20
96.561824787699265
 30
0.0
 11
56.482243922274051
 21
96.561824787699265
 31
0.0
  0
LINE
  5
384
100
AcDbEntity
  8
0
  6
CONTINUOUS
 62
               4
100
AcDbLine
 10
69.682243828274068
 20
98.161824787699231
 30
0.0
 11
57.282244008274006
 21
98.161824787699231
 31
0.0
  0
LINE
  5
385
100
AcDbEntity
  8
0
  6
CONTINUOUS
 62
               4
100
AcDbLine
 10
56.482243918274037
 20
97.56182478769918
 30
0.0
 11
56.482243918274037
 21
76.161825092874977
 31
0.0
  0
LINE
  5
386
100
AcDbEntity
  8
0
  6
CONTINUOUS
 62
               4
100
AcDbLine
 10
59.182243918274025
 20
98.161824787699231
 30
0.0
 11
59.182243918274025
 21
97.561824787699265
 31
0.0
  0
LINE
  5
387
100
AcDbEntity
  8
0
  6
CONTINUOUS
 62
               4
100
AcDbLine
 10
59.182243918274025
 20
97.561824787699265
 30
0.0
 11
56.482243922274051
 21
97.561824787699265
 31
0.0
  0
ARC
  5
388
100
AcDbEntity
  8
0
  6
CONTINUOUS
 62
               4
100
AcDbCircle
 10
57.281156003145838
 20
97.562912792827433
 30
0.0
 40
0.5989129231257409
100
AcDbArc
 50
89.895914524772735
 51
180.10408547522667
  0
ARC
  5
389
100
AcDbEntity
  8
0
  6
CONTINUOUS
 62
               4
100
AcDbCircle
 10
56.982243922274051
 20
97.561824787699265
 30
0.0
 40
0.5
100
AcDbArc
 50
93.919585899650798
 51
179.99999999999963
  0
LINE
  5
38A
100
AcDbEntity
  8
0
  6
CONTINUOUS
 62
               4
100
AcDbLine
 10
73.487294417607359
 20
75.661824787699089
 30
0.0
 11
73.487294417607359
 21
95.155764170499253
 31
0.0
  0
LINE
  5
38B
100
AcDbEntity
  8
0
  6
CONTINUOUS
 62
               4
100
AcDbLine
 10
78.486284313740725
 20
94.660814675832569
 30
0.0
 11
78.486284313740725
 21
78.306269230632466
 31
0.0
  0
LINE
  5
38C
100
AcDbEntity
  8
0
  6
CONTINUOUS
 62
               4
100
AcDbLine
 10
70.482243918274037
 20
76.161825092874977
 30
0.0
 11
70.482243918274037
 21
97.561824782631476
 31
0.0
  0
LINE
  5
38D
100
AcDbEntity
  8
0
  6
CONTINUOUS
 62
               4
100
AcDbLine
 10
75.73577926480732
 20
114.15677427636578
 30
0.0
 11
76.230728759474005
 21
114.15677427636578
 31
0.0
  0
LINE
  5
38E
100
AcDbEntity
  8
0
  6
CONTINUOUS
 62
               4
100
AcDbLine
 10
69.982243914274022
 20
98.061824787699265
 30
0.0
 11
68.482243918274094
 21
98.061824787699265
 31
0.0
  0
ARC
  5
38F
100
AcDbEntity
  8
0
  6
CONTINUOUS
 62
               4
100
AcDbCircle
 10
69.682338974922686
 20
97.561919934347884
 30
0.0
 40
0.5999048008965869
100
AcDbArc
 50
56.247417870393882
 51
90.009087277546172
  0
ARC
  5
390
100
AcDbEntity
  8
0
  6
CONTINUOUS
 62
               4
100
AcDbCircle
 10
69.982243914274022
 20
97.561824787699265
 30
0.0
 40
0.5
100
AcDbArc
 50
0.0
 51
89.999999999999815
  0
LINE
  5
391
100
AcDbEntity
  8
0
  6
CONTINUOUS
 62
               4
100
AcDbLine
 10
68.482243918274094
 20
98.161824787699231
 30
0.0
 11
68.482243918274094
 21
96.561824787699265
 31
0.0
  0
LINE
  5
392
100
AcDbEntity
  8
0
  6
CONTINUOUS
 62
               4
100
AcDbLine
 10
70.482243914274022
 20
95.155764170499253
 30
0.0
 11
77.984264112007395
 21
95.155764170499253
 31
0.0
  0
LINE
  5
393
100
AcDbEntity
  8
0
  6
CONTINUOUS
 62
               4
100
AcDbLine
 10
73.487294417607359
 20
103.16182478769909
 30
0.0
 11
77.581233809207333
 21
103.16182478769909
 31
0.0
  0
LINE
  5
394
100
AcDbEntity
  8
0
  6
CONTINUOUS
 62
               4
100
AcDbLine
 10
75.085274214673973
 20
103.16182478769909
 30
0.0
 11
75.085274214673973
 21
95.155764170499253
 31
0.0
  0
LINE
  5
395
100
AcDbEntity
  8
0
  6
CONTINUOUS
 62
               4
100
AcDbLine
 10
76.881233809607352
 20
103.16182478769909
 30
0.0
 11
76.881233809607352
 21
95.155764170499253
 31
0.0
  0
LINE
  5
396
100
AcDbEntity
  8
0
  6
CONTINUOUS
 62
               4
100
AcDbLine
 10
80.480223706540642
 20
103.16182478769909
 30
0.0
 11
80.480223706540642
 21
101.66283488956574
 31
0.0
  0
LINE
  5
397
100
AcDbEntity
  8
0
  6
CONTINUOUS
 62
               4
100
AcDbLine
 10
79.582243909074009
 20
96.555764169699216
 30
0.0
 11
80.480223706540642
 21
101.66283488956574
 31
0.0
  0
LINE
  5
398
100
AcDbEntity
  8
0
  6
CONTINUOUS
 62
               4
100
AcDbLine
 10
79.48325401014074
 20
103.16182478769909
 30
0.0
 11
79.48325401014074
 21
101.74768337436572
 31
0.0
  0
LINE
  5
399
100
AcDbEntity
  8
0
  6
CONTINUOUS
 62
               4
100
AcDbLine
 10
79.48325401014074
 20
103.16182478769909
 30
0.0
 11
80.480223706540642
 21
103.16182478769909
 31
0.0
  0
LINE
  5
39A
100
AcDbEntity
  8
0
  6
CONTINUOUS
 62
               4
100
AcDbLine
 10
78.380223707740697
 20
95.488087402632573
 30
0.0
 11
79.48325401014074
 21
101.75224800804196
 31
0.0
  0
LINE
  5
39B
100
AcDbEntity
  8
0
  6
CONTINUOUS
 62
               4
100
AcDbLine
 10
78.585274212673994
 20
94.158794474099238
 30
0.0
 11
78.585274212673994
 21
88.45980457836589
 31
0.0
  0
LINE
  5
39C
100
AcDbEntity
  8
0
  6
CONTINUOUS
 62
               4
100
AcDbLine
 10
77.581233809207333
 20
103.16182478769909
 30
0.0
 11
77.581233809207333
 21
95.558794473299258
 31
0.0
  0
LINE
  5
39D
100
AcDbEntity
  8
0
  6
CONTINUOUS
 62
               4
100
AcDbLine
 10
77.885274213074013
 20
102.85778438383241
 30
0.0
 11
77.885274213074013
 21
96.958794472499221
 31
0.0
  0
LINE
  5
39E
100
AcDbEntity
  8
0
  6
CONTINUOUS
 62
               4
100
AcDbLine
 10
77.581233809207333
 20
103.16182478769909
 30
0.0
 11
77.885274213074013
 21
102.85778438383241
 31
0.0
  0
LINE
  5
39F
100
AcDbEntity
  8
0
  6
CONTINUOUS
 62
               4
100
AcDbLine
 10
73.487294417607359
 20
102.15778438423243
 30
0.0
 11
73.982243912274043
 21
102.15778438423243
 31
0.0
  0
LINE
  5
3A0
100
AcDbEntity
  8
0
  6
CONTINUOUS
 62
               4
100
AcDbLine
 10
73.487294417607359
 20
97.156774270365872
 30
0.0
 11
73.982243912274043
 21
97.156774270365872
 31
0.0
  0
LINE
  5
3A1
100
AcDbEntity
  8
0
  6
CONTINUOUS
 62
               4
100
AcDbLine
 10
77.581233809207333
 20
96.654754068632599
 30
0.0
 11
77.885274213074013
 21
96.958794472499221
 31
0.0
  0
LINE
  5
3A2
100
AcDbEntity
  8
0
  6
CONTINUOUS
 62
               4
100
AcDbLine
 10
79.582243909074009
 20
96.555764169699216
 30
0.0
 11
79.582243909074009
 21
87.45576417489923
 31
0.0
  0
LINE
  5
3A3
100
AcDbEntity
  8
0
  6
CONTINUOUS
 62
               4
100
AcDbLine
 10
78.585274212673994
 20
87.158794478099196
 30
0.0
 11
79.285274212273976
 21
87.158794478099196
 31
0.0
  0
LINE
  5
3A4
100
AcDbEntity
  8
0
  6
CONTINUOUS
 62
               4
100
AcDbLine
 10
78.486284313740725
 20
88.45980457836589
 30
0.0
 11
78.585274212673994
 21
88.45980457836589
 31
0.0
  0
LINE
  5
3A5
100
AcDbEntity
  8
0
  6
CONTINUOUS
 62
               4
100
AcDbLine
 10
78.486284313740725
 20
87.257784377032522
 30
0.0
 11
78.585274212673994
 21
87.158794478099196
 31
0.0
  0
LINE
  5
3A6
100
AcDbEntity
  8
0
  6
CONTINUOUS
 62
               4
100
AcDbLine
 10
75.332748962007372
 20
107.72950155276575
 30
0.0
 11
75.332748962007372
 21
103.16182478769909
 31
0.0
  0
LINE
  5
3A7
100
AcDbEntity
  8
0
  6
CONTINUOUS
 62
               4
100
AcDbLine
 10
76.633759062274066
 20
110.65677427836576
 30
0.0
 11
76.633759062274066
 21
107.32647124996575
 31
0.0
  0
LINE
  5
3A8
100
AcDbEntity
  8
0
  6
CONTINUOUS
 62
               4
100
AcDbLine
 10
75.332748962007372
 20
110.65677427836576
 30
0.0
 11
75.332748962007372
 21
108.07596619903242
 31
0.0
  0
LINE
  5
3A9
100
AcDbEntity
  8
0
  6
CONTINUOUS
 62
               4
100
AcDbLine
 10
75.332748962007372
 20
110.65677427836576
 30
0.0
 11
76.633759062274066
 21
110.65677427836576
 31
0.0
  0
LINE
  5
3AA
100
AcDbEntity
  8
0
  6
CONTINUOUS
 62
               4
100
AcDbLine
 10
75.73577926480732
 20
114.15677427636578
 30
0.0
 11
75.73577926480732
 21
110.65677427836576
 31
0.0
  0
LINE
  5
3AB
100
AcDbEntity
  8
0
  6
CONTINUOUS
 62
               4
100
AcDbLine
 10
76.230728759474005
 20
114.15677427636578
 30
0.0
 11
76.230728759474005
 21
110.65677427836576
 31
0.0
  0
LINE
  5
3AC
100
AcDbEntity
  8
0
  6
CONTINUOUS
 62
             200
100
AcDbLine
 10
77.482243910274065
 20
106.83152175529912
 30
0.0
 11
74.484264114007374
 21
108.5638449866324
 31
0.0
  0
LINE
  5
3AD
100
AcDbEntity
  8
0
  6
CONTINUOUS
 62
             200
100
AcDbLine
 10
77.482243910274065
 20
106.48505710903245
 30
0.0
 11
74.484264114007374
 21
108.21738034036579
 31
0.0
  0
LINE
  5
3AE
100
AcDbEntity
  8
0
  6
CONTINUOUS
 62
               4
100
AcDbLine
 10
76.633759062274066
 20
106.98000660369908
 30
0.0
 11
76.633759062274066
 21
103.16182478769909
 31
0.0
  0
LINE
  5
3AF
100
AcDbEntity
  8
0
  6
CONTINUOUS
 62
               4
100
AcDbLine
 10
73.487294417607359
 20
103.16182478769909
 30
0.0
 11
73.487294417607359
 21
102.15778438423243
 31
0.0
  0
LINE
  5
3B0
100
AcDbEntity
  8
0
  6
CONTINUOUS
 62
               4
100
AcDbLine
 10
73.487294417607359
 20
97.156774270365872
 30
0.0
 11
73.487294417607359
 21
95.155764170499253
 31
0.0
  0
LINE
  5
3B1
100
AcDbEntity
  8
0
  6
CONTINUOUS
 62
               4
100
AcDbLine
 10
73.982243912274043
 20
102.15778438423243
 30
0.0
 11
73.982243912274043
 21
97.156774270365872
 31
0.0
  0
ARC
  5
3B2
100
AcDbEntity
  8
0
  6
CONTINUOUS
 62
               4
100
AcDbCircle
 10
77.986078037552716
 20
94.655533302482866
 30
0.0
 40
0.5002341568128574
100
AcDbArc
 50
0.6049287534634878
 51
90.207763713153867
  0
ARC
  5
3B3
100
AcDbEntity
  8
0
  6
CONTINUOUS
 62
               4
100
AcDbCircle
 10
79.280140036365879
 20
87.46089835080744
 30
0.0
 40
0.3021474965435785
100
AcDbArc
 50
270.97363298451126
 51
359.02636701548732
  0
ARC
  5
3B4
100
AcDbEntity
  8
0
  6
CONTINUOUS
 62
               4
100
AcDbCircle
 10
78.08223085914085
 20
94.156096521143752
 30
0.0
 40
0.5030505883944908
100
AcDbArc
 50
0.3072892911898554
 51
36.562608354652731
  0
ARC
  5
3B5
100
AcDbEntity
  8
0
  6
CONTINUOUS
 62
               4
100
AcDbCircle
 10
77.984165040972016
 20
95.562270930192938
 30
0.0
 40
0.4029462287748787
100
AcDbArc
 50
180.49433091715488
 51
349.39117201772478
  0
LINE
  5
3B6
100
AcDbEntity
  8
0
  6
CONTINUOUS
 62
               4
100
AcDbLine
 10
72.482243918274065
 20
75.661824787699203
 30
0.0
 11
73.48224673480081
 21
75.661824787699203
 31
0.0
  0
LINE
  5
3B7
100
AcDbEntity
  8
0
  6
CONTINUOUS
 62
               4
100
AcDbLine
 10
73.487294417607359
 20
75.661824787699089
 30
0.0
 11
78.196385324007338
 21
77.853743978365827
 31
0.0
  0
ARC
  5
3B8
100
AcDbEntity
  8
0
  6
CONTINUOUS
 62
               4
100
AcDbCircle
 10
77.98027697584314
 20
78.311309285190845
 30
0.0
 40
0.5060324378497572
100
AcDbArc
 50
295.28139190005214
 51
359.42932783011406
  0
LINE
  5
3B9
100
AcDbEntity
  8
0
  6
CONTINUOUS
 62
               7
100
AcDbLine
 10
148.24891054018849
 20
19.161825092875034
 30
0.0
 11
141.14891054018847
 21
19.161825092875034
 31
0.0
  0
LINE
  5
3BA
100
AcDbEntity
  8
0
  6
CONTINUOUS
 62
               7
100
AcDbLine
 10
130.09891054018851
 20
75.661825097144387
 30
0.0
 11
140.19891054018848
 21
75.661825097144387
 31
0.0
  0
LINE
  5
3BB
100
AcDbEntity
  8
0
  6
CONTINUOUS
 62
               7
100
AcDbLine
 10
129.14796205386031
 20
66.161825094897608
 30
0.0
 11
120.04891054311861
 21
66.161825094897608
 31
0.0
  0
CIRCLE
  5
3BC
100
AcDbEntity
  8
0
  6
CONTINUOUS
 62
               7
100
AcDbCircle
 10
124.0489105401885
 20
25.161824901128895
 30
0.0
 40
2.25
  0
CIRCLE
  5
3BD
100
AcDbEntity
  8
0
  6
CONTINUOUS
 62
               7
100
AcDbCircle
 10
124.0489105401885
 20
60.161825286643776
 30
0.0
 40
2.25
  0
LINE
  5
3BE
100
AcDbEntity
  8
0
  6
CONTINUOUS
 62
               7
100
AcDbLine
 10
120.0489105401885
 20
19.161825092875034
 30
0.0
 11
120.0489105401885
 21
66.161825094897608
 31
0.0
  0
LINE
  5
3BF
100
AcDbEntity
  8
0
  6
CONTINUOUS
 62
               7
100
AcDbLine
 10
148.24891054018849
 20
19.161825092875034
 30
0.0
 11
148.24891054018849
 21
66.161825094897608
 31
0.0
  0
LINE
  5
3C0
100
AcDbEntity
  8
0
  6
CENTER
 62
               2
100
AcDbLine
 10
128.55623020087751
 20
25.161824901128895
 30
0.0
 11
119.76435667101242
 21
25.161824901128895
 31
0.0
  0
LINE
  5
3C1
100
AcDbEntity
  8
0
  6
CENTER
 62
               2
100
AcDbLine
 10
124.0489105401885
 20
21.161824901128895
 30
0.0
 11
124.0489105401885
 21
29.986631517330053
 31
0.0
  0
LINE
  5
3C2
100
AcDbEntity
  8
0
  6
CENTER
 62
               2
100
AcDbLine
 10
128.55623020087751
 20
60.161825286643776
 30
0.0
 11
119.76435667101242
 21
60.161825286643776
 31
0.0
  0
LINE
  5
3C3
100
AcDbEntity
  8
0
  6
CENTER
 62
               2
100
AcDbLine
 10
124.0489105401885
 20
64.161825286643762
 30
0.0
 11
124.0489105401885
 21
55.337018670442617
 31
0.0
  0
LINE
  5
3C4
100
AcDbEntity
  8
0
  6
CONTINUOUS
 62
               7
100
AcDbLine
 10
148.24891054018849
 20
66.161825094897608
 30
0.0
 11
141.14796205386031
 21
66.161825094897608
 31
0.0
  0
LINE
  5
3C5
100
AcDbEntity
  8
0
  6
CONTINUOUS
 62
               7
100
AcDbLine
 10
140.19891054018848
 20
75.961825097144384
 30
0.0
 11
140.3989105401885
 21
76.161825097144387
 31
0.0
  0
LINE
  5
3C6
100
AcDbEntity
  8
0
  6
CONTINUOUS
 62
               7
100
AcDbLine
 10
130.09891054018851
 20
75.961825097144384
 30
0.0
 11
129.8989105401885
 21
76.161825097144387
 31
0.0
  0
LINE
  5
3C7
100
AcDbEntity
  8
0
  6
CONTINUOUS
 62
               7
100
AcDbLine
 10
130.09891054018851
 20
75.961825097144384
 30
0.0
 11
130.09891054018851
 21
75.661825097144387
 31
0.0
  0
LINE
  5
3C8
100
AcDbEntity
  8
0
  6
CONTINUOUS
 62
               7
100
AcDbLine
 10
140.19891054018848
 20
75.961825097144384
 30
0.0
 11
140.19891054018848
 21
75.661825097144387
 31
0.0
  0
LINE
  5
3C9
100
AcDbEntity
  8
0
  6
CONTINUOUS
 62
               7
100
AcDbLine
 10
140.84891054018848
 20
76.161825097144387
 30
0.0
 11
141.1489105401885
 21
75.86182509714439
 31
0.0
  0
LINE
  5
3CA
100
AcDbEntity
  8
0
  6
CONTINUOUS
 62
               7
100
AcDbLine
 10
129.44891054018848
 20
76.161825097144387
 30
0.0
 11
129.1489105401885
 21
75.86182509714439
 31
0.0
  0
LINE
  5
3CB
100
AcDbEntity
  8
0
  6
CONTINUOUS
 62
               7
100
AcDbLine
 10
129.44891054018848
 20
76.161825097144387
 30
0.0
 11
129.8989105401885
 21
76.161825097144387
 31
0.0
  0
CIRCLE
  5
3CC
100
AcDbEntity
  8
0
  6
CONTINUOUS
 62
               7
100
AcDbCircle
 10
135.14916054018849
 20
73.36182509714439
 30
0.0
 40
1.1500000000000001
  0
LINE
  5
3CD
100
AcDbEntity
  8
0
  6
CONTINUOUS
 62
               7
100
AcDbLine
 10
140.3989105401885
 20
76.161825097144387
 30
0.0
 11
140.84891054018848
 21
76.161825097144387
 31
0.0
  0
LINE
  5
3CE
100
AcDbEntity
  8
0
  6
CONTINUOUS
 62
               7
100
AcDbLine
 10
129.1489105401885
 20
23.161825097144387
 30
0.0
 11
141.14891054018847
 21
23.161825097144387
 31
0.0
  0
LINE
  5
3CF
100
AcDbEntity
  8
0
  6
CENTER
 62
               2
100
AcDbLine
 10
137.46384067591285
 20
73.36182511073136
 30
0.0
 11
132.92496638751282
 21
73.36182511073136
 31
0.0
  0
CIRCLE
  5
3D0
100
AcDbEntity
  8
0
  6
CONTINUOUS
 62
               7
100
AcDbCircle
 10
135.1489105401885
 20
73.36182511073136
 30
0.0
 40
1.1000000000000001
  0
CIRCLE
  5
3D1
100
AcDbEntity
  8
0
  6
CONTINUOUS
 62
               7
100
AcDbCircle
 10
135.1489105401885
 20
73.36182511073136
 30
0.0
 40
0.75
  0
CIRCLE
  5
3D2
100
AcDbEntity
  8
0
  6
CONTINUOUS
 62
               7
100
AcDbCircle
 10
135.1489105401885
 20
73.36182511073136
 30
0.0
 40
1.3999999999999997
  0
LINE
  5
3D3
100
AcDbEntity
  8
0
  6
CONTINUOUS
 62
               7
100
AcDbLine
 10
129.24891053663643
 20
62.161825097144394
 30
0.0
 11
129.14891054018847
 21
62.06182510069646
 31
0.0
  0
LINE
  5
3D4
100
AcDbEntity
  8
0
  6
CONTINUOUS
 62
               7
100
AcDbLine
 10
141.1489105401885
 20
62.0618250971444
 30
0.0
 11
141.04891054018847
 21
62.161825097144394
 31
0.0
  0
LINE
  5
3D5
100
AcDbEntity
  8
0
  6
CONTINUOUS
 62
               7
100
AcDbLine
 10
129.14891054018852
 20
62.161825097144394
 30
0.0
 11
141.14891054018852
 21
62.161825097144394
 31
0.0
  0
LINE
  5
3D6
100
AcDbEntity
  8
0
  6
CONTINUOUS
 62
               7
100
AcDbLine
 10
130.34891054018848
 20
49.711825097144391
 30
0.0
 11
129.1489105401885
 21
49.711825097144391
 31
0.0
  0
LINE
  5
3D7
100
AcDbEntity
  8
0
  6
CONTINUOUS
 62
               7
100
AcDbLine
 10
130.34891054018848
 20
53.011825097144396
 30
0.0
 11
129.1489105401885
 21
53.011825097144396
 31
0.0
  0
ARC
  5
3D8
100
AcDbEntity
  8
0
  6
CONTINUOUS
 62
               7
100
AcDbCircle
 10
130.34891054018848
 20
51.36182509714439
 30
0.0
 40
1.6499999999999999
100
AcDbArc
 50
269.99999999999937
 51
89.999999999999801
  0
LINE
  5
3D9
100
AcDbEntity
  8
0
  6
CONTINUOUS
 62
               7
100
AcDbLine
 10
139.94891054018848
 20
32.311825097144393
 30
0.0
 11
141.14891054018847
 21
32.311825097144393
 31
0.0
  0
LINE
  5
3DA
100
AcDbEntity
  8
0
  6
CONTINUOUS
 62
               7
100
AcDbLine
 10
139.94891054018848
 20
35.61182509714439
 30
0.0
 11
141.14891054018847
 21
35.61182509714439
 31
0.0
  0
ARC
  5
3DB
100
AcDbEntity
  8
0
  6
CONTINUOUS
 62
               7
100
AcDbCircle
 10
139.94891054018848
 20
33.961825097144398
 30
0.0
 40
1.6499999999999999
100
AcDbArc
 50
89.999999999999815
 51
269.99999999999937
  0
LINE
  5
3DC
100
AcDbEntity
  8
0
  6
CENTER
 62
               2
100
AcDbLine
 10
135.1489105401885
 20
105.79107583871131
 30
0.0
 11
135.1489105401885
 21
15.057172371331333
 31
0.0
  0
LINE
  5
3DD
100
AcDbEntity
  8
0
  6
CONTINUOUS
 62
               7
100
AcDbLine
 10
141.14891054018847
 20
18.661825096314082
 30
0.0
 11
141.1489105401885
 21
33.061825097144329
 31
0.0
  0
LINE
  5
3DE
100
AcDbEntity
  8
0
  6
CONTINUOUS
 62
               7
100
AcDbLine
 10
129.1489105401885
 20
18.661825096314068
 30
0.0
 11
129.1489105401885
 21
50.461825097144441
 31
0.0
  0
ARC
  5
3DF
100
AcDbEntity
  8
0
  6
CONTINUOUS
 62
               7
100
AcDbCircle
 10
136.74891054018852
 20
18.361825097144383
 30
0.0
 40
0.2
100
AcDbArc
 50
270.00000000000023
 51
0.0
  0
LINE
  5
3E0
100
AcDbEntity
  8
0
  6
CONTINUOUS
 62
               7
100
AcDbLine
 10
140.8989105401885
 20
19.421825097144385
 30
0.0
 11
140.8989105401885
 21
19.961825097144384
 31
0.0
  0
ARC
  5
3E1
100
AcDbEntity
  8
0
  6
CONTINUOUS
 62
               7
100
AcDbCircle
 10
140.46601024141162
 20
19.434438796384072
 30
0.0
 40
0.4330840265925726
100
AcDbArc
 50
297.93703700787626
 51
358.33100760491578
  0
ARC
  5
3E2
100
AcDbEntity
  8
0
  6
CONTINUOUS
 62
               7
100
AcDbCircle
 10
137.14891054018852
 20
19.761825097144389
 30
0.0
 40
0.2
100
AcDbArc
 50
89.999999999999815
 51
179.99999999999963
  0
ARC
  5
3E3
100
AcDbEntity
  8
0
  6
CONTINUOUS
 62
               7
100
AcDbCircle
 10
137.82079667075618
 20
19.422270904508956
 30
0.0
 40
0.4218863661100916
100
AcDbArc
 50
180.06054446711468
 51
241.41043093672513
  0
LINE
  5
3E4
100
AcDbEntity
  8
0
  6
CONTINUOUS
 62
               7
100
AcDbLine
 10
137.3989105401885
 20
19.421825097144385
 30
0.0
 11
137.3989105401885
 21
19.961825097144384
 31
0.0
  0
ARC
  5
3E5
100
AcDbEntity
  8
0
  6
CONTINUOUS
 62
               7
100
AcDbCircle
 10
139.1439105401885
 20
21.866837301801617
 30
0.0
 40
3.2015494236961581
100
AcDbArc
 50
241.55389706210474
 51
298.44610293789401
  0
LINE
  5
3E6
100
AcDbEntity
  8
0
  6
CONTINUOUS
 62
               7
100
AcDbLine
 10
137.14891054018852
 20
19.961825097144384
 30
0.0
 11
141.14891054018855
 21
19.961825097144384
 31
0.0
  0
LINE
  5
3E7
100
AcDbEntity
  8
0
  6
CONTINUOUS
 62
               7
100
AcDbLine
 10
136.94891054018851
 20
18.361825097144383
 30
0.0
 11
136.94891054018851
 21
19.761825097144389
 31
0.0
  0
ARC
  5
3E8
100
AcDbEntity
  8
0
  6
CONTINUOUS
 62
               7
100
AcDbCircle
 10
140.64891054018847
 20
18.661825097144394
 30
0.0
 40
0.5
100
AcDbArc
 50
269.99999999999937
 51
0.0
  0
ARC
  5
3E9
100
AcDbEntity
  8
0
  6
CONTINUOUS
 62
               7
100
AcDbCircle
 10
129.6489105401885
 20
18.66182509714438
 30
0.0
 40
0.5
100
AcDbArc
 50
179.99999999999963
 51
269.99999999999937
  0
LINE
  5
3EA
100
AcDbEntity
  8
0
  6
CONTINUOUS
 62
               7
100
AcDbLine
 10
129.6489105401885
 20
18.16182509714438
 30
0.0
 11
140.64891054018847
 21
18.161825097144394
 31
0.0
  0
LINE
  5
3EB
100
AcDbEntity
  8
0
  6
CONTINUOUS
 62
               7
100
AcDbLine
 10
129.1489105401885
 20
19.161825092875034
 30
0.0
 11
120.0489105401885
 21
19.161825092875034
 31
0.0
  0
LINE
  5
3EC
100
AcDbEntity
  8
0
  6
CONTINUOUS
 62
               7
100
AcDbLine
 10
139.24180375900198
 20
33.254718315957852
 30
0.0
 11
140.65601732137503
 21
34.668931878330937
 31
0.0
  0
LINE
  5
3ED
100
AcDbEntity
  8
0
  6
CONTINUOUS
 62
               7
100
AcDbLine
 10
140.65601732137503
 20
33.254718315957845
 30
0.0
 11
139.24180375900198
 21
34.668931878330945
 31
0.0
  0
CIRCLE
  5
3EE
100
AcDbEntity
  8
0
  6
CONTINUOUS
 62
               7
100
AcDbCircle
 10
139.94891054018854
 20
33.961825097144398
 30
0.0
 40
1.5
  0
LINE
  5
3EF
100
AcDbEntity
  8
0
  6
CONTINUOUS
 62
               7
100
AcDbLine
 10
129.64180375900199
 20
50.654718315957851
 30
0.0
 11
131.05601732137504
 21
52.068931878330936
 31
0.0
  0
LINE
  5
3F0
100
AcDbEntity
  8
0
  6
CONTINUOUS
 62
               7
100
AcDbLine
 10
131.05601732137504
 20
50.654718315957844
 30
0.0
 11
129.64180375900199
 21
52.068931878330943
 31
0.0
  0
CIRCLE
  5
3F1
100
AcDbEntity
  8
0
  6
CONTINUOUS
 62
               7
100
AcDbCircle
 10
130.34891054018854
 20
51.361825097144404
 30
0.0
 40
1.5
  0
ARC
  5
3F2
100
AcDbEntity
  8
0
  6
DASHED
 62
             200
100
AcDbCircle
 10
176.74891054018849
 20
18.661825093886321
 30
0.0
 40
0.5
100
AcDbArc
 50
269.99999999999937
 51
0.0
  0
ARC
  5
3F3
100
AcDbEntity
  8
0
  6
DASHED
 62
             200
100
AcDbCircle
 10
176.74891054018849
 20
33.661825093886321
 30
0.0
 40
0.5
100
AcDbArc
 50
0.0
 51
89.999999999999815
  0
LINE
  5
3F4
100
AcDbEntity
  8
0
  6
DASHED
 62
             200
100
AcDbLine
 10
148.24891054018849
 20
21.303643275704516
 30
0.0
 11
150.24891054018849
 21
21.241825093886334
 31
0.0
  0
LINE
  5
3F5
100
AcDbEntity
  8
0
  6
DASHED
 62
             200
100
AcDbLine
 10
148.24891054018849
 20
31.020006912068126
 30
0.0
 11
150.24891054018849
 21
31.081825093886309
 31
0.0
  0
LINE
  5
3F6
100
AcDbEntity
  8
0
  6
DASHED
 62
             200
100
AcDbLine
 10
168.74891054018849
 20
32.521825093886335
 30
0.0
 11
172.24891054018849
 21
32.661825093886321
 31
0.0
  0
LINE
  5
3F7
100
AcDbEntity
  8
0
  6
DASHED
 62
             200
100
AcDbLine
 10
163.99891054018849
 20
32.341825093886328
 30
0.0
 11
167.49891054018849
 21
32.471825093886324
 31
0.0
  0
LINE
  5
3F8
100
AcDbEntity
  8
0
  6
DASHED
 62
             200
100
AcDbLine
 10
168.74891054018849
 20
19.801825093886308
 30
0.0
 11
172.24891054018849
 21
19.661825093886321
 31
0.0
  0
LINE
  5
3F9
100
AcDbEntity
  8
0
  6
DASHED
 62
             200
100
AcDbLine
 10
163.99891054018849
 20
19.981825093886314
 30
0.0
 11
167.49891054018849
 21
19.851825093886319
 31
0.0
  0
LINE
  5
3FA
100
AcDbEntity
  8
0
  6
DASHED
 62
             200
100
AcDbLine
 10
159.24891054018849
 20
20.161825093886321
 30
0.0
 11
162.74891054018849
 21
20.031825093886326
 31
0.0
  0
LINE
  5
3FB
100
AcDbEntity
  8
0
  6
DASHED
 62
             200
100
AcDbLine
 10
159.24891054018849
 20
32.161825093886321
 30
0.0
 11
162.74891054018849
 21
32.291825093886317
 31
0.0
  0
LINE
  5
3FC
100
AcDbEntity
  8
0
  6
DASHED
 62
             200
100
AcDbLine
 10
167.49891054018849
 20
27.521825093886335
 30
0.0
 11
163.99891054018849
 21
27.791825093886317
 31
0.0
  0
LINE
  5
3FD
100
AcDbEntity
  8
0
  6
DASHED
 62
             200
100
AcDbLine
 10
167.49891054018849
 20
24.801825093886308
 30
0.0
 11
163.99891054018849
 21
24.531825093886326
 31
0.0
  0
LINE
  5
3FE
100
AcDbEntity
  8
0
  6
DASHED
 62
             200
100
AcDbLine
 10
162.74891054018849
 20
24.431825093886332
 30
0.0
 11
159.24891054018849
 21
24.161825093886321
 31
0.0
  0
LINE
  5
3FF
100
AcDbEntity
  8
0
  6
DASHED
 62
             200
100
AcDbLine
 10
162.74891054018849
 20
27.891825093886311
 30
0.0
 11
159.24891054018849
 21
28.161825093886321
 31
0.0
  0
LINE
  5
400
100
AcDbEntity
  8
0
  6
DASHED
 62
             200
100
AcDbLine
 10
168.74891054018849
 20
24.90182509388633
 30
0.0
 11
168.74891054018849
 21
18.161825093886321
 31
0.0
  0
LINE
  5
401
100
AcDbEntity
  8
0
  6
DASHED
 62
             200
100
AcDbLine
 10
172.24891054018849
 20
25.161825093886321
 30
0.0
 11
172.24891054018849
 21
18.161825093886321
 31
0.0
  0
LINE
  5
402
100
AcDbEntity
  8
0
  6
DASHED
 62
             200
100
AcDbLine
 10
167.49891054018849
 20
24.801825093886308
 30
0.0
 11
167.49891054018849
 21
18.161825093886321
 31
0.0
  0
LINE
  5
403
100
AcDbEntity
  8
0
  6
DASHED
 62
             200
100
AcDbLine
 10
163.99891054018849
 20
24.531825093886326
 30
0.0
 11
163.99891054018849
 21
18.161825093886321
 31
0.0
  0
LINE
  5
404
100
AcDbEntity
  8
0
  6
DASHED
 62
             200
100
AcDbLine
 10
162.74891054018849
 20
24.431825093886332
 30
0.0
 11
162.74891054018849
 21
18.161825093886321
 31
0.0
  0
LINE
  5
405
100
AcDbEntity
  8
0
  6
DASHED
 62
             200
100
AcDbLine
 10
159.24891054018849
 20
24.161825093886321
 30
0.0
 11
159.24891054018849
 21
18.161825093886321
 31
0.0
  0
LINE
  5
406
100
AcDbEntity
  8
0
  6
DASHED
 62
             200
100
AcDbLine
 10
163.99891054018849
 20
34.161825093886321
 30
0.0
 11
163.99891054018849
 21
27.791825093886317
 31
0.0
  0
LINE
  5
407
100
AcDbEntity
  8
0
  6
DASHED
 62
             200
100
AcDbLine
 10
167.49891054018849
 20
34.161825093886321
 30
0.0
 11
167.49891054018849
 21
27.521825093886335
 31
0.0
  0
LINE
  5
408
100
AcDbEntity
  8
0
  6
DASHED
 62
             200
100
AcDbLine
 10
168.74891054018849
 20
34.161825093886321
 30
0.0
 11
168.74891054018849
 21
27.421825093886312
 31
0.0
  0
LINE
  5
409
100
AcDbEntity
  8
0
  6
DASHED
 62
             200
100
AcDbLine
 10
162.74891054018849
 20
34.161825093886321
 30
0.0
 11
162.74891054018849
 21
27.891825093886311
 31
0.0
  0
LINE
  5
40A
100
AcDbEntity
  8
0
  6
DASHED
 62
             200
100
AcDbLine
 10
172.24891054018849
 20
25.161825093886321
 30
0.0
 11
168.74891054018849
 21
24.90182509388633
 31
0.0
  0
LINE
  5
40B
100
AcDbEntity
  8
0
  6
DASHED
 62
             200
100
AcDbLine
 10
172.24891054018849
 20
27.161825093886321
 30
0.0
 11
168.74891054018849
 21
27.421825093886312
 31
0.0
  0
LINE
  5
40C
100
AcDbEntity
  8
0
  6
DASHED
 62
             200
100
AcDbLine
 10
175.24891054018849
 20
34.161825093886321
 30
0.0
 11
175.24891054018849
 21
18.161825093886321
 31
0.0
  0
LINE
  5
40D
100
AcDbEntity
  8
0
  6
DASHED
 62
             200
100
AcDbLine
 10
159.24891054018849
 20
34.161825093886321
 30
0.0
 11
159.24891054018849
 21
28.161825093886321
 31
0.0
  0
LINE
  5
40E
100
AcDbEntity
  8
0
  6
DASHED
 62
             200
100
AcDbLine
 10
172.24891054018849
 20
34.161825093886321
 30
0.0
 11
172.24891054018849
 21
27.161825093886321
 31
0.0
  0
LINE
  5
40F
100
AcDbEntity
  8
0
  6
DASHED
 62
             200
100
AcDbLine
 10
157.24891054018849
 20
34.241825093886334
 30
0.0
 11
157.24891054018849
 21
18.081825093886337
 31
0.0
  0
LINE
  5
410
100
AcDbEntity
  8
0
  6
DASHED
 62
             200
100
AcDbLine
 10
150.24891054018849
 20
18.081825093886337
 30
0.0
 11
157.24891054018849
 21
18.081825093886337
 31
0.0
  0
LINE
  5
411
100
AcDbEntity
  8
0
  6
DASHED
 62
             200
100
AcDbLine
 10
150.24891054018849
 20
22.121825093886329
 30
0.0
 11
157.24891054018849
 21
22.121825093886329
 31
0.0
  0
LINE
  5
412
100
AcDbEntity
  8
0
  6
DASHED
 62
             200
100
AcDbLine
 10
150.24891054018849
 20
30.201825093886313
 30
0.0
 11
157.24891054018849
 21
30.201825093886313
 31
0.0
  0
LINE
  5
413
100
AcDbEntity
  8
0
  6
DASHED
 62
             200
100
AcDbLine
 10
150.24891054018849
 20
34.241825093886334
 30
0.0
 11
157.24891054018849
 21
34.241825093886334
 31
0.0
  0
LINE
  5
414
100
AcDbEntity
  8
0
  6
DASHED
 62
             200
100
AcDbLine
 10
150.24891054018849
 20
34.241825093886334
 30
0.0
 11
150.24891054018849
 21
18.081825093886337
 31
0.0
  0
LINE
  5
415
100
AcDbEntity
  8
0
  6
DASHED
 62
             200
100
AcDbLine
 10
177.24891054018849
 20
33.661825093886321
 30
0.0
 11
177.24891054018849
 21
18.661825093886321
 31
0.0
  0
LINE
  5
416
100
AcDbEntity
  8
0
  6
DASHED
 62
             200
100
AcDbLine
 10
157.24891054018849
 20
34.161825093886321
 30
0.0
 11
176.74891054018849
 21
34.161825093886321
 31
0.0
  0
LINE
  5
417
100
AcDbEntity
  8
0
  6
DASHED
 62
             200
100
AcDbLine
 10
157.24891054018849
 20
18.161825093886321
 30
0.0
 11
176.74891054018849
 21
18.161825093886321
 31
0.0
  0
LINE
  5
418
100
AcDbEntity
  8
0
  6
CENTER
 62
             200
100
AcDbLine
 10
146.74379006255711
 20
26.161825093886321
 30
0.0
 11
179.02891054018849
 21
26.161825093886321
 31
0.0
  0
ARC
  5
419
100
AcDbEntity
  8
0
  6
DASHED
 62
             200
100
AcDbCircle
 10
176.74891054018849
 20
51.661825093886321
 30
0.0
 40
0.5
100
AcDbArc
 50
269.99999999999937
 51
0.0
  0
ARC
  5
41A
100
AcDbEntity
  8
0
  6
DASHED
 62
             200
100
AcDbCircle
 10
176.74891054018849
 20
66.661825093886321
 30
0.0
 40
0.5
100
AcDbArc
 50
0.0
 51
89.999999999999815
  0
LINE
  5
41B
100
AcDbEntity
  8
0
  6
DASHED
 62
             200
100
AcDbLine
 10
148.24891054018849
 20
54.303643275704516
 30
0.0
 11
150.24891054018849
 21
54.241825093886334
 31
0.0
  0
LINE
  5
41C
100
AcDbEntity
  8
0
  6
DASHED
 62
             200
100
AcDbLine
 10
148.24891054018849
 20
64.020006912068126
 30
0.0
 11
150.24891054018849
 21
64.081825093886309
 31
0.0
  0
LINE
  5
41D
100
AcDbEntity
  8
0
  6
DASHED
 62
             200
100
AcDbLine
 10
168.74891054018849
 20
65.521825093886335
 30
0.0
 11
172.24891054018849
 21
65.661825093886321
 31
0.0
  0
LINE
  5
41E
100
AcDbEntity
  8
0
  6
DASHED
 62
             200
100
AcDbLine
 10
163.99891054018849
 20
65.341825093886328
 30
0.0
 11
167.49891054018849
 21
65.471825093886324
 31
0.0
  0
LINE
  5
41F
100
AcDbEntity
  8
0
  6
DASHED
 62
             200
100
AcDbLine
 10
168.74891054018849
 20
52.801825093886308
 30
0.0
 11
172.24891054018849
 21
52.661825093886321
 31
0.0
  0
LINE
  5
420
100
AcDbEntity
  8
0
  6
DASHED
 62
             200
100
AcDbLine
 10
163.99891054018849
 20
52.981825093886314
 30
0.0
 11
167.49891054018849
 21
52.851825093886319
 31
0.0
  0
LINE
  5
421
100
AcDbEntity
  8
0
  6
DASHED
 62
             200
100
AcDbLine
 10
159.24891054018849
 20
53.161825093886321
 30
0.0
 11
162.74891054018849
 21
53.031825093886326
 31
0.0
  0
LINE
  5
422
100
AcDbEntity
  8
0
  6
DASHED
 62
             200
100
AcDbLine
 10
159.24891054018849
 20
65.161825093886321
 30
0.0
 11
162.74891054018849
 21
65.291825093886317
 31
0.0
  0
LINE
  5
423
100
AcDbEntity
  8
0
  6
DASHED
 62
             200
100
AcDbLine
 10
167.49891054018849
 20
60.521825093886335
 30
0.0
 11
163.99891054018849
 21
60.791825093886317
 31
0.0
  0
LINE
  5
424
100
AcDbEntity
  8
0
  6
DASHED
 62
             200
100
AcDbLine
 10
167.49891054018849
 20
57.801825093886308
 30
0.0
 11
163.99891054018849
 21
57.531825093886326
 31
0.0
  0
LINE
  5
425
100
AcDbEntity
  8
0
  6
DASHED
 62
             200
100
AcDbLine
 10
162.74891054018849
 20
57.431825093886332
 30
0.0
 11
159.24891054018849
 21
57.161825093886321
 31
0.0
  0
LINE
  5
426
100
AcDbEntity
  8
0
  6
DASHED
 62
             200
100
AcDbLine
 10
162.74891054018849
 20
60.891825093886311
 30
0.0
 11
159.24891054018849
 21
61.161825093886321
 31
0.0
  0
LINE
  5
427
100
AcDbEntity
  8
0
  6
DASHED
 62
             200
100
AcDbLine
 10
168.74891054018849
 20
57.90182509388633
 30
0.0
 11
168.74891054018849
 21
51.161825093886321
 31
0.0
  0
LINE
  5
428
100
AcDbEntity
  8
0
  6
DASHED
 62
             200
100
AcDbLine
 10
172.24891054018849
 20
58.161825093886321
 30
0.0
 11
172.24891054018849
 21
51.161825093886321
 31
0.0
  0
LINE
  5
429
100
AcDbEntity
  8
0
  6
DASHED
 62
             200
100
AcDbLine
 10
167.49891054018849
 20
57.801825093886308
 30
0.0
 11
167.49891054018849
 21
51.161825093886321
 31
0.0
  0
LINE
  5
42A
100
AcDbEntity
  8
0
  6
DASHED
 62
             200
100
AcDbLine
 10
163.99891054018849
 20
57.531825093886326
 30
0.0
 11
163.99891054018849
 21
51.161825093886321
 31
0.0
  0
LINE
  5
42B
100
AcDbEntity
  8
0
  6
DASHED
 62
             200
100
AcDbLine
 10
162.74891054018849
 20
57.431825093886332
 30
0.0
 11
162.74891054018849
 21
51.161825093886321
 31
0.0
  0
LINE
  5
42C
100
AcDbEntity
  8
0
  6
DASHED
 62
             200
100
AcDbLine
 10
159.24891054018849
 20
57.161825093886321
 30
0.0
 11
159.24891054018849
 21
51.161825093886321
 31
0.0
  0
LINE
  5
42D
100
AcDbEntity
  8
0
  6
DASHED
 62
             200
100
AcDbLine
 10
163.99891054018849
 20
67.161825093886321
 30
0.0
 11
163.99891054018849
 21
60.791825093886317
 31
0.0
  0
LINE
  5
42E
100
AcDbEntity
  8
0
  6
DASHED
 62
             200
100
AcDbLine
 10
167.49891054018849
 20
67.161825093886321
 30
0.0
 11
167.49891054018849
 21
60.521825093886335
 31
0.0
  0
LINE
  5
42F
100
AcDbEntity
  8
0
  6
DASHED
 62
             200
100
AcDbLine
 10
168.74891054018849
 20
67.161825093886321
 30
0.0
 11
168.74891054018849
 21
60.421825093886312
 31
0.0
  0
LINE
  5
430
100
AcDbEntity
  8
0
  6
DASHED
 62
             200
100
AcDbLine
 10
162.74891054018849
 20
67.161825093886321
 30
0.0
 11
162.74891054018849
 21
60.891825093886311
 31
0.0
  0
LINE
  5
431
100
AcDbEntity
  8
0
  6
DASHED
 62
             200
100
AcDbLine
 10
172.24891054018849
 20
58.161825093886321
 30
0.0
 11
168.74891054018849
 21
57.90182509388633
 31
0.0
  0
LINE
  5
432
100
AcDbEntity
  8
0
  6
DASHED
 62
             200
100
AcDbLine
 10
172.24891054018849
 20
60.161825093886321
 30
0.0
 11
168.74891054018849
 21
60.421825093886312
 31
0.0
  0
LINE
  5
433
100
AcDbEntity
  8
0
  6
DASHED
 62
             200
100
AcDbLine
 10
175.24891054018849
 20
67.161825093886321
 30
0.0
 11
175.24891054018849
 21
51.161825093886321
 31
0.0
  0
LINE
  5
434
100
AcDbEntity
  8
0
  6
DASHED
 62
             200
100
AcDbLine
 10
159.24891054018849
 20
67.161825093886321
 30
0.0
 11
159.24891054018849
 21
61.161825093886321
 31
0.0
  0
LINE
  5
435
100
AcDbEntity
  8
0
  6
DASHED
 62
             200
100
AcDbLine
 10
172.24891054018849
 20
67.161825093886321
 30
0.0
 11
172.24891054018849
 21
60.161825093886321
 31
0.0
  0
LINE
  5
436
100
AcDbEntity
  8
0
  6
DASHED
 62
             200
100
AcDbLine
 10
157.24891054018849
 20
67.241825093886334
 30
0.0
 11
157.24891054018849
 21
51.081825093886337
 31
0.0
  0
LINE
  5
437
100
AcDbEntity
  8
0
  6
DASHED
 62
             200
100
AcDbLine
 10
150.24891054018849
 20
51.081825093886337
 30
0.0
 11
157.24891054018849
 21
51.081825093886337
 31
0.0
  0
LINE
  5
438
100
AcDbEntity
  8
0
  6
DASHED
 62
             200
100
AcDbLine
 10
150.24891054018849
 20
55.121825093886329
 30
0.0
 11
157.24891054018849
 21
55.121825093886329
 31
0.0
  0
LINE
  5
439
100
AcDbEntity
  8
0
  6
DASHED
 62
             200
100
AcDbLine
 10
150.24891054018849
 20
63.201825093886313
 30
0.0
 11
157.24891054018849
 21
63.201825093886313
 31
0.0
  0
LINE
  5
43A
100
AcDbEntity
  8
0
  6
DASHED
 62
             200
100
AcDbLine
 10
150.24891054018849
 20
67.241825093886334
 30
0.0
 11
157.24891054018849
 21
67.241825093886334
 31
0.0
  0
LINE
  5
43B
100
AcDbEntity
  8
0
  6
DASHED
 62
             200
100
AcDbLine
 10
150.24891054018849
 20
67.241825093886334
 30
0.0
 11
150.24891054018849
 21
51.081825093886337
 31
0.0
  0
LINE
  5
43C
100
AcDbEntity
  8
0
  6
DASHED
 62
             200
100
AcDbLine
 10
177.24891054018849
 20
66.661825093886321
 30
0.0
 11
177.24891054018849
 21
51.661825093886321
 31
0.0
  0
LINE
  5
43D
100
AcDbEntity
  8
0
  6
DASHED
 62
             200
100
AcDbLine
 10
157.24891054018849
 20
67.161825093886321
 30
0.0
 11
176.74891054018849
 21
67.161825093886321
 31
0.0
  0
LINE
  5
43E
100
AcDbEntity
  8
0
  6
DASHED
 62
             200
100
AcDbLine
 10
157.24891054018849
 20
51.161825093886321
 30
0.0
 11
176.74891054018849
 21
51.161825093886321
 31
0.0
  0
LINE
  5
43F
100
AcDbEntity
  8
0
  6
CENTER
 62
             200
100
AcDbLine
 10
146.74379006255711
 20
59.161825093886321
 30
0.0
 11
179.02891054018849
 21
59.161825093886321
 31
0.0
  0
LINE
  5
440
100
AcDbEntity
  8
0
  6
CONTINUOUS
 62
               7
100
AcDbLine
 10
129.1489105401885
 20
52.26182509714436
 30
0.0
 11
129.14891054018852
 21
75.86182509714439
 31
0.0
  0
LINE
  5
441
100
AcDbEntity
  8
0
  6
CONTINUOUS
 62
               7
100
AcDbLine
 10
141.1489105401885
 20
34.861825097144468
 30
0.0
 11
141.14891054018852
 21
75.86182509714439
 31
0.0
  0
LINE
  5
442
100
AcDbEntity
  8
0
  6
CONTINUOUS
 62
               4
100
AcDbLine
 10
135.7488922296416
 20
110.65475437007773
 30
0.0
 11
137.04889222964161
 21
110.65475437007773
 31
0.0
  0
LINE
  5
443
100
AcDbEntity
  8
0
  6
CONTINUOUS
 62
               4
100
AcDbLine
 10
133.2488922296416
 20
110.65475437007773
 30
0.0
 11
134.54889222964161
 21
110.65475437007773
 31
0.0
  0
LINE
  5
444
100
AcDbEntity
  8
0
  6
CONTINUOUS
 62
               4
100
AcDbLine
 10
134.54889222964161
 20
106.80182509714426
 30
0.0
 11
134.54889222964161
 21
103.16182509714424
 31
0.0
  0
LINE
  5
445
100
AcDbEntity
  8
0
  6
CONTINUOUS
 62
               4
100
AcDbLine
 10
136.14889222964163
 20
114.15475436807775
 30
0.0
 11
136.14889222964163
 21
110.65475437007773
 31
0.0
  0
LINE
  5
446
100
AcDbEntity
  8
0
  6
CONTINUOUS
 62
               4
100
AcDbLine
 10
136.64889222964163
 20
114.15475436807775
 30
0.0
 11
136.64889222964163
 21
110.65475437007773
 31
0.0
  0
LINE
  5
447
100
AcDbEntity
  8
0
  6
CONTINUOUS
 62
               4
100
AcDbLine
 10
133.2488922296416
 20
110.65475437007773
 30
0.0
 11
133.2488922296416
 21
108.18182509714426
 31
0.0
  0
LINE
  5
448
100
AcDbEntity
  8
0
  6
CONTINUOUS
 62
               4
100
AcDbLine
 10
134.54889222964161
 20
110.65475437007773
 30
0.0
 11
134.54889222964161
 21
107.83182509714426
 31
0.0
  0
LINE
  5
449
100
AcDbEntity
  8
0
  6
CONTINUOUS
 62
               4
100
AcDbLine
 10
133.2488922296416
 20
107.15182509714425
 30
0.0
 11
133.2488922296416
 21
103.16182509714424
 31
0.0
  0
LINE
  5
44A
100
AcDbEntity
  8
0
  6
CONTINUOUS
 62
               4
100
AcDbLine
 10
135.7488922296416
 20
106.48182509714427
 30
0.0
 11
135.7488922296416
 21
103.16182509714424
 31
0.0
  0
LINE
  5
44B
100
AcDbEntity
  8
0
  6
CONTINUOUS
 62
               4
100
AcDbLine
 10
137.04889222964161
 20
106.13182509714424
 30
0.0
 11
137.04889222964161
 21
103.16182509714424
 31
0.0
  0
LINE
  5
44C
100
AcDbEntity
  8
0
  6
CONTINUOUS
 62
               4
100
AcDbLine
 10
133.64889222964163
 20
114.15475436807775
 30
0.0
 11
133.64889222964163
 21
110.65475437007773
 31
0.0
  0
LINE
  5
44D
100
AcDbEntity
  8
0
  6
CONTINUOUS
 62
               4
100
AcDbLine
 10
134.14889222964163
 20
114.15475436807775
 30
0.0
 11
134.14889222964163
 21
110.65475437007773
 31
0.0
  0
LINE
  5
44E
100
AcDbEntity
  8
0
  6
CONTINUOUS
 62
               4
100
AcDbLine
 10
135.7488922296416
 20
110.65475437007773
 30
0.0
 11
135.7488922296416
 21
107.51182509714427
 31
0.0
  0
LINE
  5
44F
100
AcDbEntity
  8
0
  6
CONTINUOUS
 62
               4
100
AcDbLine
 10
137.04889222964161
 20
110.65475437007773
 30
0.0
 11
137.04889222964161
 21
107.16182509714424
 31
0.0
  0
ARC
  5
450
100
AcDbEntity
  8
0
  6
CONTINUOUS
 62
               4
100
AcDbCircle
 10
139.64888154846832
 20
76.161835778317553
 30
0.0
 40
0.5000106812873828
100
AcDbArc
 50
270.00122394615329
 51
359.9987760538454
  0
ARC
  5
451
100
AcDbEntity
  8
0
  6
CONTINUOUS
 62
               4
100
AcDbCircle
 10
130.64888765211899
 20
76.161820519621628
 30
0.0
 40
0.4999954224983215
100
AcDbArc
 50
179.99947544974256
 51
270.00052455025656
  0
ARC
  5
452
100
AcDbEntity
  8
0
  6
CONTINUOUS
 62
               4
100
AcDbCircle
 10
139.64888765189082
 20
94.661820519393459
 30
0.0
 40
0.5000045777717621
100
AcDbArc
 50
0.0005245667992071
 51
89.9994754332008
  0
ARC
  5
453
100
AcDbEntity
  8
0
  6
CONTINUOUS
 62
               4
100
AcDbCircle
 10
130.64888154851022
 20
94.661835778275631
 30
0.0
 40
0.4999893189827007
100
AcDbArc
 50
89.998776006354774
 51
180.00122399364432
  0
LINE
  5
454
100
AcDbEntity
  8
0
  6
CONTINUOUS
 62
               4
100
AcDbLine
 10
131.39889222964163
 20
103.16182509714424
 30
0.0
 11
138.89889222964163
 21
103.16182509714424
 31
0.0
  0
LINE
  5
455
100
AcDbEntity
  8
0
  6
CONTINUOUS
 62
               4
100
AcDbLine
 10
138.89889222964163
 20
103.16182509714424
 30
0.0
 11
138.89889222964163
 21
95.161825097144245
 31
0.0
  0
LINE
  5
456
100
AcDbEntity
  8
0
  6
CONTINUOUS
 62
               4
100
AcDbLine
 10
137.89889222964163
 20
103.16182509714424
 30
0.0
 11
137.89889222964163
 21
87.161825097144245
 31
0.0
  0
LINE
  5
457
100
AcDbEntity
  8
0
  6
CONTINUOUS
 62
               4
100
AcDbLine
 10
132.39889222964163
 20
101.66182509714424
 30
0.0
 11
137.89889222964163
 21
101.66182509714424
 31
0.0
  0
LINE
  5
458
100
AcDbEntity
  8
0
  6
CONTINUOUS
 62
               4
100
AcDbLine
 10
131.39889222964163
 20
103.16182509714424
 30
0.0
 11
131.39889222964163
 21
95.161825097144245
 31
0.0
  0
LINE
  5
459
100
AcDbEntity
  8
0
  6
CONTINUOUS
 62
               4
100
AcDbLine
 10
132.39889222964163
 20
103.16182509714424
 30
0.0
 11
132.39889222964163
 21
87.161825097144245
 31
0.0
  0
LINE
  5
45A
100
AcDbEntity
  8
0
  6
CONTINUOUS
 62
               4
100
AcDbLine
 10
137.89889222964163
 20
95.161825097144245
 30
0.0
 11
139.64889222964163
 21
95.161825097144245
 31
0.0
  0
LINE
  5
45B
100
AcDbEntity
  8
0
  6
CONTINUOUS
 62
               4
100
AcDbLine
 10
132.39889222964163
 20
87.161825097144245
 30
0.0
 11
137.89889222964163
 21
87.161825097144245
 31
0.0
  0
LINE
  5
45C
100
AcDbEntity
  8
0
  6
CONTINUOUS
 62
               4
100
AcDbLine
 10
139.64889222964163
 20
95.161825097144245
 30
0.0
 11
140.14889222964163
 21
95.161825097144245
 31
0.0
  0
LINE
  5
45D
100
AcDbEntity
  8
0
  6
CONTINUOUS
 62
               4
100
AcDbLine
 10
130.64889222964163
 20
95.161825097144245
 30
0.0
 11
132.39889222964163
 21
95.161825097144245
 31
0.0
  0
LINE
  5
45E
100
AcDbEntity
  8
0
  6
CONTINUOUS
 62
               4
100
AcDbLine
 10
130.14889222964163
 20
95.161825097144245
 30
0.0
 11
130.64889222964163
 21
95.161825097144245
 31
0.0
  0
LINE
  5
45F
100
AcDbEntity
  8
0
  6
CONTINUOUS
 62
               4
100
AcDbLine
 10
130.1489105401885
 20
98.161825101413754
 30
0.0
 11
130.1489105401885
 21
75.661825101413754
 31
0.0
  0
LINE
  5
460
100
AcDbEntity
  8
0
  6
CONTINUOUS
 62
               4
100
AcDbLine
 10
140.1489105401885
 20
97.561825101413731
 30
0.0
 11
138.89889222964163
 21
97.561825101413731
 31
0.0
  0
LINE
  5
461
100
AcDbEntity
  8
0
  6
CONTINUOUS
 62
               4
100
AcDbLine
 10
140.1489105401885
 20
98.161825101413754
 30
0.0
 11
138.89889222964163
 21
98.161825101413754
 31
0.0
  0
LINE
  5
462
100
AcDbEntity
  8
0
  6
CONTINUOUS
 62
               4
100
AcDbLine
 10
140.1489105401885
 20
96.561825101413731
 30
0.0
 11
138.89889222964163
 21
96.561825101413731
 31
0.0
  0
LINE
  5
463
100
AcDbEntity
  8
0
  6
CONTINUOUS
 62
               4
100
AcDbLine
 10
131.39889222964163
 20
98.061825101413731
 30
0.0
 11
130.6489105401885
 21
98.061825101413731
 31
0.0
  0
ARC
  5
464
100
AcDbEntity
  8
0
  6
CONTINUOUS
 62
               4
100
AcDbCircle
 10
130.6489105401885
 20
97.561825101413731
 30
0.0
 40
0.5
100
AcDbArc
 50
89.999999999999815
 51
179.99999999999963
  0
ARC
  5
465
100
AcDbEntity
  8
0
  6
CONTINUOUS
 62
               4
100
AcDbCircle
 10
139.35300568684667
 20
97.5619202480719
 30
0.0
 40
0.5999048608870732
100
AcDbArc
 50
359.99091272245295
 51
90.009087277546172
  0
LINE
  5
466
100
AcDbEntity
  8
0
  6
CONTINUOUS
 62
               4
100
AcDbLine
 10
130.14891056927769
 20
98.161825101413754
 30
0.0
 11
131.39889222964163
 21
98.161825101413754
 31
0.0
  0
LINE
  5
467
100
AcDbEntity
  8
0
  6
CONTINUOUS
 62
               4
100
AcDbLine
 10
140.1489105401885
 20
98.161825097144387
 30
0.0
 11
140.1489105401885
 21
75.661825097144387
 31
0.0
  0
LINE
  5
468
100
AcDbEntity
  8
0
  6
CONTINUOUS
 62
               4
100
AcDbLine
 10
133.64889222964163
 20
114.15475436807775
 30
0.0
 11
134.14889222964163
 21
114.15475436807775
 31
0.0
  0
LINE
  5
469
100
AcDbEntity
  8
0
  6
CONTINUOUS
 62
               4
100
AcDbLine
 10
136.14889222964163
 20
114.15475436807775
 30
0.0
 11
136.64889222964163
 21
114.15475436807775
 31
0.0
  0
ARC
  5
46A
100
AcDbEntity
  8
0
  6
CONTINUOUS
 62
               4
100
AcDbCircle
 10
131.08691054018848
 20
94.661825097144245
 30
0.0
 40
0.5
100
AcDbArc
 50
89.999999999999815
 51
179.99999999999963
  0
ARC
  5
46B
100
AcDbEntity
  8
0
  6
CONTINUOUS
 62
               4
100
AcDbCircle
 10
139.21091054018851
 20
94.661825097144245
 30
0.0
 40
0.5
100
AcDbArc
 50
0.0
 51
89.999999999999815
  0
ARC
  5
46C
100
AcDbEntity
  8
0
  6
CONTINUOUS
 62
               4
100
AcDbCircle
 10
139.21091054018851
 20
78.488682256005191
 30
0.0
 40
0.5
100
AcDbArc
 50
270.00000000000023
 51
0.0
  0
ARC
  5
46D
100
AcDbEntity
  8
0
  6
CONTINUOUS
 62
               4
100
AcDbCircle
 10
131.08691054018848
 20
78.488682256005191
 30
0.0
 40
0.5
100
AcDbArc
 50
179.99999999999963
 51
269.99999999999937
  0
LINE
  5
46E
100
AcDbEntity
  8
0
  6
CONTINUOUS
 62
               4
100
AcDbLine
 10
130.58691054018848
 20
94.661825097144245
 30
0.0
 11
130.58691054018848
 21
78.488682256005191
 31
0.0
  0
LINE
  5
46F
100
AcDbEntity
  8
0
  6
CONTINUOUS
 62
               4
100
AcDbLine
 10
139.71091054018851
 20
94.661825097144245
 30
0.0
 11
139.71091054018851
 21
78.488682256005191
 31
0.0
  0
LINE
  5
470
100
AcDbEntity
  8
0
  6
CONTINUOUS
 62
               4
100
AcDbLine
 10
131.08691054018848
 20
77.988682256005191
 30
0.0
 11
139.21091054018851
 21
77.988682256005191
 31
0.0
  0
LINE
  5
471
100
AcDbEntity
  8
0
  6
PHANTOM
 62
             200
100
AcDbLine
 10
133.64889222964163
 20
83.161825097144245
 30
0.0
 11
136.64889222964163
 21
83.161825097144245
 31
0.0
  0
LINE
  5
472
100
AcDbEntity
  8
0
  6
PHANTOM
 62
             200
100
AcDbLine
 10
133.64889222964163
 20
81.161825097144245
 30
0.0
 11
136.64889222964163
 21
81.161825097144245
 31
0.0
  0
LINE
  5
473
100
AcDbEntity
  8
0
  6
PHANTOM
 62
             200
100
AcDbLine
 10
133.64889222964163
 20
83.161825097144245
 30
0.0
 11
133.64889222964163
 21
81.161825097144245
 31
0.0
  0
LINE
  5
474
100
AcDbEntity
  8
0
  6
PHANTOM
 62
             200
100
AcDbLine
 10
136.64889222964163
 20
83.161825097144245
 30
0.0
 11
136.64889222964163
 21
81.161825097144245
 31
0.0
  0
LINE
  5
475
100
AcDbEntity
  8
0
  6
CONTINUOUS
 62
             200
100
AcDbLine
 10
131.39889222964163
 20
108.68182509714426
 30
0.0
 11
138.89889222964163
 21
106.67182509714426
 31
0.0
  0
LINE
  5
476
100
AcDbEntity
  8
0
  6
CONTINUOUS
 62
             200
100
AcDbLine
 10
131.39889222964163
 20
107.64182509714426
 30
0.0
 11
138.89889222964163
 21
105.63182509714424
 31
0.0
  0
LINE
  5
477
100
AcDbEntity
  8
0
  6
CENTER
 62
               2
100
AcDbLine
 10
-40.659349600139677
 20
25.161824901128909
 30
0.0
 11
-45.659349600139677
 21
25.161824901128909
 31
0.0
  0
LINE
  5
478
100
AcDbEntity
  8
0
  6
CENTER
 62
               2
100
AcDbLine
 10
-40.659349600139677
 20
60.16182528664379
 30
0.0
 11
-45.659349600139677
 21
60.16182528664379
 31
0.0
  0
ARC
  5
479
100
AcDbEntity
  8
0
  6
CONTINUOUS
 62
               7
100
AcDbCircle
 10
-76.864349595709569
 20
21.866837297532193
 30
0.0
 40
3.2015494236961581
100
AcDbArc
 50
241.55389706210474
 51
298.44610293789401
  0
ARC
  5
47A
100
AcDbEntity
  8
0
  6
CONTINUOUS
 62
               7
100
AcDbCircle
 10
-78.187463465141917
 20
19.422270900239546
 30
0.0
 40
0.4218863661100916
100
AcDbArc
 50
180.06054446711471
 51
241.41043093672513
  0
LINE
  5
47B
100
AcDbEntity
  8
0
  6
CONTINUOUS
 62
               7
100
AcDbLine
 10
-75.109349595709574
 20
19.421825092874947
 30
0.0
 11
-75.109349595709574
 21
19.961825092874967
 31
0.0
  0
ARC
  5
47C
100
AcDbEntity
  8
0
  6
CONTINUOUS
 62
               7
100
AcDbCircle
 10
-75.542249894486446
 20
19.434438792114641
 30
0.0
 40
0.4330840265925726
100
AcDbArc
 50
297.93703700787626
 51
358.33100760491578
  0
LINE
  5
47D
100
AcDbEntity
  8
0
  6
CONTINUOUS
 62
               7
100
AcDbLine
 10
-78.609349595709574
 20
19.421825092874947
 30
0.0
 11
-78.609349595709574
 21
19.961825092874967
 31
0.0
  0
ARC
  5
47E
100
AcDbEntity
  8
0
  6
CONTINUOUS
 62
               7
100
AcDbCircle
 10
-78.659349595709585
 20
20.161825092874956
 30
0.0
 40
0.2
100
AcDbArc
 50
179.99999999999963
 51
269.99999999999937
  0
ARC
  5
47F
100
AcDbEntity
  8
0
  6
CONTINUOUS
 62
               7
100
AcDbCircle
 10
-74.459349595709597
 20
18.361825092874945
 30
0.0
 40
0.2
100
AcDbArc
 50
179.99999999999963
 51
269.99999999999937
  0
ARC
  5
480
100
AcDbEntity
  8
0
  6
CONTINUOUS
 62
               7
100
AcDbCircle
 10
-74.859349595709574
 20
19.761825092874979
 30
0.0
 40
0.2
100
AcDbArc
 50
0.0
 51
89.999999999999815
  0
LINE
  5
481
100
AcDbEntity
  8
0
  6
CONTINUOUS
 62
               7
100
AcDbLine
 10
-78.659349595709585
 20
19.961825092874967
 30
0.0
 11
-74.859349595709574
 21
19.961825092874967
 31
0.0
  0
LINE
  5
482
100
AcDbEntity
  8
0
  6
CONTINUOUS
 62
               7
100
AcDbLine
 10
-74.659349595709585
 20
19.761825075868394
 30
0.0
 11
-74.659349595709585
 21
18.361825092874945
 31
0.0
  0
ARC
  5
483
100
AcDbEntity
  8
0
  6
CONTINUOUS
 62
               7
100
AcDbCircle
 10
-78.359349595709574
 20
18.661825092874963
 30
0.0
 40
0.5
100
AcDbArc
 50
179.99999999999963
 51
269.99999999999937
  0
ARC
  5
484
100
AcDbEntity
  8
0
  6
CONTINUOUS
 62
               7
100
AcDbCircle
 10
-61.359349595709546
 20
18.661825092874949
 30
0.0
 40
0.5
100
AcDbArc
 50
270.00000000000023
 51
0.0
  0
LINE
  5
485
100
AcDbEntity
  8
0
  6
CONTINUOUS
 62
               7
100
AcDbLine
 10
-78.359349595709574
 20
18.161825092874956
 30
0.0
 11
-61.359349595709574
 21
18.161825092874956
 31
0.0
  0
LINE
  5
486
100
AcDbEntity
  8
0
  6
CENTER
 62
               2
100
AcDbLine
 10
-51.659349595709557
 20
32.161825093886321
 30
0.0
 11
-51.659349595709557
 21
20.161825093886321
 31
0.0
  0
LINE
  5
487
100
AcDbEntity
  8
0
  6
CENTER
 62
               2
100
AcDbLine
 10
-51.659349595709557
 20
48.661825093886307
 30
0.0
 11
-51.659349595709557
 21
36.661825093886307
 31
0.0
  0
ARC
  5
488
100
AcDbEntity
  8
0
  6
CONTINUOUS
 62
               7
100
AcDbCircle
 10
-77.859444742367685
 20
34.861920235263881
 30
0.0
 40
0.5999048608870732
100
AcDbArc
 50
89.990912722453572
 51
180.00908727754597
  0
LINE
  5
489
100
AcDbEntity
  8
0
  6
CONTINUOUS
 62
               7
100
AcDbLine
 10
-78.459349595709512
 20
34.861920235263881
 30
0.0
 11
-78.459349595709512
 21
33.060737083368679
 31
0.0
  0
ARC
  5
48A
100
AcDbEntity
  8
0
  6
CONTINUOUS
 62
               7
100
AcDbCircle
 10
-77.86043760094654
 20
33.060737083368679
 30
0.0
 40
0.5989129830170392
100
AcDbArc
 50
179.89591452477256
 51
270.1040854752265
  0
LINE
  5
48B
100
AcDbEntity
  8
0
  6
CONTINUOUS
 62
               7
100
AcDbLine
 10
-77.859349595709546
 20
35.611825088605684
 30
0.0
 11
-77.859349595709546
 21
32.311825088605687
 31
0.0
  0
LINE
  5
48C
100
AcDbEntity
  8
0
  6
CONTINUOUS
 62
               7
100
AcDbLine
 10
-77.859349604844596
 20
35.611825088605684
 30
0.0
 11
-78.859349595709546
 21
35.611825088605684
 31
0.0
  0
LINE
  5
48D
100
AcDbEntity
  8
0
  6
CONTINUOUS
 62
               7
100
AcDbLine
 10
-77.859349604844596
 20
32.311825088605687
 30
0.0
 11
-78.859349595709546
 21
32.311825088605687
 31
0.0
  0
LINE
  5
48E
100
AcDbEntity
  8
0
  6
CONTINUOUS
 62
               7
100
AcDbLine
 10
-78.859349595709574
 20
23.161825092875034
 30
0.0
 11
-60.859349595709574
 21
23.161825092875034
 31
0.0
  0
LINE
  5
48F
100
AcDbEntity
  8
0
  6
CONTINUOUS
 62
               7
100
AcDbLine
 10
-60.859349595709546
 20
62.06182509287504
 30
0.0
 11
-60.959349595709568
 21
62.161825092875034
 31
0.0
  0
LINE
  5
490
100
AcDbEntity
  8
0
  6
CONTINUOUS
 62
               7
100
AcDbLine
 10
-60.959349595709568
 20
62.161825092875034
 30
0.0
 11
-78.859349595709546
 21
62.161825092875034
 31
0.0
  0
LINE
  5
491
100
AcDbEntity
  8
0
  6
CONTINUOUS
 62
               7
100
AcDbLine
 10
-43.159349595709557
 20
19.161825092875034
 30
0.0
 11
-43.159349595709557
 21
66.161825094897608
 31
0.0
  0
LINE
  5
492
100
AcDbEntity
  8
0
  6
CONTINUOUS
 62
               7
100
AcDbLine
 10
-43.159349600348435
 20
19.161825092875034
 30
0.0
 11
-60.159349595709557
 21
19.161825092875034
 31
0.0
  0
LINE
  5
493
100
AcDbEntity
  8
0
  6
CONTINUOUS
 62
               7
100
AcDbLine
 10
-43.159349600348435
 20
66.161825094897608
 30
0.0
 11
-60.159349595709557
 21
66.161825094897608
 31
0.0
  0
LINE
  5
494
100
AcDbEntity
  8
0
  6
CENTER
 62
               2
100
AcDbLine
 10
-57.659349595709557
 20
26.161825093886321
 30
0.0
 11
-45.659349595709557
 21
26.161825093886321
 31
0.0
  0
CIRCLE
  5
495
100
AcDbEntity
  8
0
  6
CONTINUOUS
 62
               2
100
AcDbCircle
 10
-51.659349595709557
 20
26.161825093886321
 30
0.0
 40
4.8639993667602539
  0
CIRCLE
  5
496
100
AcDbEntity
  8
0
  6
CONTINUOUS
 62
               7
100
AcDbCircle
 10
-51.659349595709557
 20
26.161825093886321
 30
0.0
 40
4.2779998779296875
  0
LINE
  5
497
100
AcDbEntity
  8
0
  6
CENTER
 62
               2
100
AcDbLine
 10
-57.659349595709557
 20
59.161825093886321
 30
0.0
 11
-45.659349595709557
 21
59.161825093886321
 31
0.0
  0
CIRCLE
  5
498
100
AcDbEntity
  8
0
  6
CONTINUOUS
 62
               2
100
AcDbCircle
 10
-51.659349595709557
 20
59.161825093886321
 30
0.0
 40
4.8639993667602539
  0
CIRCLE
  5
499
100
AcDbEntity
  8
0
  6
CONTINUOUS
 62
               7
100
AcDbCircle
 10
-51.659349595709557
 20
59.161825093886321
 30
0.0
 40
4.2779998779296875
  0
LINE
  5
49A
100
AcDbEntity
  8
0
  6
CENTER
 62
               2
100
AcDbLine
 10
-57.659349595709557
 20
42.661825093886307
 30
0.0
 11
-45.659349595709557
 21
42.661825093886307
 31
0.0
  0
CIRCLE
  5
49B
100
AcDbEntity
  8
0
  6
CONTINUOUS
 62
               2
100
AcDbCircle
 10
-51.659349595709557
 20
42.661825093886307
 30
0.0
 40
4.8639993667602539
  0
CIRCLE
  5
49C
100
AcDbEntity
  8
0
  6
CONTINUOUS
 62
               7
100
AcDbCircle
 10
-51.659349595709557
 20
42.661825093886307
 30
0.0
 40
4.2779998779296875
  0
LINE
  5
49D
100
AcDbEntity
  8
0
  6
CENTER
 62
               2
100
AcDbLine
 10
-51.659349595709557
 20
65.161825093886321
 30
0.0
 11
-51.659349595709557
 21
53.161825093886321
 31
0.0
  0
LINE
  5
49E
100
AcDbEntity
  8
0
  6
CONTINUOUS
 62
               7
100
AcDbLine
 10
-60.159349595709557
 20
19.161825092402268
 30
0.0
 11
-60.159349595709557
 21
66.161825094897608
 31
0.0
  0
LINE
  5
49F
100
AcDbEntity
  8
0
  6
CONTINUOUS
 62
               7
100
AcDbLine
 10
-60.859349595709574
 20
61.661825092875034
 30
0.0
 11
-60.159349595709557
 21
61.661825092875034
 31
0.0
  0
LINE
  5
4A0
100
AcDbEntity
  8
0
  6
CONTINUOUS
 62
               7
100
AcDbLine
 10
-60.159349595709557
 20
23.661825092875034
 30
0.0
 11
-60.859349595709574
 21
23.661825092875034
 31
0.0
  0
LINE
  5
4A1
100
AcDbEntity
  8
0
  6
CONTINUOUS
 62
               7
100
AcDbLine
 10
-61.159349595709557
 20
76.161825092874949
 30
0.0
 11
-60.859349595709546
 21
75.861825092874966
 31
0.0
  0
LINE
  5
4A2
100
AcDbEntity
  8
0
  6
CONTINUOUS
 62
               7
100
AcDbLine
 10
-61.159349595709557
 20
76.161825092874949
 30
0.0
 11
-78.859349595709574
 21
76.161825092874949
 31
0.0
  0
LINE
  5
4A3
100
AcDbEntity
  8
0
  6
CONTINUOUS
 62
               4
100
AcDbLine
 10
-78.859349595709574
 20
75.66182478769916
 30
0.0
 11
-79.746340045837172
 21
75.66182478769916
 31
0.0
  0
ARC
  5
4A4
100
AcDbEntity
  8
0
  6
CONTINUOUS
 62
               4
100
AcDbCircle
 10
-84.356606965266309
 20
78.31434724823832
 30
0.0
 40
0.4997133381008655
100
AcDbArc
 50
180.11549557964247
 51
245.17378469018985
  0
LINE
  5
4A5
100
AcDbEntity
  8
0
  6
CONTINUOUS
 62
               4
100
AcDbLine
 10
-79.957894490220156
 20
75.708785366608893
 30
0.0
 11
-84.566420298376187
 21
77.860814685432487
 31
0.0
  0
ARC
  5
4A6
100
AcDbEntity
  8
0
  6
CONTINUOUS
 62
               4
100
AcDbCircle
 10
-79.746340045837172
 20
76.161824787699146
 30
0.0
 40
0.5
100
AcDbArc
 50
244.96897918278108
 51
269.99999999999937
  0
LINE
  5
4A7
100
AcDbEntity
  8
0
  6
DASHED
 62
               2
100
AcDbLine
 10
-60.859349595709574
 20
69.361825092874966
 30
0.0
 11
-62.459349595709568
 21
69.361825092874966
 31
0.0
  0
LINE
  5
4A8
100
AcDbEntity
  8
0
  6
CENTER
 62
               2
100
AcDbLine
 10
-63.276541947129687
 20
70.361825092874966
 30
0.0
 11
-59.99448354131161
 21
70.361825092874952
 31
0.0
  0
LINE
  5
4A9
100
AcDbEntity
  8
0
  6
DASHED
 62
               2
100
AcDbLine
 10
-60.859349595709574
 20
71.361825092874966
 30
0.0
 11
-62.459349595709568
 21
71.361825092874966
 31
0.0
  0
LINE
  5
4AA
100
AcDbEntity
  8
0
  6
CONTINUOUS
 62
               7
100
AcDbLine
 10
-60.859349595709546
 20
18.661825092874949
 30
0.0
 11
-60.859349595709546
 21
75.861825092874966
 31
0.0
  0
LINE
  5
4AB
100
AcDbEntity
  8
0
  6
CONTINUOUS
 62
               7
100
AcDbLine
 10
-78.859349595709574
 20
18.661825092874956
 30
0.0
 11
-78.859349595709574
 21
76.161825092874949
 31
0.0
  0
LINE
  5
4AC
100
AcDbEntity
  8
0
  6
CONTINUOUS
 62
               4
100
AcDbLine
 10
-78.153288988909537
 20
95.261824776499168
 30
0.0
 11
-78.153288988909537
 21
95.162834877565842
 31
0.0
  0
ARC
  5
4AD
100
AcDbEntity
  8
0
  6
CONTINUOUS
 62
               4
100
AcDbCircle
 10
-77.1593495957095
 20
95.96586517996586
 30
0.0
 40
0.3
100
AcDbArc
 50
0.0000000000000763
 51
89.999999999999872
  0
ARC
  5
4AE
100
AcDbEntity
  8
0
  6
CONTINUOUS
 62
               4
100
AcDbCircle
 10
-76.176444742367721
 20
97.561919934357348
 30
0.0
 40
0.5999048608870732
100
AcDbArc
 50
89.99091272245343
 51
123.56005066674096
  0
ARC
  5
4AF
100
AcDbEntity
  8
0
  6
CONTINUOUS
 62
               4
100
AcDbCircle
 10
-76.359349595709546
 20
97.56182478769918
 30
0.0
 40
0.5
100
AcDbArc
 50
114.73039869685056
 51
179.99999999999963
  0
ARC
  5
4B0
100
AcDbEntity
  8
0
  6
CONTINUOUS
 62
               4
100
AcDbCircle
 10
-63.359349595709546
 20
97.561824787699152
 30
0.0
 40
0.5
100
AcDbArc
 50
0.0
 51
89.999999999999815
  0
LINE
  5
4B1
100
AcDbEntity
  8
0
  6
CONTINUOUS
 62
               4
100
AcDbLine
 10
-63.359349595709546
 20
98.061824787699152
 30
0.0
 11
-64.859349595709546
 21
98.061824787699152
 31
0.0
  0
LINE
  5
4B2
100
AcDbEntity
  8
0
  6
CONTINUOUS
 62
               4
100
AcDbLine
 10
-76.859349595709546
 20
96.561824787699251
 30
0.0
 11
-64.859346779182772
 21
96.561824787699251
 31
0.0
  0
LINE
  5
4B3
100
AcDbEntity
  8
0
  6
CONTINUOUS
 62
               4
100
AcDbLine
 10
-64.859346779182772
 20
98.161824787699231
 30
0.0
 11
-64.859346779182772
 21
96.561824787699251
 31
0.0
  0
LINE
  5
4B4
100
AcDbEntity
  8
0
  6
CONTINUOUS
 62
               4
100
AcDbLine
 10
-76.859349595709546
 20
97.561824787699265
 30
0.0
 11
-73.159349595709557
 21
97.561824787699265
 31
0.0
  0
ARC
  5
4B5
100
AcDbEntity
  8
0
  6
CONTINUOUS
 62
               4
100
AcDbCircle
 10
-76.176444742367721
 20
97.561919934357348
 30
0.0
 40
0.5999048608870732
100
AcDbArc
 50
123.56005066674096
 51
180.00908727754583
  0
ARC
  5
4B6
100
AcDbEntity
  8
0
  6
CONTINUOUS
 62
               4
100
AcDbCircle
 10
-74.375261590472519
 20
97.562912792936174
 30
0.0
 40
0.5989129830170392
100
AcDbArc
 50
359.89591452477293
 51
90.104085475226867
  0
LINE
  5
4B7
100
AcDbEntity
  8
0
  6
CONTINUOUS
 62
               4
100
AcDbLine
 10
-76.17644474236775
 20
98.16182478769916
 30
0.0
 11
-64.859346779182772
 21
98.161824787699231
 31
0.0
  0
LINE
  5
4B8
100
AcDbEntity
  8
0
  6
CONTINUOUS
 62
               4
100
AcDbLine
 10
-73.159349595709557
 20
97.561824787699265
 30
0.0
 11
-73.159349595709557
 21
98.161824787699175
 31
0.0
  0
LINE
  5
4B9
100
AcDbEntity
  8
0
  6
CONTINUOUS
 62
               4
100
AcDbLine
 10
-76.859349595709574
 20
95.162834877565828
 30
0.0
 11
-84.354299086376216
 21
95.162834877565828
 31
0.0
  0
LINE
  5
4BA
100
AcDbEntity
  8
0
  6
CONTINUOUS
 62
               4
100
AcDbLine
 10
-83.852278884642857
 20
95.261824776499154
 30
0.0
 11
-78.153288988909537
 21
95.261824776499154
 31
0.0
  0
LINE
  5
4BB
100
AcDbEntity
  8
0
  6
CONTINUOUS
 62
               4
100
AcDbLine
 10
-86.249248580242863
 20
96.265865179965843
 30
0.0
 11
-77.156319292509522
 21
96.265865179965843
 31
0.0
  0
LINE
  5
4BC
100
AcDbEntity
  8
0
  6
CONTINUOUS
 62
               4
100
AcDbLine
 10
-92.853288980509546
 20
91.761824778499161
 30
0.0
 11
-84.856319288109546
 21
91.761824778499161
 31
0.0
  0
LINE
  5
4BD
100
AcDbEntity
  8
0
  6
CONTINUOUS
 62
               4
100
AcDbLine
 10
-92.853288980509546
 20
93.564855080499157
 30
0.0
 11
-84.856319288109546
 21
93.564855080499157
 31
0.0
  0
LINE
  5
4BE
100
AcDbEntity
  8
0
  6
CONTINUOUS
 62
               4
100
AcDbLine
 10
-92.853288980509546
 20
94.264855080099139
 30
0.0
 11
-85.259349590909522
 21
94.264855080099139
 31
0.0
  0
LINE
  5
4BF
100
AcDbEntity
  8
0
  6
CONTINUOUS
 62
               4
100
AcDbLine
 10
-92.556319283709541
 20
94.561824776899172
 30
0.0
 11
-86.65227888304284
 21
94.561824776899172
 31
0.0
  0
LINE
  5
4C0
100
AcDbEntity
  8
0
  6
CONTINUOUS
 62
               4
100
AcDbLine
 10
-91.856319284109503
 20
90.764855082099174
 30
0.0
 11
-86.857329387976193
 21
90.764855082099174
 31
0.0
  0
LINE
  5
4C1
100
AcDbEntity
  8
0
  6
CONTINUOUS
 62
               4
100
AcDbLine
 10
-85.188642520242837
 20
95.063844978632474
 30
0.0
 11
-91.531066759042858
 21
96.181016695165837
 31
0.0
  0
LINE
  5
4C2
100
AcDbEntity
  8
0
  6
CONTINUOUS
 62
               4
100
AcDbLine
 10
-86.249248580242863
 20
96.265865179965843
 30
0.0
 11
-91.35429908237623
 21
97.163844977432504
 31
0.0
  0
ARC
  5
4C3
100
AcDbEntity
  8
0
  6
CONTINUOUS
 62
               4
100
AcDbCircle
 10
-85.260183635063896
 20
94.668719427053517
 30
0.0
 40
0.403865208170398
100
AcDbArc
 50
270.11832473551306
 51
359.88167526448416
  0
ARC
  5
4C4
100
AcDbEntity
  8
0
  6
CONTINUOUS
 62
               4
100
AcDbCircle
 10
-85.259245522088548
 20
94.667152019303657
 30
0.0
 40
0.4029269013737999
100
AcDbArc
 50
0.1042835857490746
 51
79.908228442603601
  0
ARC
  5
4C5
100
AcDbEntity
  8
0
  6
CONTINUOUS
 62
               4
100
AcDbCircle
 10
-83.859262109846725
 20
94.766859112791863
 30
0.0
 40
0.4950149226876425
100
AcDbArc
 50
89.19169587542109
 51
126.87687525883487
  0
ARC
  5
4C6
100
AcDbEntity
  8
0
  6
CONTINUOUS
 62
               4
100
AcDbCircle
 10
-84.359682436630862
 20
94.666198026087173
 30
0.0
 40
0.4966660273328702
100
AcDbArc
 50
89.378960363565895
 51
180.6210396364358
  0
LINE
  5
4C7
100
AcDbEntity
  8
0
  6
CONTINUOUS
 62
               4
100
AcDbLine
 10
-84.856319288109546
 20
90.163844981432462
 30
0.0
 11
-86.857329387976193
 21
90.163844981432462
 31
0.0
  0
LINE
  5
4C8
100
AcDbEntity
  8
0
  6
CONTINUOUS
 62
               4
100
AcDbLine
 10
-86.355309186242891
 20
94.264855080099139
 30
0.0
 11
-86.65227888304284
 21
94.561824776899172
 31
0.0
  0
LINE
  5
4C9
100
AcDbEntity
  8
0
  6
CONTINUOUS
 62
               4
100
AcDbLine
 10
-86.857329387976193
 20
90.163844981432462
 30
0.0
 11
-86.857329387976193
 21
90.764855082099174
 31
0.0
  0
LINE
  5
4CA
100
AcDbEntity
  8
0
  6
CONTINUOUS
 62
               4
100
AcDbLine
 10
-103.85530917624286
 20
92.41232982863248
 30
0.0
 11
-103.85530917624286
 21
92.91435003036581
 31
0.0
  0
LINE
  5
4CB
100
AcDbEntity
  8
0
  6
CONTINUOUS
 62
               4
100
AcDbLine
 10
-103.85530917624286
 20
92.41232982863248
 30
0.0
 11
-100.35530917824289
 21
92.41232982863248
 31
0.0
  0
LINE
  5
4CC
100
AcDbEntity
  8
0
  6
CONTINUOUS
 62
               4
100
AcDbLine
 10
-103.85530917624286
 20
92.91435003036581
 30
0.0
 11
-100.35530917824289
 21
92.91435003036581
 31
0.0
  0
LINE
  5
4CD
100
AcDbEntity
  8
0
  6
CONTINUOUS
 62
               4
100
AcDbLine
 10
-100.35530917824289
 20
92.016370232899177
 30
0.0
 11
-100.35530917824289
 21
93.317380333165815
 31
0.0
  0
LINE
  5
4CE
100
AcDbEntity
  8
0
  6
CONTINUOUS
 62
               4
100
AcDbLine
 10
-91.856319284109503
 20
90.163844981432462
 30
0.0
 11
-92.853288980509546
 21
90.163844981432462
 31
0.0
  0
LINE
  5
4CF
100
AcDbEntity
  8
0
  6
CONTINUOUS
 62
               4
100
AcDbLine
 10
-92.853288980509546
 20
96.166875281032489
 30
0.0
 11
-91.446218274242881
 21
96.166875281032489
 31
0.0
  0
LINE
  5
4D0
100
AcDbEntity
  8
0
  6
CONTINUOUS
 62
               4
100
AcDbLine
 10
-92.853288980509546
 20
97.163844977432504
 30
0.0
 11
-91.35429908237623
 21
97.163844977432504
 31
0.0
  0
LINE
  5
4D1
100
AcDbEntity
  8
0
  6
CONTINUOUS
 62
               4
100
AcDbLine
 10
-96.671470796509539
 20
93.317380333165815
 30
0.0
 11
-92.853288980509546
 21
93.317380333165815
 31
0.0
  0
LINE
  5
4D2
100
AcDbEntity
  8
0
  6
CONTINUOUS
 62
             200
100
AcDbLine
 10
-96.183592008909557
 20
94.165865181165842
 30
0.0
 11
-97.915915240242867
 21
91.160814677832533
 31
0.0
  0
LINE
  5
4D3
100
AcDbEntity
  8
0
  6
CONTINUOUS
 62
               4
100
AcDbLine
 10
-97.420965745576211
 20
92.016370232899177
 30
0.0
 11
-92.853288980509546
 21
92.016370232899177
 31
0.0
  0
LINE
  5
4D4
100
AcDbEntity
  8
0
  6
CONTINUOUS
 62
               4
100
AcDbLine
 10
-91.856319284109503
 20
90.163844981432462
 30
0.0
 11
-91.856319284109503
 21
90.764855082099174
 31
0.0
  0
LINE
  5
4D5
100
AcDbEntity
  8
0
  6
CONTINUOUS
 62
               4
100
AcDbLine
 10
-92.853288980509546
 20
94.264855080099139
 30
0.0
 11
-92.556319283709541
 21
94.561824776899172
 31
0.0
  0
LINE
  5
4D6
100
AcDbEntity
  8
0
  6
CONTINUOUS
 62
               4
100
AcDbLine
 10
-92.853288980509546
 20
96.166875281032489
 30
0.0
 11
-92.853288980509546
 21
97.163844977432504
 31
0.0
  0
LINE
  5
4D7
100
AcDbEntity
  8
0
  6
CONTINUOUS
 62
               4
100
AcDbLine
 10
-92.853288980509546
 20
90.163844981432462
 30
0.0
 11
-92.853288980509546
 21
94.264855080099139
 31
0.0
  0
LINE
  5
4D8
100
AcDbEntity
  8
0
  6
CONTINUOUS
 62
             200
100
AcDbLine
 10
-96.530056655176196
 20
94.165865181165842
 30
0.0
 11
-98.262379886509535
 21
91.167885384899179
 31
0.0
  0
LINE
  5
4D9
100
AcDbEntity
  8
0
  6
CONTINUOUS
 62
               4
100
AcDbLine
 10
-100.35530917824289
 20
92.016370232899177
 30
0.0
 11
-97.767430391842879
 21
92.016370232899177
 31
0.0
  0
LINE
  5
4DA
100
AcDbEntity
  8
0
  6
CONTINUOUS
 62
               4
100
AcDbLine
 10
-100.35530917824289
 20
93.317380333165815
 30
0.0
 11
-97.017935442776206
 21
93.317380333165815
 31
0.0
  0
LINE
  5
4DB
100
AcDbEntity
  8
0
  6
CONTINUOUS
 62
               4
100
AcDbLine
 10
-84.856319288109546
 20
94.660814675832498
 30
0.0
 11
-84.856319288109546
 21
78.313339937699155
 31
0.0
  0
LINE
  5
4DC
100
AcDbEntity
  8
0
  6
CONTINUOUS
 62
               4
100
AcDbLine
 10
-79.744198078909506
 20
75.66182478769916
 30
0.0
 11
-79.744198078909506
 21
95.162834877565828
 31
0.0
  0
LINE
  5
4DD
100
AcDbEntity
  8
0
  6
CONTINUOUS
 62
               4
100
AcDbLine
 10
-76.859349595709546
 20
97.561824787699152
 30
0.0
 11
-76.859349595709574
 21
76.161825092874949
 31
0.0
  0
LINE
  5
4DE
100
AcDbEntity
  8
0
  6
CONTINUOUS
 62
               4
100
AcDbLine
 10
-62.859349595709574
 20
76.161825090668231
 30
0.0
 11
-62.859349595709574
 21
97.561824782631419
 31
0.0
  0
LINE
  5
4DF
100
AcDbEntity
  8
0
  6
CENTER
 62
               2
100
AcDbLine
 10
-69.859349595709574
 20
100.06182479196863
 30
0.0
 11
-69.859349595709574
 21
15.188652057783564
 31
0.0
  0
LINE
  5
4E0
100
AcDbEntity
  8
0
  6
CONTINUOUS
 62
               4
100
AcDbLine
 10
-187.69672325700512
 20
92.016370232899177
 30
0.0
 11
-187.69672325700512
 21
93.317380333165815
 31
0.0
  0
LINE
  5
4E1
100
AcDbEntity
  8
0
  6
CONTINUOUS
 62
               4
100
AcDbLine
 10
-184.19672325900515
 20
92.91435003036581
 30
0.0
 11
-187.69672325700512
 21
92.91435003036581
 31
0.0
  0
LINE
  5
4E2
100
AcDbEntity
  8
0
  6
CONTINUOUS
 62
               4
100
AcDbLine
 10
-184.19672325900515
 20
92.41232982863248
 30
0.0
 11
-187.69672325700512
 21
92.41232982863248
 31
0.0
  0
LINE
  5
4E3
100
AcDbEntity
  8
0
  6
CONTINUOUS
 62
               4
100
AcDbLine
 10
-184.19672325900515
 20
92.41232982863248
 30
0.0
 11
-184.19672325900515
 21
92.91435003036581
 31
0.0
  0
LINE
  5
4E4
100
AcDbEntity
  8
0
  6
CENTER
 62
               2
100
AcDbLine
 10
-247.3926828258306
 20
25.161824901128895
 30
0.0
 11
-242.3926828258306
 21
25.161824901128895
 31
0.0
  0
LINE
  5
4E5
100
AcDbEntity
  8
0
  6
CENTER
 62
               2
100
AcDbLine
 10
-247.3926828258306
 20
60.161825286643776
 30
0.0
 11
-242.3926828258306
 21
60.161825286643776
 31
0.0
  0
LINE
  5
4E6
100
AcDbEntity
  8
0
  6
CENTER
 62
               2
100
AcDbLine
 10
-218.19268283953846
 20
100.79107583871131
 30
0.0
 11
-218.19268283953846
 21
15.188652057783564
 31
0.0
  0
LINE
  5
4E7
100
AcDbEntity
  8
0
  6
CONTINUOUS
 62
               7
100
AcDbLine
 10
-226.69268283953846
 20
18.161825092874956
 30
0.0
 11
-209.69268283953846
 21
18.161825092874956
 31
0.0
  0
ARC
  5
4E8
100
AcDbEntity
  8
0
  6
CONTINUOUS
 62
               7
100
AcDbCircle
 10
-209.69268283953843
 20
18.661825092874949
 30
0.0
 40
0.5
100
AcDbArc
 50
270.00000000000023
 51
0.0
  0
ARC
  5
4E9
100
AcDbEntity
  8
0
  6
CONTINUOUS
 62
               7
100
AcDbCircle
 10
-226.69268283953846
 20
18.661825092874963
 30
0.0
 40
0.5
100
AcDbArc
 50
179.99999999999963
 51
269.99999999999937
  0
LINE
  5
4EA
100
AcDbEntity
  8
0
  6
CONTINUOUS
 62
               7
100
AcDbLine
 10
-222.99268283953847
 20
19.761825075868394
 30
0.0
 11
-222.99268283953847
 21
18.361825092874945
 31
0.0
  0
LINE
  5
4EB
100
AcDbEntity
  8
0
  6
CONTINUOUS
 62
               7
100
AcDbLine
 10
-226.99268283953847
 20
19.961825092874967
 30
0.0
 11
-223.19268283953846
 21
19.961825092874967
 31
0.0
  0
ARC
  5
4EC
100
AcDbEntity
  8
0
  6
CONTINUOUS
 62
               7
100
AcDbCircle
 10
-223.19268283953846
 20
19.761825092874979
 30
0.0
 40
0.2
100
AcDbArc
 50
0.0
 51
89.999999999999815
  0
ARC
  5
4ED
100
AcDbEntity
  8
0
  6
CONTINUOUS
 62
               7
100
AcDbCircle
 10
-222.79268283953849
 20
18.361825092874945
 30
0.0
 40
0.2
100
AcDbArc
 50
179.99999999999963
 51
269.99999999999937
  0
ARC
  5
4EE
100
AcDbEntity
  8
0
  6
CONTINUOUS
 62
               7
100
AcDbCircle
 10
-226.99268283953847
 20
20.161825092874956
 30
0.0
 40
0.2
100
AcDbArc
 50
179.99999999999963
 51
269.99999999999937
  0
LINE
  5
4EF
100
AcDbEntity
  8
0
  6
CONTINUOUS
 62
               7
100
AcDbLine
 10
-226.94268283953846
 20
19.421825092874947
 30
0.0
 11
-226.94268283953846
 21
19.961825092874967
 31
0.0
  0
ARC
  5
4F0
100
AcDbEntity
  8
0
  6
CONTINUOUS
 62
               7
100
AcDbCircle
 10
-223.87558313831533
 20
19.434438792114641
 30
0.0
 40
0.4330840265925726
100
AcDbArc
 50
297.93703700787626
 51
358.33100760491578
  0
LINE
  5
4F1
100
AcDbEntity
  8
0
  6
CONTINUOUS
 62
               7
100
AcDbLine
 10
-223.44268283953846
 20
19.421825092874947
 30
0.0
 11
-223.44268283953846
 21
19.961825092874967
 31
0.0
  0
ARC
  5
4F2
100
AcDbEntity
  8
0
  6
CONTINUOUS
 62
               7
100
AcDbCircle
 10
-226.52079670897081
 20
19.422270900239546
 30
0.0
 40
0.4218863661100916
100
AcDbArc
 50
180.06054446711471
 51
241.41043093672513
  0
ARC
  5
4F3
100
AcDbEntity
  8
0
  6
CONTINUOUS
 62
               7
100
AcDbCircle
 10
-225.19768283953846
 20
21.866837297532193
 30
0.0
 40
3.2015494236961581
100
AcDbArc
 50
241.55389706210474
 51
298.44610293789401
  0
LINE
  5
4F4
100
AcDbEntity
  8
0
  6
CONTINUOUS
 62
               7
100
AcDbLine
 10
-227.19268283953846
 20
18.661825092874956
 30
0.0
 11
-227.19268283953846
 21
75.861825092874994
 31
0.0
  0
LINE
  5
4F5
100
AcDbEntity
  8
0
  6
CONTINUOUS
 62
               7
100
AcDbLine
 10
-209.19268283953843
 20
18.661825092874949
 30
0.0
 11
-209.19268283953843
 21
76.161825092874977
 31
0.0
  0
LINE
  5
4F6
100
AcDbEntity
  8
0
  6
CENTER
 62
               2
100
AcDbLine
 10
-236.39268283489957
 20
44.861825093886296
 30
0.0
 11
-236.39268283489957
 21
56.861825093886296
 31
0.0
  0
LINE
  5
4F7
100
AcDbEntity
  8
0
  6
CONTINUOUS
 62
               7
100
AcDbLine
 10
-210.19268283953846
 20
49.711825097144384
 30
0.0
 11
-210.19268283953846
 21
53.011825097144381
 31
0.0
  0
ARC
  5
4F8
100
AcDbEntity
  8
0
  6
CONTINUOUS
 62
               7
100
AcDbCircle
 10
-210.19159483430147
 20
52.26291310238139
 30
0.0
 40
0.5989129830170392
100
AcDbArc
 50
359.89591452477219
 51
90.104085475226924
  0
LINE
  5
4F9
100
AcDbEntity
  8
0
  6
CONTINUOUS
 62
               7
100
AcDbLine
 10
-209.5926828395385
 20
50.461729950486188
 30
0.0
 11
-209.5926828395385
 21
52.26291310238139
 31
0.0
  0
ARC
  5
4FA
100
AcDbEntity
  8
0
  6
CONTINUOUS
 62
               7
100
AcDbCircle
 10
-210.19258769288032
 20
50.461729950486188
 30
0.0
 40
0.5999048608870732
100
AcDbArc
 50
269.99091272245317
 51
0.0090872775463741
  0
LINE
  5
4FB
100
AcDbEntity
  8
0
  6
CONTINUOUS
 62
               7
100
AcDbLine
 10
-210.19268283040341
 20
49.711825097144384
 30
0.0
 11
-209.19268283953846
 21
49.711825097144384
 31
0.0
  0
LINE
  5
4FC
100
AcDbEntity
  8
0
  6
CONTINUOUS
 62
               7
100
AcDbLine
 10
-210.19268283040341
 20
53.011825097144381
 30
0.0
 11
-209.19268283953846
 21
53.011825097144381
 31
0.0
  0
LINE
  5
4FD
100
AcDbEntity
  8
0
  6
CENTER
 62
               2
100
AcDbLine
 10
-230.39268283489957
 20
50.861825093886296
 30
0.0
 11
-242.39268283489957
 21
50.861825093886296
 31
0.0
  0
LINE
  5
4FE
100
AcDbEntity
  8
0
  6
CONTINUOUS
 62
               7
100
AcDbLine
 10
-227.19268283953843
 20
61.661825092875048
 30
0.0
 11
-227.89268283953845
 21
61.661825092875048
 31
0.0
  0
LINE
  5
4FF
100
AcDbEntity
  8
0
  6
CONTINUOUS
 62
               7
100
AcDbLine
 10
-244.89268283489957
 20
66.161825094897594
 30
0.0
 11
-227.89268283953845
 21
66.161825094897594
 31
0.0
  0
ARC
  5
500
100
AcDbEntity
  8
0
  6
CONTINUOUS
 62
               4
100
AcDbCircle
 10
-208.30569238941084
 20
76.161824787699175
 30
0.0
 40
0.5
100
AcDbArc
 50
269.99999999999937
 51
295.03102081721772
  0
LINE
  5
501
100
AcDbEntity
  8
0
  6
CONTINUOUS
 62
             200
100
AcDbLine
 10
-191.52197578007181
 20
94.165865181165842
 30
0.0
 11
-189.78965254873847
 21
91.167885384899179
 31
0.0
  0
LINE
  5
502
100
AcDbEntity
  8
0
  6
CONTINUOUS
 62
               4
100
AcDbLine
 10
-195.19874345473846
 20
90.163844981432462
 30
0.0
 11
-195.19874345473846
 21
94.264855080099139
 31
0.0
  0
LINE
  5
503
100
AcDbEntity
  8
0
  6
CONTINUOUS
 62
               4
100
AcDbLine
 10
-195.19874345473846
 20
96.166875281032489
 30
0.0
 11
-195.19874345473846
 21
97.163844977432504
 31
0.0
  0
LINE
  5
504
100
AcDbEntity
  8
0
  6
CONTINUOUS
 62
               4
100
AcDbLine
 10
-195.19874345473846
 20
94.264855080099139
 30
0.0
 11
-195.49571315153847
 21
94.561824776899172
 31
0.0
  0
LINE
  5
505
100
AcDbEntity
  8
0
  6
CONTINUOUS
 62
               4
100
AcDbLine
 10
-196.19571315113851
 20
90.163844981432462
 30
0.0
 11
-196.19571315113851
 21
90.764855082099174
 31
0.0
  0
LINE
  5
506
100
AcDbEntity
  8
0
  6
CONTINUOUS
 62
               4
100
AcDbLine
 10
-190.6310666896718
 20
92.016370232899177
 30
0.0
 11
-195.19874345473846
 21
92.016370232899177
 31
0.0
  0
LINE
  5
507
100
AcDbEntity
  8
0
  6
CONTINUOUS
 62
             200
100
AcDbLine
 10
-191.86844042633845
 20
94.165865181165842
 30
0.0
 11
-190.13611719500514
 21
91.160814677832533
 31
0.0
  0
LINE
  5
508
100
AcDbEntity
  8
0
  6
CONTINUOUS
 62
               4
100
AcDbLine
 10
-191.38056163873847
 20
93.317380333165815
 30
0.0
 11
-195.19874345473846
 21
93.317380333165815
 31
0.0
  0
LINE
  5
509
100
AcDbEntity
  8
0
  6
CONTINUOUS
 62
               4
100
AcDbLine
 10
-195.19874345473846
 20
97.163844977432504
 30
0.0
 11
-196.69773335287178
 21
97.163844977432504
 31
0.0
  0
LINE
  5
50A
100
AcDbEntity
  8
0
  6
CONTINUOUS
 62
               4
100
AcDbLine
 10
-195.19874345473846
 20
96.166875281032489
 30
0.0
 11
-196.60581416100513
 21
96.166875281032489
 31
0.0
  0
LINE
  5
50B
100
AcDbEntity
  8
0
  6
CONTINUOUS
 62
               4
100
AcDbLine
 10
-196.19571315113851
 20
90.163844981432462
 30
0.0
 11
-195.19874345473846
 21
90.163844981432462
 31
0.0
  0
LINE
  5
50C
100
AcDbEntity
  8
0
  6
CONTINUOUS
 62
               4
100
AcDbLine
 10
-203.19571314713846
 20
94.660814675832498
 30
0.0
 11
-203.19571314713846
 21
78.313339937699169
 31
0.0
  0
LINE
  5
50D
100
AcDbEntity
  8
0
  6
CONTINUOUS
 62
               4
100
AcDbLine
 10
-208.09413794502785
 20
75.708785366608907
 30
0.0
 11
-203.48561213687182
 21
77.860814685432501
 31
0.0
  0
LINE
  5
50E
100
AcDbEntity
  8
0
  6
CONTINUOUS
 62
               4
100
AcDbLine
 10
-201.19470304727182
 20
90.163844981432462
 30
0.0
 11
-201.19470304727182
 21
90.764855082099174
 31
0.0
  0
LINE
  5
50F
100
AcDbEntity
  8
0
  6
CONTINUOUS
 62
               4
100
AcDbLine
 10
-201.69672324900512
 20
94.264855080099139
 30
0.0
 11
-201.39975355220517
 21
94.561824776899172
 31
0.0
  0
LINE
  5
510
100
AcDbEntity
  8
0
  6
CONTINUOUS
 62
               4
100
AcDbLine
 10
-203.19571314713846
 20
90.163844981432462
 30
0.0
 11
-201.19470304727182
 21
90.163844981432462
 31
0.0
  0
LINE
  5
511
100
AcDbEntity
  8
0
  6
CONTINUOUS
 62
               4
100
AcDbLine
 10
-208.3078343563385
 20
75.661824787699175
 30
0.0
 11
-208.3078343563385
 21
95.162834877565828
 31
0.0
  0
ARC
  5
512
100
AcDbEntity
  8
0
  6
CONTINUOUS
 62
               4
100
AcDbCircle
 10
-203.6954254699817
 20
78.314347248238334
 30
0.0
 40
0.4997133381008655
100
AcDbArc
 50
294.82621530980896
 51
359.88450442035634
  0
ARC
  5
513
100
AcDbEntity
  8
0
  6
CONTINUOUS
 62
               4
100
AcDbCircle
 10
-203.69234999861715
 20
94.666198026087173
 30
0.0
 40
0.4966660273328702
100
AcDbArc
 50
359.37896036356381
 51
90.621039636433693
  0
ARC
  5
514
100
AcDbEntity
  8
0
  6
CONTINUOUS
 62
               4
100
AcDbCircle
 10
-204.19277032540128
 20
94.766859112791863
 30
0.0
 40
0.4950149226876425
100
AcDbArc
 50
53.12312474116473
 51
90.808304124578541
  0
ARC
  5
515
100
AcDbEntity
  8
0
  6
CONTINUOUS
 62
               4
100
AcDbCircle
 10
-202.79278691315946
 20
94.667152019303657
 30
0.0
 40
0.4029269013737999
100
AcDbArc
 50
100.09177155739594
 51
179.89571641425047
  0
ARC
  5
516
100
AcDbEntity
  8
0
  6
CONTINUOUS
 62
               4
100
AcDbCircle
 10
-202.79184880018411
 20
94.668719427053517
 30
0.0
 40
0.403865208170398
100
AcDbArc
 50
180.11832473551465
 51
269.88167526448575
  0
LINE
  5
517
100
AcDbEntity
  8
0
  6
CONTINUOUS
 62
               4
100
AcDbLine
 10
-201.80278385500515
 20
96.265865179965843
 30
0.0
 11
-196.69773335287178
 21
97.163844977432504
 31
0.0
  0
LINE
  5
518
100
AcDbEntity
  8
0
  6
CONTINUOUS
 62
               4
100
AcDbLine
 10
-202.86338991500517
 20
95.063844978632474
 30
0.0
 11
-196.52096567620515
 21
96.181016695165837
 31
0.0
  0
LINE
  5
519
100
AcDbEntity
  8
0
  6
CONTINUOUS
 62
               4
100
AcDbLine
 10
-196.19571315113851
 20
90.764855082099174
 30
0.0
 11
-201.19470304727182
 21
90.764855082099174
 31
0.0
  0
LINE
  5
51A
100
AcDbEntity
  8
0
  6
CONTINUOUS
 62
               4
100
AcDbLine
 10
-195.49571315153847
 20
94.561824776899172
 30
0.0
 11
-201.39975355220517
 21
94.561824776899172
 31
0.0
  0
LINE
  5
51B
100
AcDbEntity
  8
0
  6
CONTINUOUS
 62
               4
100
AcDbLine
 10
-195.19874345473846
 20
94.264855080099139
 30
0.0
 11
-202.79268284433849
 21
94.264855080099139
 31
0.0
  0
LINE
  5
51C
100
AcDbEntity
  8
0
  6
CONTINUOUS
 62
               4
100
AcDbLine
 10
-195.19874345473846
 20
93.564855080499157
 30
0.0
 11
-203.19571314713846
 21
93.564855080499157
 31
0.0
  0
LINE
  5
51D
100
AcDbEntity
  8
0
  6
CONTINUOUS
 62
               4
100
AcDbLine
 10
-195.19874345473846
 20
91.761824778499161
 30
0.0
 11
-203.19571314713846
 21
91.761824778499161
 31
0.0
  0
LINE
  5
51E
100
AcDbEntity
  8
0
  6
CONTINUOUS
 62
               4
100
AcDbLine
 10
-201.80278385500515
 20
96.265865179965843
 30
0.0
 11
-210.89268283953851
 21
96.265865179965843
 31
0.0
  0
LINE
  5
51F
100
AcDbEntity
  8
0
  6
CONTINUOUS
 62
               4
100
AcDbLine
 10
-204.19975355060515
 20
95.261824776499154
 30
0.0
 11
-209.89874344633847
 21
95.261824776499154
 31
0.0
  0
LINE
  5
520
100
AcDbEntity
  8
0
  6
CONTINUOUS
 62
               4
100
AcDbLine
 10
-211.19268283953843
 20
95.162834877565828
 30
0.0
 11
-203.69773334887179
 21
95.162834877565828
 31
0.0
  0
LINE
  5
521
100
AcDbEntity
  8
0
  6
CONTINUOUS
 62
               4
100
AcDbLine
 10
-209.19268283953843
 20
75.661824787699175
 30
0.0
 11
-208.30569238941084
 21
75.661824787699175
 31
0.0
  0
LINE
  5
522
100
AcDbEntity
  8
0
  6
CONTINUOUS
 62
               7
100
AcDbLine
 10
-226.89268283953845
 20
76.161825092874977
 30
0.0
 11
-209.19268283953843
 21
76.161825092874977
 31
0.0
  0
LINE
  5
523
100
AcDbEntity
  8
0
  6
CONTINUOUS
 62
               4
100
AcDbLine
 10
-221.49268283953847
 20
97.561824787699265
 30
0.0
 11
-221.49268283953847
 21
98.161824787699175
 31
0.0
  0
LINE
  5
524
100
AcDbEntity
  8
0
  6
CONTINUOUS
 62
               4
100
AcDbLine
 10
-224.50977798619667
 20
98.16182478769916
 30
0.0
 11
-213.19268002301169
 21
98.161824787699231
 31
0.0
  0
ARC
  5
525
100
AcDbEntity
  8
0
  6
CONTINUOUS
 62
               4
100
AcDbCircle
 10
-222.70859483430144
 20
97.562912792936174
 30
0.0
 40
0.5989129830170392
100
AcDbArc
 50
359.89591452477293
 51
90.104085475226867
  0
ARC
  5
526
100
AcDbEntity
  8
0
  6
CONTINUOUS
 62
               4
100
AcDbCircle
 10
-224.50977798619664
 20
97.561919934357348
 30
0.0
 40
0.5999048608870732
100
AcDbArc
 50
123.56005066674096
 51
180.00908727754583
  0
LINE
  5
527
100
AcDbEntity
  8
0
  6
CONTINUOUS
 62
               4
100
AcDbLine
 10
-225.19268283953846
 20
97.561824787699265
 30
0.0
 11
-221.49268283953847
 21
97.561824787699265
 31
0.0
  0
LINE
  5
528
100
AcDbEntity
  8
0
  6
CONTINUOUS
 62
               4
100
AcDbLine
 10
-213.19268002301169
 20
98.161824787699231
 30
0.0
 11
-213.19268002301169
 21
96.56182478769928
 31
0.0
  0
LINE
  5
529
100
AcDbEntity
  8
0
  6
CONTINUOUS
 62
               4
100
AcDbLine
 10
-225.19268283953846
 20
96.561824787699251
 30
0.0
 11
-213.19268002301169
 21
96.56182478769928
 31
0.0
  0
LINE
  5
52A
100
AcDbEntity
  8
0
  6
CONTINUOUS
 62
               4
100
AcDbLine
 10
-211.69268283953846
 20
98.061824787699152
 30
0.0
 11
-213.19268283953846
 21
98.061824787699152
 31
0.0
  0
ARC
  5
52B
100
AcDbEntity
  8
0
  6
CONTINUOUS
 62
               4
100
AcDbCircle
 10
-211.69268283953846
 20
97.561824787699152
 30
0.0
 40
0.5
100
AcDbArc
 50
0.0
 51
89.999999999999815
  0
ARC
  5
52C
100
AcDbEntity
  8
0
  6
CONTINUOUS
 62
               4
100
AcDbCircle
 10
-224.69268283953846
 20
97.56182478769918
 30
0.0
 40
0.5
100
AcDbArc
 50
114.73039869685056
 51
179.99999999999963
  0
ARC
  5
52D
100
AcDbEntity
  8
0
  6
CONTINUOUS
 62
               4
100
AcDbCircle
 10
-224.50977798619664
 20
97.561919934357348
 30
0.0
 40
0.5999048608870732
100
AcDbArc
 50
89.99091272245343
 51
123.56005066674096
  0
LINE
  5
52E
100
AcDbEntity
  8
0
  6
CONTINUOUS
 62
               4
100
AcDbLine
 10
-225.19268283953846
 20
97.561824787699152
 30
0.0
 11
-225.19268283953846
 21
76.161825092874977
 31
0.0
  0
LINE
  5
52F
100
AcDbEntity
  8
0
  6
CONTINUOUS
 62
               4
100
AcDbLine
 10
-211.19268283953846
 20
76.161825090668259
 30
0.0
 11
-211.19268283953849
 21
97.561824782631447
 31
0.0
  0
LINE
  5
530
100
AcDbEntity
  8
0
  6
CONTINUOUS
 62
               7
100
AcDbLine
 10
-227.19268283953843
 20
62.061825092874969
 30
0.0
 11
-227.09268283953844
 21
62.161825092874963
 31
0.0
  0
LINE
  5
531
100
AcDbEntity
  8
0
  6
CONTINUOUS
 62
               7
100
AcDbLine
 10
-226.89268283953845
 20
76.161825092874977
 30
0.0
 11
-227.19268283953846
 21
75.861825092874966
 31
0.0
  0
LINE
  5
532
100
AcDbEntity
  8
0
  6
CONTINUOUS
 62
               7
100
AcDbLine
 10
-227.09268283953844
 20
62.161825092875048
 30
0.0
 11
-209.19268283953846
 21
62.161825092875048
 31
0.0
  0
ARC
  5
533
100
AcDbEntity
  8
0
  6
CONTINUOUS
 62
               4
100
AcDbCircle
 10
-210.89268283953851
 20
95.965865179965846
 30
0.0
 40
0.3
100
AcDbArc
 50
89.999999999999815
 51
179.99999999999963
  0
LINE
  5
534
100
AcDbEntity
  8
0
  6
CONTINUOUS
 62
               4
100
AcDbLine
 10
-209.89874344633847
 20
95.261824776499154
 30
0.0
 11
-209.89874344633847
 21
95.162834877565828
 31
0.0
  0
LINE
  5
535
100
AcDbEntity
  8
0
  6
CENTER
 62
               2
100
AcDbLine
 10
-230.39268283489957
 20
34.36182509388631
 30
0.0
 11
-242.39268283489957
 21
34.36182509388631
 31
0.0
  0
CIRCLE
  5
536
100
AcDbEntity
  8
0
  6
CONTINUOUS
 62
               2
100
AcDbCircle
 10
-236.39268283489957
 20
34.36182509388631
 30
0.0
 40
4.8639993667602539
  0
CIRCLE
  5
537
100
AcDbEntity
  8
0
  6
CONTINUOUS
 62
               7
100
AcDbCircle
 10
-236.39268283489957
 20
34.36182509388631
 30
0.0
 40
4.2779998779296875
  0
LINE
  5
538
100
AcDbEntity
  8
0
  6
CONTINUOUS
 62
               7
100
AcDbLine
 10
-227.89268283953845
 20
23.661825092875063
 30
0.0
 11
-227.19268283953846
 21
23.661825092875063
 31
0.0
  0
LINE
  5
539
100
AcDbEntity
  8
0
  6
CONTINUOUS
 62
               7
100
AcDbLine
 10
-244.89268283489957
 20
19.161825092875034
 30
0.0
 11
-227.89268283953848
 21
19.161825092875034
 31
0.0
  0
LINE
  5
53A
100
AcDbEntity
  8
0
  6
CONTINUOUS
 62
               7
100
AcDbLine
 10
-209.19268283953846
 20
23.161825092875034
 30
0.0
 11
-227.19268283953846
 21
23.161825092875063
 31
0.0
  0
LINE
  5
53B
100
AcDbEntity
  8
0
  6
CONTINUOUS
 62
               7
100
AcDbLine
 10
-244.89268283953845
 20
19.161825092875034
 30
0.0
 11
-244.89268283953845
 21
66.161825094897594
 31
0.0
  0
LINE
  5
53C
100
AcDbEntity
  8
0
  6
CONTINUOUS
 62
               7
100
AcDbLine
 10
-227.89268283953848
 20
19.161825092402268
 30
0.0
 11
-227.89268283953845
 21
66.161825094897594
 31
0.0
  0
CIRCLE
  5
53D
100
AcDbEntity
  8
0
  6
CONTINUOUS
 62
               7
100
AcDbCircle
 10
-236.39268283489957
 20
50.861825093886296
 30
0.0
 40
4.2779998779296875
  0
CIRCLE
  5
53E
100
AcDbEntity
  8
0
  6
CONTINUOUS
 62
               2
100
AcDbCircle
 10
-236.39268283489957
 20
50.861825093886296
 30
0.0
 40
4.8639993667602539
  0
LINE
  5
53F
100
AcDbEntity
  8
0
  6
CENTER
 62
               2
100
AcDbLine
 10
-236.39268283489957
 20
28.36182509388631
 30
0.0
 11
-236.39268283489957
 21
40.36182509388631
 31
0.0
  0
LINE
  5
540
100
AcDbEntity
  8
0
  6
CONTINUOUS
 62
               4
100
AcDbLine
 10
-187.69672325700512
 20
92.016370232899177
 30
0.0
 11
-190.28460204340513
 21
92.016370232899177
 31
0.0
  0
LINE
  5
541
100
AcDbEntity
  8
0
  6
CONTINUOUS
 62
               4
100
AcDbLine
 10
-187.69672325700512
 20
93.317380333165815
 30
0.0
 11
-191.0340969924718
 21
93.317380333165815
 31
0.0
  0
ENDSEC
  0
SECTION
  2
OBJECTS
  0
DICTIONARY
  5
19
100
AcDbDictionary
  3
ACAD_GROUP
350
1A
  3
ACAD_MLINESTYLE
350
1B
  0
DICTIONARY
  5
1A
102
{ACAD_REACTORS
330
19
102
}
100
AcDbDictionary
  0
DICTIONARY
  5
1B
102
{ACAD_REACTORS
330
19
102
}
100
AcDbDictionary
  3
STANDARD
350
1C
  0
MLINESTYLE
  5
1C
102
{ACAD_REACTORS
330
1B
102
}
100
AcDbMlineStyle
  2
Standard
 70
               0
  3

 62
               0
 51
90.0
 52
90.0
 71
               2
 49
0.5
 62
             256
  6
ByLayer
 49
-0.5
 62
             256
  6
ByLayer
  0
ENDSEC
  0
EOF
