  0
SECTION
  2
HEADER
  0
ENDSEC
  0
SECTION
  2
TABLES
  0
TABLE
  2
LTYPE
 70
     4
  0
LTYPE
  2
CONTINUOUS
 70
    64
  3
Solid line
 72
    65
 73
     0
 40
0.000000
  0
LTYPE
  2
DASHED
 70
    64
  3
__ __ __ __ __ __ __ __ __ __ __ __ __ __ __
 72
    65
 73
     2
 40
3.500000
 49
2.000000
 49
-1.500000
  0
LTYPE
  2
CENTER
 70
    64
  3
____ _ ____ _ ____ _ ____ _ ____ _ ____ _ ____
 72
    65
 73
     4
 40
17.500000
 49
13.000000
 49
-1.500000
 49
1.500000
 49
-1.500000
  0
LTYPE
  2
PHANTOM
 70
    64
  3
_____ _ _ _____ _ _ _____ _ _ _____ _ _ ____  
 72
    65
 73
     6
 40
15.500000
 49
8.000000
 49
-1.500000
 49
1.500000
 49
-1.500000
 49
1.500000
 49
-1.500000
  0
LTYPE
  2
DASHED1
 70
    64
  3
__ __ __ __ __ __ __ __ __ __ __ __ __ __ __
 72
    65
 73
     2
 40
1.500000
 49
1.000000
 49
-0.500000
  0
LTYPE
  2
DASHED2
 70
    64
  3
__ __ __ __ __ __ __ __ __ __ __ __ __ __ __
 72
    65
 73
     2
 40
3.500000
 49
2.500000
 49
-1.000000
  0
LTYPE
  2
DASHED3
 70
    64
  3
__ __ __ __ __ __ __ __ __ __ __ __ __ __ __
 72
    65
 73
     2
 40
6.000000
 49
4.000000
 49
-2.000000
  0
LTYPE
  2
DASHED4
 70
    64
  3
__ __ __ __ __ __ __ __ __ __ __ __ __ __ __
 72
    65
 73
     2
 40
12.000000
 49
10.000000
 49
-2.000000
  0
LTYPE
  2
DASHED5
 70
    64
  3
__ __ __ __ __ __ __ __ __ __ __ __ __ __ __
 72
    65
 73
     2
 40
17.000000
 49
15.000000
 49
-2.000000
  0
LTYPE
  2
DASHED6
 70
    64
  3
__ __ __ __ __ __ __ __ __ __ __ __ __ __ __
 72
    65
 73
     2
 40
29.000000
 49
27.000000
 49
-2.000000
  0
LTYPE
  2
PHANTOM1
 70
    64
  3
_____ _ _ _____ _ _ _____ _ _ _____ _ _ ____  
 72
    65
 73
     6
 40
31.000000
 49
25.000000
 49
-1.500000
 49
1.000000
 49
-1.000000
 49
1.000000
 49
-1.500000
  0
LTYPE
  2
PHANTOM2
 70
    64
  3
_____ _ _ _____ _ _ _____ _ _ _____ _ _ ____  
 72
    65
 73
     6
 40
36.000000
 49
27.000000
 49
-1.500000
 49
2.500000
 49
-1.000000
 49
2.500000
 49
-1.500000
  0
LTYPE
  2
PHANTOM3
 70
    64
  3
_____ _ _ _____ _ _ _____ _ _ _____ _ _ ____  
 72
    65
 73
     6
 40
78.000000
 49
64.000000
 49
-2.000000
 49
4.000000
 49
-2.000000
 49
4.000000
 49
-2.000000
  0
LTYPE
  2
CENTER1
 70
    64
  3
____ _ ____ _ ____ _ ____ _ ____ _ ____ _ ____
 72
    65
 73
     4
 40
19.000000
 49
14.000000
 49
-1.000000
 49
3.000000
 49
-1.000000
  0
LTYPE
  2
CENTER2
 70
    64
  3
____ _ ____ _ ____ _ ____ _ ____ _ ____ _ ____
 72
    65
 73
     4
 40
28.500000
 49
25.000000
 49
-1.000000
 49
1.500000
 49
-1.000000
  0
LTYPE
  2
CENTER3
 70
    64
  3
____ _ ____ _ ____ _ ____ _ ____ _ ____ _ ____
 72
    65
 73
     4
 40
31.500000
 49
27.000000
 49
-1.000000
 49
2.500000
 49
-1.000000
  0
LTYPE
  2
CENTER4
 70
    64
  3
____ _ ____ _ ____ _ ____ _ ____ _ ____ _ ____
 72
    65
 73
     4
 40
50.000000
 49
45.000000
 49
-1.000000
 49
3.000000
 49
-1.000000
  0
LTYPE
  2
CENTER5
 70
    64
  3
____ _ ____ _ ____ _ ____ _ ____ _ ____ _ ____
 72
    65
 73
     4
 40
100.000000
 49
92.000000
 49
-2.000000
 49
4.000000
 49
-2.000000
  0
LTYPE
  2
SBK1
 70
    64
  3
______ _ _ _ ______ _ _ _ ______ _ _ _ _____  
 72
    65
 73
     8
 40
60.500000
 49
45.000000
 49
-2.000000
 49
2.500000
 49
-2.000000
 49
2.500000
 49
-2.000000
 49
2.500000
 49
-2.000000
  0
LTYPE
  2
SBK2
 70
    64
  3
______ _ _ _ ______ _ _ _ ______ _ _ _ _____  
 72
    65
 73
     8
 40
84.000000
 49
64.000000
 49
-2.000000
 49
4.000000
 49
-2.000000
 49
4.000000
 49
-2.000000
 49
4.000000
 49
-2.000000
  0
LTYPE
  2
STCH
 70
    64
  3
__ __ __ __ __ __ __ __ __ __ __ __ __ __ __
 72
    65
 73
     2
 40
3.000000
 49
1.000000
 49
-2.000000
  0
LTYPE
  2
MTCH
 70
    64
  3
_____ _ _ _____ _ _ _____ _ _ _____ _ _ ____  
 72
    65
 73
     6
 40
80.000000
 49
66.000000
 49
-2.000000
 49
4.000000
 49
-2.000000
 49
4.000000
 49
-2.000000
  0
ENDTAB
  0
TABLE
  2
LAYER
 70
     1
  0
LAYER
  2
0
 70
     0
 62
     7
  6
CONTINUOUS
  0
ENDTAB
  0
TABLE
  2
STYLE
 70
     1
  0
STYLE
  2
STANDARD
 70
     0
 40
0.000000
 41
1.000000
 50
0.000000
 71
     0
 42
0.200000
  3
txt
  4
BIGFONT
  0
ENDTAB
  0
TABLE
  2
VIEW
 70
     0
  0
ENDTAB
  0
ENDSEC
  0
SECTION
  2
BLOCKS
  0
ENDSEC
  0
SECTION
  2
ENTITIES
  0
LINE
  8
0
 10
-181.250000
 20
195.500000
 11
-181.250000
 21
180.500000
  0
LINE
  8
0
 10
182.099976
 20
195.500000
 11
182.099976
 21
180.500000
  0
LINE
  8
0
 10
-281.250000
 20
180.500000
 11
-181.250000
 21
180.500000
  0
LINE
  8
0
 10
182.099976
 20
-175.000000
 11
182.099976
 21
-195.000000
  0
LINE
  8
0
 10
182.099976
 20
180.500000
 11
282.099976
 21
180.500000
  0
LINE
  8
0
 10
182.099976
 20
-175.000000
 11
282.099976
 21
-175.000000
  0
LINE
  8
0
 10
-281.250000
 20
-64.833344
 11
282.099976
 21
-64.833344
  0
LINE
  8
0
 10
-281.250000
 20
-185.000000
 11
182.099976
 21
-185.000000
  0
LINE
  8
0
 10
-297.000000
 20
210.000000
 11
297.000000
 21
210.000000
  0
LINE
  8
0
 10
-297.000000
 20
-210.000000
 11
297.000000
 21
-210.000000
  0
LINE
  8
0
 10
297.000000
 20
210.000000
 11
297.000000
 21
-210.000000
  0
LINE
  8
0
 10
-297.000000
 20
210.000000
 11
-297.000000
 21
-210.000000
  0
LINE
  8
0
 10
-281.250000
 20
195.500000
 11
282.099976
 21
195.500000
  0
LINE
  8
0
 10
-281.250000
 20
195.500000
 11
-281.250000
 21
-195.000000
  0
LINE
  8
0
 10
282.099976
 20
195.500000
 11
282.099976
 21
-195.000000
  0
LINE
  8
0
 10
-281.250000
 20
-195.000000
 11
282.099976
 21
-195.000000
  0
LINE
  8
0
 10
-281.250000
 20
-54.833344
 11
282.099976
 21
-54.833344
  0
LINE
  8
0
 10
-281.250000
 20
75.333328
 11
282.099976
 21
75.333328
  0
LINE
  8
0
 10
-281.250000
 20
65.333328
 11
282.099976
 21
65.333328
  0
LINE
  8
0
 10
0.424988
 20
-195.000000
 11
0.424988
 21
195.500000
  0
TEXT
  8
0
 10
188.021667
 20
183.779999
 40
5.800000
  1
DATE: MAY ,1992
 50
0.000000
 41
1.052632
 51
0.000000
  7
STANDARD
  0
TEXT
  8
0
 10
178.000870
 20
-190.300003
 40
7.000000
  1
ＫＯＧＡＮＥＩ，ＣＯＲＰ．
 50
0.000000
 41
0.902367
 51
15.000000
  7
STANDARD
  0
TEXT
  8
0
 10
5.674988
 20
-192.000000
 40
5.000000
  1
MODEL:FVU12-12
 50
0.000000
 41
1.052632
 51
0.000000
  7
STANDARD
  0
TEXT
  8
0
 10
-272.428314
 20
183.779999
 40
5.800000
  1
HAND VALVE,FVU
 50
0.000000
 41
1.052632
 51
0.000000
  7
STANDARD
  0
TEXT
  8
0
 10
-276.000000
 20
-192.000000
 40
5.000000
  1
MODEL:FVU12-10
 50
0.000000
 41
1.052632
 51
0.000000
  7
STANDARD
  0
TEXT
  8
0
 10
5.674988
 20
68.333328
 40
5.000000
  1
MODEL:FVU8-6
 50
0.000000
 41
1.052632
 51
0.000000
  7
STANDARD
  0
TEXT
  8
0
 10
-276.000000
 20
68.333328
 40
5.000000
  1
MODEL:FVU6-6
 50
0.000000
 41
1.052632
 51
0.000000
  7
STANDARD
  0
TEXT
  8
0
 10
5.674988
 20
-61.833344
 40
5.000000
  1
MODEL:FVU10-10
 50
0.000000
 41
1.052632
 51
0.000000
  7
STANDARD
  0
TEXT
  8
0
 10
-276.000000
 20
-61.833344
 40
5.000000
  1
MODEL:FVU8-8
 50
0.000000
 41
1.052632
 51
0.000000
  7
STANDARD
  0
POINT
  8
0
 10
-153.660950
 20
104.900093
  0
POINT
  8
0
 10
-101.860947
 20
104.900093
  0
LINE
  8
0
  6
CENTER
 10
-127.760948
 20
135.761047
 11
-127.760948
 21
92.999161
  0
LINE
  8
0
 10
-122.260948
 20
97.400093
 11
-122.260948
 21
94.400093
  0
LINE
  8
0
 10
-113.760948
 20
112.400093
 11
-113.760948
 21
97.400093
  0
LINE
  8
0
 10
-115.296844
 20
112.400093
 11
-113.760948
 21
112.400093
  0
LINE
  8
0
 10
-117.760948
 20
119.900093
 11
-117.760948
 21
116.400093
  0
LINE
  8
0
  6
CENTER
 10
-121.451950
 20
112.900093
 11
-114.376732
 21
112.900093
  0
LINE
  8
0
  6
CENTER
 10
-118.760948
 20
116.008003
 11
-118.760948
 21
109.623055
  0
LINE
  8
0
 10
-116.260948
 20
108.001122
 11
-116.260948
 21
99.900093
  0
LINE
  8
0
 10
-115.260948
 20
110.071663
 11
-115.260948
 21
98.900093
  0
LINE
  8
0
 10
-120.760948
 20
119.900093
 11
-120.760948
 21
116.400093
  0
LINE
  8
0
 10
-122.260948
 20
119.900093
 11
-122.260948
 21
116.400093
  0
LINE
  8
0
 10
-113.760948
 20
97.400093
 11
-141.760956
 21
97.400093
  0
LINE
  8
0
 10
-122.260948
 20
94.400093
 11
-133.260956
 21
94.400093
  0
LINE
  8
0
 10
-133.260956
 20
97.400093
 11
-133.260956
 21
94.400093
  0
LINE
  8
0
 10
-141.760956
 20
112.400093
 11
-141.760956
 21
97.400093
  0
LINE
  8
0
 10
-117.760948
 20
119.900093
 11
-137.760956
 21
119.900093
  0
LINE
  8
0
 10
-117.760948
 20
116.400093
 11
-137.760956
 21
116.400093
  0
LINE
  8
0
 10
-140.225052
 20
112.400093
 11
-141.760956
 21
112.400093
  0
LINE
  8
0
 10
-137.760956
 20
119.900093
 11
-137.760956
 21
116.400093
  0
LINE
  8
0
  6
CENTER
 10
-134.069946
 20
112.900093
 11
-141.145172
 21
112.900093
  0
LINE
  8
0
  6
CENTER
 10
-136.760956
 20
116.008003
 11
-136.760956
 21
109.623055
  0
LINE
  8
0
 10
-123.233086
 20
113.400093
 11
-132.288818
 21
113.400093
  0
LINE
  8
0
 10
-124.238174
 20
112.400093
 11
-131.283722
 21
112.400093
  0
LINE
  8
0
 10
-116.260948
 20
99.900093
 11
-139.260956
 21
99.900093
  0
LINE
  8
0
 10
-115.260948
 20
98.900093
 11
-140.260956
 21
98.900093
  0
LINE
  8
0
 10
-139.260956
 20
108.001122
 11
-139.260956
 21
99.900093
  0
LINE
  8
0
 10
-140.260956
 20
110.071663
 11
-140.260956
 21
98.900093
  0
LINE
  8
0
 10
-134.760956
 20
119.900093
 11
-134.760956
 21
116.400093
  0
LINE
  8
0
 10
-133.260956
 20
119.900093
 11
-133.260956
 21
116.400093
  0
LINE
  8
0
 10
-119.510948
 20
133.900085
 11
-119.510948
 21
119.900093
  0
LINE
  8
0
 10
-119.510948
 20
124.900093
 11
-136.010956
 21
124.900093
  0
LINE
  8
0
 10
-120.510948
 20
134.900085
 11
-135.010956
 21
134.900085
  0
LINE
  8
0
 10
-136.010956
 20
133.900085
 11
-136.010956
 21
119.900093
  0
LINE
  8
0
  6
CENTER
 10
-98.623596
 20
104.900093
 11
-154.531448
 21
104.900093
  0
LINE
  8
0
 10
-106.860947
 20
111.350090
 11
-106.860947
 21
98.450096
  0
LINE
  8
0
 10
-148.660950
 20
111.350090
 11
-148.660950
 21
98.450096
  0
LINE
  8
0
 10
-101.860947
 20
110.800087
 11
-101.860947
 21
99.000092
  0
LINE
  8
0
 10
-103.660950
 20
110.800087
 11
-103.660950
 21
99.000092
  0
LINE
  8
0
 10
-104.860947
 20
110.650093
 11
-104.860947
 21
99.150093
  0
LINE
  8
0
 10
-106.860947
 20
110.650093
 11
-104.860947
 21
110.650093
  0
LINE
  8
0
 10
-106.860947
 20
99.150093
 11
-104.860947
 21
99.150093
  0
LINE
  8
0
 10
-103.660950
 20
110.800087
 11
-101.860947
 21
110.800087
  0
LINE
  8
0
 10
-103.660950
 20
99.000092
 11
-101.860947
 21
99.000092
  0
LINE
  8
0
 10
-104.860947
 20
100.850090
 11
-103.660950
 21
100.850090
  0
LINE
  8
0
 10
-104.860947
 20
108.950096
 11
-103.660950
 21
108.950096
  0
LINE
  8
0
 10
-150.660950
 20
108.950096
 11
-151.860947
 21
108.950096
  0
LINE
  8
0
 10
-153.660950
 20
110.800087
 11
-153.660950
 21
99.000092
  0
LINE
  8
0
 10
-151.860947
 20
110.800087
 11
-151.860947
 21
99.000092
  0
LINE
  8
0
 10
-150.660950
 20
110.650093
 11
-150.660950
 21
99.150093
  0
LINE
  8
0
 10
-148.660950
 20
110.650093
 11
-150.660950
 21
110.650093
  0
LINE
  8
0
 10
-148.660950
 20
99.150093
 11
-150.660950
 21
99.150093
  0
LINE
  8
0
 10
-151.860947
 20
110.800087
 11
-153.660950
 21
110.800087
  0
LINE
  8
0
 10
-151.860947
 20
99.000092
 11
-153.660950
 21
99.000092
  0
LINE
  8
0
 10
-150.660950
 20
100.850090
 11
-151.860947
 21
100.850090
  0
LINE
  8
0
 10
-141.760956
 20
98.450096
 11
-148.660950
 21
98.450096
  0
LINE
  8
0
 10
-141.760956
 20
111.350090
 11
-148.660950
 21
111.350090
  0
LINE
  8
0
 10
-106.860947
 20
98.450096
 11
-113.760948
 21
98.450096
  0
LINE
  8
0
 10
-106.860947
 20
111.350090
 11
-113.760948
 21
111.350090
  0
ARC
  8
0
 10
-118.760948
 20
112.900093
 40
3.500002
 50
351.786804
 51
90.000000
  0
CIRCLE
  8
0
 10
-118.760948
 20
112.900093
 40
2.100000
  0
ARC
  8
0
 10
-118.760948
 20
112.900093
 40
4.500001
 50
173.620636
 51
321.057526
  0
ARC
  8
0
 10
-118.760948
 20
112.900093
 40
5.500000
 50
185.215912
 51
297.035706
  0
ARC
  8
0
 10
-136.760956
 20
112.900093
 40
3.500000
 50
90.000000
 51
188.213226
  0
CIRCLE
  8
0
 10
-136.760956
 20
112.900093
 40
2.100000
  0
ARC
  8
0
 10
-136.760956
 20
112.900093
 40
4.499997
 50
218.942398
 51
6.379272
  0
ARC
  8
0
 10
-136.760956
 20
112.900093
 40
5.500000
 50
242.964310
 51
354.784088
  0
ARC
  8
0
 10
-135.010956
 20
133.900085
 40
1.000000
 50
90.000000
 51
180.000000
  0
ARC
  8
0
 10
-120.510948
 20
133.900085
 40
1.000000
 50
0.000000
 51
90.000000
  0
POINT
  8
0
 10
-216.150345
 20
104.900093
  0
POINT
  8
0
 10
-207.400345
 20
104.900093
  0
LINE
  8
0
  6
CENTER
 10
-216.150345
 20
135.750580
 11
-216.150345
 21
92.607567
  0
LINE
  8
0
  6
CENTER
 10
-225.560379
 20
104.900093
 11
-206.488602
 21
104.900093
  0
LINE
  8
0
 10
-224.900345
 20
97.400093
 11
-207.400345
 21
97.400093
  0
LINE
  8
0
 10
-210.650345
 20
97.400093
 11
-210.650345
 21
94.400093
  0
LINE
  8
0
 10
-221.650345
 20
97.400093
 11
-221.650345
 21
94.400093
  0
LINE
  8
0
 10
-221.650345
 20
94.400093
 11
-210.650345
 21
94.400093
  0
LINE
  8
0
 10
-211.150345
 20
119.900093
 11
-211.150345
 21
116.400093
  0
LINE
  8
0
 10
-221.150345
 20
119.900093
 11
-221.150345
 21
116.400093
  0
LINE
  8
0
 10
-207.400345
 20
112.400093
 11
-224.900345
 21
112.400093
  0
LINE
  8
0
 10
-207.400345
 20
119.900093
 11
-224.900345
 21
119.900093
  0
LINE
  8
0
 10
-207.400345
 20
116.400093
 11
-224.900345
 21
116.400093
  0
LINE
  8
0
 10
-207.900345
 20
124.400093
 11
-207.900345
 21
119.900093
  0
LINE
  8
0
 10
-213.650345
 20
134.400085
 11
-213.650345
 21
125.900093
  0
LINE
  8
0
 10
-208.400345
 20
124.900093
 11
-223.900345
 21
124.900093
  0
LINE
  8
0
 10
-224.400345
 20
124.400093
 11
-224.400345
 21
119.900093
  0
LINE
  8
0
 10
-218.650345
 20
134.400085
 11
-218.650345
 21
125.900093
  0
LINE
  8
0
 10
-214.150345
 20
134.900085
 11
-218.150345
 21
134.900085
  0
LINE
  8
0
 10
-224.900345
 20
119.900093
 11
-224.900345
 21
97.400093
  0
LINE
  8
0
 10
-207.400345
 20
119.900093
 11
-207.400345
 21
97.400093
  0
ARC
  8
0
 10
-208.400345
 20
124.400093
 40
0.500000
 50
0.000000
 51
90.000000
  0
ARC
  8
0
 10
-214.150345
 20
134.400085
 40
0.500000
 50
0.000000
 51
90.000000
  0
ARC
  8
0
 10
-212.650345
 20
125.900093
 40
1.000000
 50
180.000000
 51
270.000000
  0
ARC
  8
0
 10
-223.900345
 20
124.400093
 40
0.500000
 50
90.000000
 51
180.000000
  0
ARC
  8
0
 10
-218.150345
 20
134.400085
 40
0.500000
 50
90.000000
 51
180.000000
  0
ARC
  8
0
 10
-219.650345
 20
125.900093
 40
1.000000
 50
270.000000
 51
0.000000
  0
CIRCLE
  8
0
 10
-216.150345
 20
104.900093
 40
5.900000
  0
CIRCLE
  8
0
 10
-216.150345
 20
104.900093
 40
3.100000
  0
CIRCLE
  8
0
 10
-216.150345
 20
104.900093
 40
6.450000
  0
POINT
  8
0
 10
-101.860962
 20
164.900101
  0
POINT
  8
0
 10
-153.660965
 20
164.900101
  0
LINE
  8
0
  6
CENTER
 10
-98.623619
 20
164.900101
 11
-154.531464
 21
164.900101
  0
LINE
  8
0
 10
-106.860962
 20
171.350098
 11
-106.860962
 21
158.450104
  0
LINE
  8
0
 10
-148.660965
 20
171.350098
 11
-148.660965
 21
158.450104
  0
LINE
  8
0
 10
-101.860962
 20
170.800095
 11
-101.860962
 21
159.000092
  0
LINE
  8
0
 10
-103.660965
 20
170.800095
 11
-103.660965
 21
159.000092
  0
LINE
  8
0
 10
-104.860962
 20
170.650101
 11
-104.860962
 21
159.150101
  0
LINE
  8
0
 10
-106.860962
 20
170.650101
 11
-104.860962
 21
170.650101
  0
LINE
  8
0
 10
-106.860962
 20
159.150101
 11
-104.860962
 21
159.150101
  0
LINE
  8
0
 10
-103.660965
 20
170.800095
 11
-101.860962
 21
170.800095
  0
LINE
  8
0
 10
-103.660965
 20
159.000092
 11
-101.860962
 21
159.000092
  0
LINE
  8
0
 10
-104.860962
 20
160.850098
 11
-103.660965
 21
160.850098
  0
LINE
  8
0
 10
-104.860962
 20
168.950104
 11
-103.660965
 21
168.950104
  0
LINE
  8
0
 10
-150.660965
 20
168.950104
 11
-151.860962
 21
168.950104
  0
LINE
  8
0
 10
-153.660965
 20
170.800095
 11
-153.660965
 21
159.000092
  0
LINE
  8
0
 10
-151.860962
 20
170.800095
 11
-151.860962
 21
159.000092
  0
LINE
  8
0
 10
-150.660965
 20
170.650101
 11
-150.660965
 21
159.150101
  0
LINE
  8
0
 10
-148.660965
 20
170.650101
 11
-150.660965
 21
170.650101
  0
LINE
  8
0
 10
-148.660965
 20
159.150101
 11
-150.660965
 21
159.150101
  0
LINE
  8
0
 10
-151.860962
 20
170.800095
 11
-153.660965
 21
170.800095
  0
LINE
  8
0
 10
-151.860962
 20
159.000092
 11
-153.660965
 21
159.000092
  0
LINE
  8
0
 10
-150.660965
 20
160.850098
 11
-151.860962
 21
160.850098
  0
LINE
  8
0
  6
CENTER
 10
-127.760963
 20
174.192261
 11
-127.760963
 21
155.494797
  0
LINE
  8
0
 10
-141.760971
 20
156.400101
 11
-113.760963
 21
156.400101
  0
LINE
  8
0
 10
-141.760971
 20
173.400101
 11
-113.760963
 21
173.400101
  0
LINE
  8
0
 10
-141.760971
 20
173.400101
 11
-141.760971
 21
156.400101
  0
LINE
  8
0
 10
-113.760963
 20
173.400101
 11
-113.760963
 21
156.400101
  0
LINE
  8
0
 10
-136.421219
 20
159.900101
 11
-134.634827
 21
159.900101
  0
LINE
  8
0
 10
-136.421219
 20
169.900101
 11
-134.634827
 21
169.900101
  0
LINE
  8
0
 10
-120.887100
 20
169.900101
 11
-119.100708
 21
169.900101
  0
LINE
  8
0
 10
-120.887100
 20
159.900101
 11
-119.100708
 21
159.900101
  0
LINE
  8
0
 10
-135.248459
 20
162.400101
 11
-120.273476
 21
162.400101
  0
LINE
  8
0
 10
-135.248459
 20
167.400101
 11
-120.273476
 21
167.400101
  0
LINE
  8
0
 10
-133.760971
 20
165.750107
 11
-121.760963
 21
165.750107
  0
LINE
  8
0
 10
-133.760971
 20
164.050095
 11
-121.760963
 21
164.050095
  0
LINE
  8
0
 10
-121.760963
 20
165.750107
 11
-121.760963
 21
164.050095
  0
LINE
  8
0
 10
-133.760971
 20
165.750107
 11
-133.760971
 21
164.050095
  0
LINE
  8
0
 10
-141.760971
 20
158.450104
 11
-148.660965
 21
158.450104
  0
LINE
  8
0
 10
-141.760971
 20
171.350098
 11
-148.660965
 21
171.350098
  0
LINE
  8
0
 10
-106.860962
 20
158.450104
 11
-113.760963
 21
158.450104
  0
LINE
  8
0
 10
-106.860962
 20
171.350098
 11
-113.760963
 21
171.350098
  0
ARC
  8
0
 10
-127.760963
 20
164.900101
 40
10.000000
 50
0.000000
 51
29.999996
  0
CIRCLE
  8
0
 10
-127.760963
 20
164.900101
 40
8.500000
  0
ARC
  8
0
 10
-127.760963
 20
164.900101
 40
10.000001
 50
150.000000
 51
210.000000
  0
ARC
  8
0
 10
-127.760963
 20
164.900101
 40
10.000001
 50
330.000000
 51
0.000000
  0
ARC
  8
0
 10
-127.760963
 20
164.900101
 40
8.249996
 50
345.044769
 51
0.000000
  0
ARC
  8
0
 10
-120.273476
 20
162.900101
 40
0.500000
 50
270.000000
 51
345.045166
  0
ARC
  8
0
 10
-127.760963
 20
164.900101
 40
8.250000
 50
0.000000
 51
14.955227
  0
ARC
  8
0
 10
-120.273476
 20
166.900101
 40
0.499998
 50
14.954844
 51
90.000000
  0
ARC
  8
0
 10
-127.760963
 20
164.900101
 40
8.250004
 50
165.044785
 51
194.955215
  0
ARC
  8
0
 10
-135.248459
 20
166.900101
 40
0.500000
 50
90.000000
 51
165.045151
  0
ARC
  8
0
 10
-135.248459
 20
162.900101
 40
0.499998
 50
194.954849
 51
270.000000
  0
POINT
  8
0
 10
161.139053
 20
94.900101
  0
POINT
  8
0
 10
107.339050
 20
94.900101
  0
LINE
  8
0
  6
CENTER
 10
135.239044
 20
125.761040
 11
135.239044
 21
82.999168
  0
LINE
  8
0
 10
140.739044
 20
87.400101
 11
140.739044
 21
84.400101
  0
LINE
  8
0
 10
149.239044
 20
102.400101
 11
149.239044
 21
87.400101
  0
LINE
  8
0
 10
147.703156
 20
102.400101
 11
149.239044
 21
102.400101
  0
LINE
  8
0
 10
145.239044
 20
109.900101
 11
145.239044
 21
106.400101
  0
LINE
  8
0
  6
CENTER
 10
141.548050
 20
102.900101
 11
148.623260
 21
102.900101
  0
LINE
  8
0
  6
CENTER
 10
144.239044
 20
106.008011
 11
144.239044
 21
99.623062
  0
LINE
  8
0
 10
146.739044
 20
98.001122
 11
146.739044
 21
89.900101
  0
LINE
  8
0
 10
147.739044
 20
100.071671
 11
147.739044
 21
88.900101
  0
LINE
  8
0
 10
142.239044
 20
109.900101
 11
142.239044
 21
106.400101
  0
LINE
  8
0
 10
140.739044
 20
109.900101
 11
140.739044
 21
106.400101
  0
LINE
  8
0
 10
149.239044
 20
87.400101
 11
112.239052
 21
87.400101
  0
LINE
  8
0
 10
140.739044
 20
84.400101
 11
129.739044
 21
84.400101
  0
LINE
  8
0
 10
129.739044
 20
87.400101
 11
129.739044
 21
84.400101
  0
LINE
  8
0
 10
121.239052
 20
102.400101
 11
121.239052
 21
87.400101
  0
LINE
  8
0
 10
145.239044
 20
109.900101
 11
125.239052
 21
109.900101
  0
LINE
  8
0
 10
145.239044
 20
106.400101
 11
125.239052
 21
106.400101
  0
LINE
  8
0
 10
122.774948
 20
102.400101
 11
121.239052
 21
102.400101
  0
LINE
  8
0
 10
125.239052
 20
109.900101
 11
125.239052
 21
106.400101
  0
LINE
  8
0
  6
CENTER
 10
128.930054
 20
102.900101
 11
121.854836
 21
102.900101
  0
LINE
  8
0
  6
CENTER
 10
126.239052
 20
106.008011
 11
126.239052
 21
99.623062
  0
LINE
  8
0
 10
139.766907
 20
103.400101
 11
130.711182
 21
103.400101
  0
LINE
  8
0
 10
138.761826
 20
102.400101
 11
131.716278
 21
102.400101
  0
LINE
  8
0
 10
146.739044
 20
89.900101
 11
123.739052
 21
89.900101
  0
LINE
  8
0
 10
147.739044
 20
88.900101
 11
122.739052
 21
88.900101
  0
LINE
  8
0
 10
123.739052
 20
98.001122
 11
123.739052
 21
89.900101
  0
LINE
  8
0
 10
122.739052
 20
100.071671
 11
122.739052
 21
88.900101
  0
LINE
  8
0
  6
CENTER
 10
165.649506
 20
94.900101
 11
102.266464
 21
94.900101
  0
LINE
  8
0
 10
128.239044
 20
109.900101
 11
128.239044
 21
106.400101
  0
LINE
  8
0
 10
129.739044
 20
109.900101
 11
129.739044
 21
106.400101
  0
LINE
  8
0
 10
143.489044
 20
123.900101
 11
143.489044
 21
109.900101
  0
LINE
  8
0
 10
143.489044
 20
114.900101
 11
126.989052
 21
114.900101
  0
LINE
  8
0
 10
142.489044
 20
124.900101
 11
127.989052
 21
124.900101
  0
LINE
  8
0
 10
126.989052
 20
123.900101
 11
126.989052
 21
109.900101
  0
LINE
  8
0
 10
149.239044
 20
88.650101
 11
156.139053
 21
88.650101
  0
LINE
  8
0
 10
149.239044
 20
101.150101
 11
156.139053
 21
101.150101
  0
LINE
  8
0
 10
156.139053
 20
101.150101
 11
156.139053
 21
88.650101
  0
LINE
  8
0
 10
112.239052
 20
102.400101
 11
112.239052
 21
87.400101
  0
LINE
  8
0
 10
121.239052
 20
102.400101
 11
112.239052
 21
102.400101
  0
LINE
  8
0
 10
161.139053
 20
100.800102
 11
161.139053
 21
89.000099
  0
LINE
  8
0
 10
107.339050
 20
101.800102
 11
107.339050
 21
88.000099
  0
LINE
  8
0
 10
158.139053
 20
100.650101
 11
158.139053
 21
89.150101
  0
LINE
  8
0
 10
110.339050
 20
101.900101
 11
110.339050
 21
87.900101
  0
LINE
  8
0
 10
159.339050
 20
100.800102
 11
159.339050
 21
89.000099
  0
LINE
  8
0
 10
156.139053
 20
100.650101
 11
158.139053
 21
100.650101
  0
LINE
  8
0
 10
156.139053
 20
89.150101
 11
158.139053
 21
89.150101
  0
LINE
  8
0
 10
159.339050
 20
89.000099
 11
161.139053
 21
89.000099
  0
LINE
  8
0
 10
159.339050
 20
100.800102
 11
161.139053
 21
100.800102
  0
LINE
  8
0
 10
158.139053
 20
90.850098
 11
159.339050
 21
90.850098
  0
LINE
  8
0
 10
158.139053
 20
98.950104
 11
159.339050
 21
98.950104
  0
LINE
  8
0
 10
109.339050
 20
101.800102
 11
109.339050
 21
88.000099
  0
LINE
  8
0
 10
112.239052
 20
87.900101
 11
110.339050
 21
87.900101
  0
LINE
  8
0
 10
112.239052
 20
101.900101
 11
110.339050
 21
101.900101
  0
LINE
  8
0
 10
109.339050
 20
88.000099
 11
107.339050
 21
88.000099
  0
LINE
  8
0
 10
109.339050
 20
101.800102
 11
107.339050
 21
101.800102
  0
LINE
  8
0
 10
110.339050
 20
90.000099
 11
109.339050
 21
90.000099
  0
LINE
  8
0
 10
110.339050
 20
99.800102
 11
109.339050
 21
99.800102
  0
ARC
  8
0
 10
144.239044
 20
102.900101
 40
3.500010
 50
351.786804
 51
90.000000
  0
CIRCLE
  8
0
 10
144.239044
 20
102.900101
 40
2.100000
  0
ARC
  8
0
 10
144.239044
 20
102.900101
 40
4.500001
 50
173.620636
 51
321.057526
  0
ARC
  8
0
 10
144.239044
 20
102.900101
 40
5.499993
 50
185.215912
 51
297.035706
  0
ARC
  8
0
 10
126.239052
 20
102.900101
 40
3.500000
 50
90.000000
 51
188.213211
  0
CIRCLE
  8
0
 10
126.239052
 20
102.900101
 40
2.100000
  0
ARC
  8
0
 10
126.239052
 20
102.900101
 40
4.499997
 50
218.942398
 51
6.379282
  0
ARC
  8
0
 10
126.239052
 20
102.900101
 40
5.500003
 50
242.964233
 51
354.784088
  0
ARC
  8
0
 10
127.989052
 20
123.900101
 40
1.000000
 50
90.000000
 51
180.000000
  0
ARC
  8
0
 10
142.489044
 20
123.900101
 40
1.000000
 50
0.000000
 51
90.000000
  0
POINT
  8
0
 10
227.033310
 20
94.900101
  0
POINT
  8
0
 10
218.283310
 20
94.900101
  0
LINE
  8
0
 10
220.283310
 20
124.900101
 11
216.283310
 21
124.900101
  0
LINE
  8
0
 10
215.783310
 20
124.400101
 11
215.783310
 21
115.900101
  0
LINE
  8
0
 10
210.033310
 20
114.400101
 11
210.033310
 21
109.900101
  0
LINE
  8
0
 10
226.033310
 20
114.900101
 11
210.533310
 21
114.900101
  0
LINE
  8
0
 10
220.783310
 20
124.400101
 11
220.783310
 21
115.900101
  0
LINE
  8
0
 10
226.533310
 20
114.400101
 11
226.533310
 21
109.900101
  0
LINE
  8
0
 10
227.033310
 20
106.400101
 11
209.533310
 21
106.400101
  0
LINE
  8
0
 10
227.033310
 20
109.900101
 11
209.533310
 21
109.900101
  0
LINE
  8
0
 10
209.533310
 20
109.900101
 11
209.533310
 21
87.400101
  0
LINE
  8
0
 10
227.033310
 20
109.900101
 11
227.033310
 21
87.400101
  0
LINE
  8
0
 10
227.033310
 20
102.400101
 11
209.533310
 21
102.400101
  0
LINE
  8
0
 10
213.283310
 20
109.900101
 11
213.283310
 21
106.400101
  0
LINE
  8
0
 10
223.283310
 20
109.900101
 11
223.283310
 21
106.400101
  0
LINE
  8
0
 10
212.783310
 20
84.400101
 11
223.783310
 21
84.400101
  0
LINE
  8
0
 10
212.783310
 20
87.400101
 11
212.783310
 21
84.400101
  0
LINE
  8
0
 10
223.783310
 20
87.400101
 11
223.783310
 21
84.400101
  0
LINE
  8
0
 10
209.533310
 20
87.400101
 11
227.033310
 21
87.400101
  0
LINE
  8
0
  6
CENTER
 10
204.686737
 20
94.900101
 11
232.180695
 21
94.900101
  0
LINE
  8
0
  6
CENTER
 10
218.283310
 20
125.750580
 11
218.283310
 21
82.607574
  0
ARC
  8
0
 10
226.033310
 20
114.400101
 40
0.500000
 50
0.000000
 51
90.000000
  0
ARC
  8
0
 10
220.283310
 20
124.400101
 40
0.500000
 50
0.000000
 51
90.000000
  0
ARC
  8
0
 10
221.783310
 20
115.900101
 40
1.000000
 50
180.000000
 51
270.000000
  0
ARC
  8
0
 10
210.533310
 20
114.400101
 40
0.500000
 50
90.000000
 51
180.000000
  0
ARC
  8
0
 10
216.283310
 20
124.400101
 40
0.500000
 50
90.000000
 51
180.000000
  0
ARC
  8
0
 10
214.783310
 20
115.900101
 40
1.000000
 50
270.000000
 51
0.000000
  0
CIRCLE
  8
0
 10
218.283310
 20
94.900101
 40
5.900000
  0
CIRCLE
  8
0
 10
218.283310
 20
94.900101
 40
3.100000
  0
CIRCLE
  8
0
 10
218.283310
 20
94.900101
 40
6.450000
  0
POINT
  8
0
 10
54.849670
 20
94.900093
  0
POINT
  8
0
 10
63.599670
 20
94.900093
  0
LINE
  8
0
  6
CENTER
 10
54.849670
 20
125.750572
 11
54.849670
 21
82.607567
  0
LINE
  8
0
  6
CENTER
 10
41.364990
 20
94.900093
 11
69.068832
 21
94.900093
  0
LINE
  8
0
 10
63.599670
 20
109.900093
 11
63.599670
 21
87.400093
  0
LINE
  8
0
 10
46.099670
 20
87.400093
 11
63.599670
 21
87.400093
  0
LINE
  8
0
 10
60.349670
 20
87.400093
 11
60.349670
 21
84.400093
  0
LINE
  8
0
 10
49.349670
 20
87.400093
 11
49.349670
 21
84.400093
  0
LINE
  8
0
 10
49.349670
 20
84.400093
 11
60.349670
 21
84.400093
  0
LINE
  8
0
 10
59.849670
 20
109.900093
 11
59.849670
 21
106.400093
  0
LINE
  8
0
 10
49.849670
 20
109.900093
 11
49.849670
 21
106.400093
  0
LINE
  8
0
 10
63.599670
 20
102.400093
 11
46.099670
 21
102.400093
  0
LINE
  8
0
 10
63.599670
 20
109.900093
 11
46.099670
 21
109.900093
  0
LINE
  8
0
 10
63.599670
 20
106.400093
 11
46.099670
 21
106.400093
  0
LINE
  8
0
 10
63.099670
 20
114.400093
 11
63.099670
 21
109.900093
  0
LINE
  8
0
 10
57.349670
 20
124.400093
 11
57.349670
 21
115.900093
  0
LINE
  8
0
 10
62.599670
 20
114.900093
 11
47.099670
 21
114.900093
  0
LINE
  8
0
 10
46.599670
 20
114.400093
 11
46.599670
 21
109.900093
  0
LINE
  8
0
 10
52.349670
 20
124.400093
 11
52.349670
 21
115.900093
  0
LINE
  8
0
 10
56.849670
 20
124.900093
 11
52.849670
 21
124.900093
  0
LINE
  8
0
 10
46.099670
 20
109.900093
 11
46.099670
 21
87.400093
  0
ARC
  8
0
 10
62.599670
 20
114.400093
 40
0.500000
 50
0.000000
 51
90.000000
  0
ARC
  8
0
 10
56.849670
 20
124.400093
 40
0.500000
 50
0.000000
 51
90.000000
  0
ARC
  8
0
 10
58.349670
 20
115.900093
 40
1.000000
 50
180.000000
 51
270.000000
  0
ARC
  8
0
 10
47.099670
 20
114.400093
 40
0.500000
 50
90.000000
 51
180.000000
  0
ARC
  8
0
 10
52.849670
 20
124.400093
 40
0.500000
 50
90.000000
 51
180.000000
  0
ARC
  8
0
 10
51.349670
 20
115.900093
 40
1.000000
 50
270.000000
 51
0.000000
  0
CIRCLE
  8
0
 10
54.849670
 20
94.900093
 40
7.500000
  0
CIRCLE
  8
0
 10
54.849670
 20
94.900093
 40
6.900000
  0
CIRCLE
  8
0
 10
54.849670
 20
94.900093
 40
4.100000
  0
POINT
  8
0
 10
107.339050
 20
154.900085
  0
POINT
  8
0
 10
161.139053
 20
154.900085
  0
LINE
  8
0
  6
CENTER
 10
102.056587
 20
154.900085
 11
162.931137
 21
154.900085
  0
LINE
  8
0
  6
CENTER
 10
135.239044
 20
164.192261
 11
135.239044
 21
145.494781
  0
LINE
  8
0
 10
121.239052
 20
146.400085
 11
149.239044
 21
146.400085
  0
LINE
  8
0
 10
121.239052
 20
163.400085
 11
149.239044
 21
163.400085
  0
LINE
  8
0
 10
121.239052
 20
163.400085
 11
121.239052
 21
146.400085
  0
LINE
  8
0
 10
149.239044
 20
163.400085
 11
149.239044
 21
146.400085
  0
LINE
  8
0
 10
126.578796
 20
149.900085
 11
128.365189
 21
149.900085
  0
LINE
  8
0
 10
126.578796
 20
159.900085
 11
128.365189
 21
159.900085
  0
LINE
  8
0
 10
142.112915
 20
159.900085
 11
143.899307
 21
159.900085
  0
LINE
  8
0
 10
142.112915
 20
149.900085
 11
143.899307
 21
149.900085
  0
LINE
  8
0
 10
127.751556
 20
152.400085
 11
142.726532
 21
152.400085
  0
LINE
  8
0
 10
127.751556
 20
157.400085
 11
142.726532
 21
157.400085
  0
LINE
  8
0
 10
129.239044
 20
155.750092
 11
141.239044
 21
155.750092
  0
LINE
  8
0
 10
129.239044
 20
154.050079
 11
141.239044
 21
154.050079
  0
LINE
  8
0
 10
141.239044
 20
155.750092
 11
141.239044
 21
154.050079
  0
LINE
  8
0
 10
129.239044
 20
155.750092
 11
129.239044
 21
154.050079
  0
LINE
  8
0
 10
156.139053
 20
161.150085
 11
156.139053
 21
148.650085
  0
LINE
  8
0
 10
149.239044
 20
161.150085
 11
156.139053
 21
161.150085
  0
LINE
  8
0
 10
149.239044
 20
148.650085
 11
156.139053
 21
148.650085
  0
LINE
  8
0
 10
161.139053
 20
160.800079
 11
161.139053
 21
149.000092
  0
LINE
  8
0
 10
159.339050
 20
160.800079
 11
159.339050
 21
149.000092
  0
LINE
  8
0
 10
158.139053
 20
160.650085
 11
158.139053
 21
149.150085
  0
LINE
  8
0
 10
156.139053
 20
160.650085
 11
158.139053
 21
160.650085
  0
LINE
  8
0
 10
156.139053
 20
149.150085
 11
158.139053
 21
149.150085
  0
LINE
  8
0
 10
159.339050
 20
160.800079
 11
161.139053
 21
160.800079
  0
LINE
  8
0
 10
159.339050
 20
149.000092
 11
161.139053
 21
149.000092
  0
LINE
  8
0
 10
158.139053
 20
150.850082
 11
159.339050
 21
150.850082
  0
LINE
  8
0
 10
158.139053
 20
158.950073
 11
159.339050
 21
158.950073
  0
LINE
  8
0
 10
112.239052
 20
162.400085
 11
112.239052
 21
147.400085
  0
LINE
  8
0
 10
121.239052
 20
162.400085
 11
112.239052
 21
162.400085
  0
LINE
  8
0
 10
107.339050
 20
161.800079
 11
107.339050
 21
148.000092
  0
LINE
  8
0
 10
110.339050
 20
161.900085
 11
110.339050
 21
147.900085
  0
LINE
  8
0
 10
109.339050
 20
161.800079
 11
109.339050
 21
148.000092
  0
LINE
  8
0
 10
112.239052
 20
147.900085
 11
110.339050
 21
147.900085
  0
LINE
  8
0
 10
112.239052
 20
161.900085
 11
110.339050
 21
161.900085
  0
LINE
  8
0
 10
109.339050
 20
148.000092
 11
107.339050
 21
148.000092
  0
LINE
  8
0
 10
109.339050
 20
161.800079
 11
107.339050
 21
161.800079
  0
LINE
  8
0
 10
110.339050
 20
150.000092
 11
109.339050
 21
150.000092
  0
LINE
  8
0
 10
110.339050
 20
159.800079
 11
109.339050
 21
159.800079
  0
LINE
  8
0
 10
121.239052
 20
147.400085
 11
112.239052
 21
147.400085
  0
ARC
  8
0
 10
135.239044
 20
154.900085
 40
10.000000
 50
0.000000
 51
29.999973
  0
CIRCLE
  8
0
 10
135.239044
 20
154.900085
 40
8.500000
  0
ARC
  8
0
 10
135.239044
 20
154.900085
 40
9.999994
 50
149.999985
 51
210.000015
  0
ARC
  8
0
 10
135.239044
 20
154.900085
 40
10.000008
 50
330.000031
 51
0.000000
  0
ARC
  8
0
 10
135.239044
 20
154.900085
 40
8.250010
 50
345.044800
 51
0.000000
  0
ARC
  8
0
 10
142.726532
 20
152.900085
 40
0.500000
 50
270.000000
 51
345.045166
  0
ARC
  8
0
 10
135.239044
 20
154.900085
 40
8.250000
 50
0.000000
 51
14.955199
  0
ARC
  8
0
 10
142.726532
 20
156.900085
 40
0.499998
 50
14.954844
 51
90.000000
  0
ARC
  8
0
 10
135.239044
 20
154.900085
 40
8.249996
 50
165.044769
 51
194.955231
  0
ARC
  8
0
 10
127.751556
 20
156.900085
 40
0.500000
 50
90.000000
 51
165.045151
  0
ARC
  8
0
 10
127.751556
 20
152.900085
 40
0.499998
 50
194.954849
 51
270.000000
  0
POINT
  8
0
 10
-109.860931
 20
-28.041542
  0
POINT
  8
0
 10
-165.660934
 20
-28.041542
  0
LINE
  8
0
  6
CENTER
 10
-137.760925
 20
2.819397
 11
-137.760925
 21
-39.942482
  0
LINE
  8
0
 10
-132.260925
 20
-35.541542
 11
-132.260925
 21
-38.541542
  0
LINE
  8
0
 10
-123.760933
 20
-20.541542
 11
-123.760933
 21
-35.541542
  0
LINE
  8
0
 10
-125.296829
 20
-20.541542
 11
-123.760933
 21
-20.541542
  0
LINE
  8
0
 10
-127.760933
 20
-13.041542
 11
-127.760933
 21
-16.541542
  0
LINE
  8
0
  6
CENTER
 10
-131.451935
 20
-20.041542
 11
-124.376717
 21
-20.041542
  0
LINE
  8
0
  6
CENTER
 10
-128.760925
 20
-16.933632
 11
-128.760925
 21
-23.318581
  0
LINE
  8
0
 10
-126.260933
 20
-24.940521
 11
-126.260933
 21
-33.041542
  0
LINE
  8
0
 10
-125.260933
 20
-22.869972
 11
-125.260933
 21
-34.041542
  0
LINE
  8
0
  6
CENTER
 10
-168.823822
 20
-28.041542
 11
-108.777893
 21
-28.041542
  0
LINE
  8
0
 10
-130.760925
 20
-13.041542
 11
-130.760925
 21
-16.541542
  0
LINE
  8
0
 10
-132.260925
 20
-13.041542
 11
-132.260925
 21
-16.541542
  0
LINE
  8
0
 10
-114.760925
 20
-35.541542
 11
-160.760941
 21
-35.541542
  0
LINE
  8
0
 10
-132.260925
 20
-38.541542
 11
-143.260925
 21
-38.541542
  0
LINE
  8
0
 10
-143.260925
 20
-35.541542
 11
-143.260925
 21
-38.541542
  0
LINE
  8
0
 10
-151.760925
 20
-20.541542
 11
-151.760925
 21
-35.541542
  0
LINE
  8
0
 10
-127.760933
 20
-13.041542
 11
-147.760925
 21
-13.041542
  0
LINE
  8
0
 10
-127.760933
 20
-16.541542
 11
-147.760925
 21
-16.541542
  0
LINE
  8
0
 10
-150.225037
 20
-20.541542
 11
-151.760925
 21
-20.541542
  0
LINE
  8
0
 10
-147.760925
 20
-13.041542
 11
-147.760925
 21
-16.541542
  0
LINE
  8
0
  6
CENTER
 10
-144.069931
 20
-20.041542
 11
-151.145142
 21
-20.041542
  0
LINE
  8
0
  6
CENTER
 10
-146.760925
 20
-16.933632
 11
-146.760925
 21
-23.318581
  0
LINE
  8
0
 10
-133.233063
 20
-19.541542
 11
-142.288788
 21
-19.541542
  0
LINE
  8
0
 10
-134.238159
 20
-20.541542
 11
-141.283707
 21
-20.541542
  0
LINE
  8
0
 10
-126.260933
 20
-33.041542
 11
-149.260925
 21
-33.041542
  0
LINE
  8
0
 10
-125.260933
 20
-34.041542
 11
-150.260925
 21
-34.041542
  0
LINE
  8
0
 10
-149.260925
 20
-24.940521
 11
-149.260925
 21
-33.041542
  0
LINE
  8
0
 10
-150.260925
 20
-22.869972
 11
-150.260925
 21
-34.041542
  0
LINE
  8
0
 10
-144.760925
 20
-13.041542
 11
-144.760925
 21
-16.541542
  0
LINE
  8
0
 10
-143.260925
 20
-13.041542
 11
-143.260925
 21
-16.541542
  0
LINE
  8
0
 10
-129.510925
 20
0.958458
 11
-129.510925
 21
-13.041542
  0
LINE
  8
0
 10
-129.510925
 20
-8.041542
 11
-146.010925
 21
-8.041542
  0
LINE
  8
0
 10
-130.510925
 20
1.958458
 11
-145.010925
 21
1.958458
  0
LINE
  8
0
 10
-146.010925
 20
0.958458
 11
-146.010925
 21
-13.041542
  0
LINE
  8
0
 10
-160.760941
 20
-20.541542
 11
-160.760941
 21
-35.541542
  0
LINE
  8
0
 10
-151.760925
 20
-20.541542
 11
-160.760941
 21
-20.541542
  0
LINE
  8
0
 10
-165.660934
 20
-21.141541
 11
-165.660934
 21
-34.941536
  0
LINE
  8
0
 10
-162.660934
 20
-21.041542
 11
-162.660934
 21
-35.041542
  0
LINE
  8
0
 10
-163.660934
 20
-21.141541
 11
-163.660934
 21
-34.941536
  0
LINE
  8
0
 10
-160.760941
 20
-35.041542
 11
-162.660934
 21
-35.041542
  0
LINE
  8
0
 10
-160.760941
 20
-21.041542
 11
-162.660934
 21
-21.041542
  0
LINE
  8
0
 10
-163.660934
 20
-34.941536
 11
-165.660934
 21
-34.941536
  0
LINE
  8
0
 10
-163.660934
 20
-21.141541
 11
-165.660934
 21
-21.141541
  0
LINE
  8
0
 10
-162.660934
 20
-32.941544
 11
-163.660934
 21
-32.941544
  0
LINE
  8
0
 10
-162.660934
 20
-23.141541
 11
-163.660934
 21
-23.141541
  0
LINE
  8
0
 10
-112.860931
 20
-23.141541
 11
-111.860931
 21
-23.141541
  0
LINE
  8
0
 10
-114.760925
 20
-20.541542
 11
-114.760925
 21
-35.541542
  0
LINE
  8
0
 10
-123.760933
 20
-20.541542
 11
-114.760925
 21
-20.541542
  0
LINE
  8
0
 10
-109.860931
 20
-21.141541
 11
-109.860931
 21
-34.941536
  0
LINE
  8
0
 10
-112.860931
 20
-21.041542
 11
-112.860931
 21
-35.041542
  0
LINE
  8
0
 10
-111.860931
 20
-21.141541
 11
-111.860931
 21
-34.941536
  0
LINE
  8
0
 10
-114.760925
 20
-35.041542
 11
-112.860931
 21
-35.041542
  0
LINE
  8
0
 10
-114.760925
 20
-21.041542
 11
-112.860931
 21
-21.041542
  0
LINE
  8
0
 10
-111.860931
 20
-34.941536
 11
-109.860931
 21
-34.941536
  0
LINE
  8
0
 10
-111.860931
 20
-21.141541
 11
-109.860931
 21
-21.141541
  0
LINE
  8
0
 10
-112.860931
 20
-32.941544
 11
-111.860931
 21
-32.941544
  0
ARC
  8
0
 10
-128.760925
 20
-20.041542
 40
3.499995
 50
351.786774
 51
90.000000
  0
CIRCLE
  8
0
 10
-128.760925
 20
-20.041542
 40
2.100000
  0
ARC
  8
0
 10
-128.760925
 20
-20.041542
 40
4.500001
 50
173.620651
 51
321.057495
  0
ARC
  8
0
 10
-128.760925
 20
-20.041542
 40
5.500008
 50
185.215897
 51
297.035614
  0
ARC
  8
0
 10
-146.760925
 20
-20.041542
 40
3.500000
 50
90.000000
 51
188.213150
  0
CIRCLE
  8
0
 10
-146.760925
 20
-20.041542
 40
2.100000
  0
ARC
  8
0
 10
-146.760925
 20
-20.041542
 40
4.500011
 50
218.942307
 51
6.379342
  0
ARC
  8
0
 10
-146.760925
 20
-20.041542
 40
5.500005
 50
242.964157
 51
354.784058
  0
ARC
  8
0
 10
-145.010925
 20
0.958458
 40
1.000000
 50
90.000000
 51
180.000000
  0
ARC
  8
0
 10
-130.510925
 20
0.958458
 40
1.000000
 50
0.000000
 51
90.000000
  0
POINT
  8
0
 10
-226.150299
 20
-28.041542
  0
POINT
  8
0
 10
-217.400299
 20
-28.041542
  0
LINE
  8
0
  6
CENTER
 10
-226.150299
 20
2.808937
 11
-226.150299
 21
-40.334068
  0
LINE
  8
0
  6
CENTER
 10
-235.560333
 20
-28.041542
 11
-216.488556
 21
-28.041542
  0
LINE
  8
0
 10
-234.900299
 20
-35.541542
 11
-217.400299
 21
-35.541542
  0
LINE
  8
0
 10
-220.650299
 20
-35.541542
 11
-220.650299
 21
-38.541542
  0
LINE
  8
0
 10
-231.650299
 20
-35.541542
 11
-231.650299
 21
-38.541542
  0
LINE
  8
0
 10
-231.650299
 20
-38.541542
 11
-220.650299
 21
-38.541542
  0
LINE
  8
0
 10
-221.150299
 20
-13.041542
 11
-221.150299
 21
-16.541542
  0
LINE
  8
0
 10
-231.150299
 20
-13.041542
 11
-231.150299
 21
-16.541542
  0
LINE
  8
0
 10
-217.400299
 20
-20.541542
 11
-234.900299
 21
-20.541542
  0
LINE
  8
0
 10
-217.400299
 20
-13.041542
 11
-234.900299
 21
-13.041542
  0
LINE
  8
0
 10
-217.400299
 20
-16.541542
 11
-234.900299
 21
-16.541542
  0
LINE
  8
0
 10
-217.900299
 20
-8.541542
 11
-217.900299
 21
-13.041542
  0
LINE
  8
0
 10
-223.650299
 20
1.458458
 11
-223.650299
 21
-7.041542
  0
LINE
  8
0
 10
-218.400299
 20
-8.041542
 11
-233.900299
 21
-8.041542
  0
LINE
  8
0
 10
-234.400299
 20
-8.541542
 11
-234.400299
 21
-13.041542
  0
LINE
  8
0
 10
-228.650299
 20
1.458458
 11
-228.650299
 21
-7.041542
  0
LINE
  8
0
 10
-224.150299
 20
1.958458
 11
-228.150299
 21
1.958458
  0
LINE
  8
0
 10
-217.400299
 20
-13.041542
 11
-217.400299
 21
-35.541542
  0
LINE
  8
0
 10
-234.900299
 20
-13.041542
 11
-234.900299
 21
-35.541542
  0
ARC
  8
0
 10
-218.400299
 20
-8.541542
 40
0.500000
 50
0.000000
 51
90.000000
  0
ARC
  8
0
 10
-224.150299
 20
1.458458
 40
0.500000
 50
0.000000
 51
90.000000
  0
ARC
  8
0
 10
-222.650299
 20
-7.041542
 40
1.000000
 50
180.000000
 51
270.000000
  0
ARC
  8
0
 10
-233.900299
 20
-8.541542
 40
0.500000
 50
90.000000
 51
180.000000
  0
ARC
  8
0
 10
-228.150299
 20
1.458458
 40
0.500000
 50
90.000000
 51
180.000000
  0
ARC
  8
0
 10
-229.650299
 20
-7.041542
 40
1.000000
 50
270.000000
 51
0.000000
  0
CIRCLE
  8
0
 10
-226.150299
 20
-28.041542
 40
7.500000
  0
CIRCLE
  8
0
 10
-226.150299
 20
-28.041542
 40
6.900000
  0
CIRCLE
  8
0
 10
-226.150299
 20
-28.041542
 40
4.100000
  0
POINT
  8
0
 10
-165.660950
 20
31.958458
  0
POINT
  8
0
 10
-109.860947
 20
31.958458
  0
LINE
  8
0
  6
CENTER
 10
-167.236862
 20
31.958458
 11
-109.368858
 21
31.958458
  0
LINE
  8
0
  6
CENTER
 10
-137.760956
 20
41.250622
 11
-137.760956
 21
22.553158
  0
LINE
  8
0
 10
-151.760956
 20
23.458454
 11
-123.760948
 21
23.458454
  0
LINE
  8
0
 10
-151.760956
 20
40.458458
 11
-123.760948
 21
40.458458
  0
LINE
  8
0
 10
-151.760956
 20
40.458458
 11
-151.760956
 21
23.458454
  0
LINE
  8
0
 10
-123.760948
 20
40.458458
 11
-123.760948
 21
23.458454
  0
LINE
  8
0
 10
-146.421204
 20
26.958454
 11
-144.634811
 21
26.958454
  0
LINE
  8
0
 10
-146.421204
 20
36.958458
 11
-144.634811
 21
36.958458
  0
LINE
  8
0
 10
-130.887085
 20
36.958458
 11
-129.100693
 21
36.958458
  0
LINE
  8
0
 10
-130.887085
 20
26.958454
 11
-129.100693
 21
26.958454
  0
LINE
  8
0
 10
-145.248444
 20
29.458454
 11
-130.273468
 21
29.458454
  0
LINE
  8
0
 10
-145.248444
 20
34.458458
 11
-130.273468
 21
34.458458
  0
LINE
  8
0
 10
-143.760956
 20
32.808456
 11
-131.760956
 21
32.808456
  0
LINE
  8
0
 10
-143.760956
 20
31.108459
 11
-131.760956
 21
31.108459
  0
LINE
  8
0
 10
-131.760956
 20
32.808456
 11
-131.760956
 21
31.108459
  0
LINE
  8
0
 10
-143.760956
 20
32.808456
 11
-143.760956
 21
31.108459
  0
LINE
  8
0
 10
-160.760956
 20
39.458458
 11
-160.760956
 21
24.458454
  0
LINE
  8
0
 10
-151.760956
 20
39.458458
 11
-160.760956
 21
39.458458
  0
LINE
  8
0
 10
-165.660950
 20
38.858459
 11
-165.660950
 21
25.058453
  0
LINE
  8
0
 10
-162.660950
 20
38.958458
 11
-162.660950
 21
24.958454
  0
LINE
  8
0
 10
-163.660950
 20
38.858459
 11
-163.660950
 21
25.058453
  0
LINE
  8
0
 10
-160.760956
 20
24.958454
 11
-162.660950
 21
24.958454
  0
LINE
  8
0
 10
-160.760956
 20
38.958458
 11
-162.660950
 21
38.958458
  0
LINE
  8
0
 10
-163.660950
 20
25.058453
 11
-165.660950
 21
25.058453
  0
LINE
  8
0
 10
-163.660950
 20
38.858459
 11
-165.660950
 21
38.858459
  0
LINE
  8
0
 10
-162.660950
 20
27.058453
 11
-163.660950
 21
27.058453
  0
LINE
  8
0
 10
-162.660950
 20
36.858459
 11
-163.660950
 21
36.858459
  0
LINE
  8
0
 10
-151.760956
 20
24.458462
 11
-160.760956
 21
24.458462
  0
LINE
  8
0
 10
-123.760948
 20
24.458462
 11
-114.760948
 21
24.458462
  0
LINE
  8
0
 10
-114.760948
 20
39.458458
 11
-114.760948
 21
24.458454
  0
LINE
  8
0
 10
-123.760948
 20
39.458458
 11
-114.760948
 21
39.458458
  0
LINE
  8
0
 10
-109.860947
 20
38.858459
 11
-109.860947
 21
25.058453
  0
LINE
  8
0
 10
-112.860947
 20
38.958458
 11
-112.860947
 21
24.958454
  0
LINE
  8
0
 10
-111.860947
 20
38.858459
 11
-111.860947
 21
25.058453
  0
LINE
  8
0
 10
-114.760948
 20
24.958454
 11
-112.860947
 21
24.958454
  0
LINE
  8
0
 10
-114.760948
 20
38.958458
 11
-112.860947
 21
38.958458
  0
LINE
  8
0
 10
-111.860947
 20
25.058453
 11
-109.860947
 21
25.058453
  0
LINE
  8
0
 10
-111.860947
 20
38.858459
 11
-109.860947
 21
38.858459
  0
LINE
  8
0
 10
-112.860947
 20
27.058453
 11
-111.860947
 21
27.058453
  0
LINE
  8
0
 10
-112.860947
 20
36.858459
 11
-111.860947
 21
36.858459
  0
ARC
  8
0
 10
-137.760956
 20
31.958458
 40
10.000008
 50
0.000000
 51
29.999973
  0
CIRCLE
  8
0
 10
-137.760956
 20
31.958458
 40
8.500000
  0
ARC
  8
0
 10
-137.760956
 20
31.958458
 40
9.999992
 50
150.000000
 51
209.999985
  0
ARC
  8
0
 10
-137.760956
 20
31.958458
 40
10.000008
 50
330.000031
 51
0.000000
  0
ARC
  8
0
 10
-137.760956
 20
31.958458
 40
8.250012
 50
345.044769
 51
0.000000
  0
ARC
  8
0
 10
-130.273468
 20
29.958458
 40
0.500000
 50
270.000000
 51
345.044739
  0
ARC
  8
0
 10
-137.760956
 20
31.958458
 40
8.250000
 50
0.000000
 51
14.955225
  0
ARC
  8
0
 10
-130.273468
 20
33.958458
 40
0.499999
 50
14.955267
 51
90.000000
  0
ARC
  8
0
 10
-137.760956
 20
31.958458
 40
8.249996
 50
165.044769
 51
194.955215
  0
ARC
  8
0
 10
-145.248444
 20
33.958458
 40
0.500000
 50
90.000000
 51
165.044739
  0
ARC
  8
0
 10
-145.248444
 20
29.958458
 40
0.499999
 50
194.955261
 51
270.000000
  0
POINT
  8
0
 10
167.936981
 20
-28.041542
  0
POINT
  8
0
 10
103.136986
 20
-28.041542
  0
LINE
  8
0
  6
CENTER
 10
135.536987
 20
3.915428
 11
135.536987
 21
-40.271629
  0
LINE
  8
0
 10
152.536987
 20
-17.541542
 11
152.536987
 21
-38.541542
  0
LINE
  8
0
 10
151.001099
 20
-17.541542
 11
152.536987
 21
-17.541542
  0
LINE
  8
0
  6
CENTER
 10
147.536987
 20
-14.073982
 11
147.536987
 21
-21.964851
  0
LINE
  8
0
  6
CENTER
 10
144.143188
 20
-17.041542
 11
152.536987
 21
-17.041542
  0
LINE
  8
0
 10
148.036987
 20
-13.041542
 11
148.036987
 21
-13.577446
  0
LINE
  8
0
 10
150.036987
 20
-19.491035
 11
150.036987
 21
-36.041542
  0
LINE
  8
0
 10
152.536987
 20
-38.541542
 11
118.536987
 21
-38.541542
  0
LINE
  8
0
 10
118.536987
 20
-17.541542
 11
118.536987
 21
-38.541542
  0
LINE
  8
0
 10
148.036987
 20
-13.041542
 11
123.036987
 21
-13.041542
  0
LINE
  8
0
 10
120.072891
 20
-17.541542
 11
118.536987
 21
-17.541542
  0
LINE
  8
0
  6
CENTER
 10
123.536987
 20
-14.073982
 11
123.536987
 21
-21.964851
  0
LINE
  8
0
  6
CENTER
 10
126.930794
 20
-17.041542
 11
118.536987
 21
-17.041542
  0
LINE
  8
0
 10
123.036987
 20
-13.041542
 11
123.036987
 21
-13.577446
  0
LINE
  8
0
 10
148.036987
 20
-13.577446
 11
123.036987
 21
-13.577446
  0
LINE
  8
0
 10
121.036987
 20
-19.491035
 11
121.036987
 21
-36.041542
  0
LINE
  8
0
 10
150.036987
 20
-36.041542
 11
121.036987
 21
-36.041542
  0
LINE
  8
0
 10
144.391998
 20
-18.577446
 11
126.681992
 21
-18.577446
  0
LINE
  8
0
 10
145.286987
 20
1.458458
 11
145.286987
 21
-13.041542
  0
LINE
  8
0
 10
144.286987
 20
2.458458
 11
126.786987
 21
2.458458
  0
LINE
  8
0
 10
125.786987
 20
1.458458
 11
125.786987
 21
-13.041542
  0
LINE
  8
0
 10
145.286987
 20
-7.541542
 11
125.786987
 21
-7.541542
  0
LINE
  8
0
  6
CENTER
 10
98.114311
 20
-28.041542
 11
170.079025
 21
-28.041542
  0
LINE
  8
0
 10
162.636993
 20
-19.091545
 11
162.636993
 21
-36.991539
  0
LINE
  8
0
 10
164.536987
 20
-22.041542
 11
165.737000
 21
-22.041542
  0
LINE
  8
0
 10
167.936981
 20
-19.641548
 11
167.936981
 21
-36.441536
  0
LINE
  8
0
 10
164.536987
 20
-19.541542
 11
164.536987
 21
-36.541542
  0
LINE
  8
0
 10
165.737000
 20
-19.641548
 11
165.737000
 21
-36.441536
  0
LINE
  8
0
 10
165.737000
 20
-36.441536
 11
167.936981
 21
-36.441536
  0
LINE
  8
0
 10
165.737000
 20
-19.641548
 11
167.936981
 21
-19.641548
  0
LINE
  8
0
 10
162.636993
 20
-36.541542
 11
164.536987
 21
-36.541542
  0
LINE
  8
0
 10
162.636993
 20
-19.541542
 11
164.536987
 21
-19.541542
  0
LINE
  8
0
 10
164.536987
 20
-34.041542
 11
165.737000
 21
-34.041542
  0
LINE
  8
0
 10
106.536987
 20
-34.041542
 11
105.336990
 21
-34.041542
  0
LINE
  8
0
 10
108.436981
 20
-19.091545
 11
108.436981
 21
-36.991539
  0
LINE
  8
0
 10
106.536987
 20
-22.041542
 11
105.336990
 21
-22.041542
  0
LINE
  8
0
 10
103.136986
 20
-19.641548
 11
103.136986
 21
-36.441536
  0
LINE
  8
0
 10
106.536987
 20
-19.541542
 11
106.536987
 21
-36.541542
  0
LINE
  8
0
 10
105.336990
 20
-19.641548
 11
105.336990
 21
-36.441536
  0
LINE
  8
0
 10
105.336990
 20
-36.441536
 11
103.136986
 21
-36.441536
  0
LINE
  8
0
 10
105.336990
 20
-19.641548
 11
103.136986
 21
-19.641548
  0
LINE
  8
0
 10
108.436981
 20
-36.541542
 11
106.536987
 21
-36.541542
  0
LINE
  8
0
 10
108.436981
 20
-19.541542
 11
106.536987
 21
-19.541542
  0
LINE
  8
0
 10
108.436981
 20
-36.991539
 11
118.536987
 21
-36.991539
  0
LINE
  8
0
 10
108.436981
 20
-19.091545
 11
118.536987
 21
-19.091545
  0
LINE
  8
0
 10
152.536987
 20
-19.091545
 11
162.636993
 21
-19.091545
  0
LINE
  8
0
 10
152.536987
 20
-36.991539
 11
162.636993
 21
-36.991539
  0
CIRCLE
  8
0
 10
147.536987
 20
-17.041542
 40
2.100000
  0
ARC
  8
0
 10
147.536987
 20
-17.041542
 40
3.499995
 50
351.786774
 51
81.786789
  0
ARC
  8
0
 10
147.536987
 20
-17.041542
 40
3.499993
 50
206.029251
 51
315.584686
  0
CIRCLE
  8
0
 10
123.536987
 20
-17.041542
 40
2.100000
  0
ARC
  8
0
 10
123.536987
 20
-17.041542
 40
3.500000
 50
98.213211
 51
188.213150
  0
ARC
  8
0
 10
123.536987
 20
-17.041542
 40
3.500000
 50
224.415314
 51
333.970856
  0
ARC
  8
0
 10
126.786987
 20
1.458458
 40
1.000000
 50
90.000000
 51
180.000000
  0
ARC
  8
0
 10
144.286987
 20
1.458458
 40
1.000000
 50
0.000000
 51
90.000000
  0
POINT
  8
0
 10
51.849625
 20
-28.041527
  0
POINT
  8
0
 10
62.349625
 20
-28.041527
  0
LINE
  8
0
  6
CENTER
 10
51.849625
 20
2.985512
 11
51.849625
 21
-40.573975
  0
LINE
  8
0
 10
62.349625
 20
-13.041527
 11
62.349625
 21
-38.541527
  0
LINE
  8
0
 10
62.349625
 20
-38.541527
 11
41.349625
 21
-38.541527
  0
LINE
  8
0
 10
41.349625
 20
-13.041527
 11
41.349625
 21
-38.541527
  0
LINE
  8
0
 10
62.349625
 20
-13.041527
 11
41.349625
 21
-13.041527
  0
LINE
  8
0
 10
62.349625
 20
-17.541527
 11
41.349625
 21
-17.541527
  0
LINE
  8
0
  6
CENTER
 10
64.907745
 20
-28.041527
 11
40.059067
 21
-28.041527
  0
LINE
  8
0
 10
61.599625
 20
-8.041527
 11
61.599625
 21
-13.041527
  0
LINE
  8
0
 10
54.349625
 20
1.958473
 11
54.349625
 21
-7.541527
  0
LINE
  8
0
 10
61.099625
 20
-7.541527
 11
42.599625
 21
-7.541527
  0
LINE
  8
0
 10
42.099625
 20
-8.041527
 11
42.099625
 21
-13.041527
  0
LINE
  8
0
 10
49.349625
 20
1.958473
 11
49.349625
 21
-7.541527
  0
LINE
  8
0
 10
53.849625
 20
2.458473
 11
49.849625
 21
2.458473
  0
ARC
  8
0
 10
61.099625
 20
-8.041527
 40
0.500000
 50
0.000000
 51
90.000000
  0
ARC
  8
0
 10
53.849625
 20
1.958473
 40
0.500000
 50
0.000000
 51
90.000000
  0
ARC
  8
0
 10
42.599625
 20
-8.041527
 40
0.500000
 50
90.000000
 51
180.000000
  0
ARC
  8
0
 10
49.849625
 20
1.958473
 40
0.500000
 50
90.000000
 51
180.000000
  0
CIRCLE
  8
0
 10
51.849625
 20
-28.041527
 40
8.400000
  0
CIRCLE
  8
0
 10
51.849625
 20
-28.041527
 40
5.100000
  0
CIRCLE
  8
0
 10
51.849625
 20
-28.041527
 40
8.950000
  0
POINT
  8
0
 10
103.136978
 20
31.958450
  0
POINT
  8
0
 10
167.936981
 20
31.958450
  0
LINE
  8
0
  6
CENTER
 10
98.114304
 20
31.958450
 11
170.079025
 21
31.958450
  0
LINE
  8
0
 10
162.636978
 20
40.708450
 11
162.636978
 21
23.208450
  0
LINE
  8
0
 10
152.536987
 20
23.208450
 11
162.636978
 21
23.208450
  0
LINE
  8
0
 10
152.536987
 20
40.708450
 11
162.636978
 21
40.708450
  0
LINE
  8
0
 10
164.536987
 20
37.958450
 11
165.736984
 21
37.958450
  0
LINE
  8
0
 10
167.936981
 20
40.358444
 11
167.936981
 21
23.558456
  0
LINE
  8
0
 10
164.536987
 20
40.458450
 11
164.536987
 21
23.458450
  0
LINE
  8
0
 10
165.736984
 20
40.358444
 11
165.736984
 21
23.558456
  0
LINE
  8
0
 10
165.736984
 20
23.558456
 11
167.936981
 21
23.558456
  0
LINE
  8
0
 10
165.736984
 20
40.358444
 11
167.936981
 21
40.358444
  0
LINE
  8
0
 10
162.636978
 20
23.458450
 11
164.536987
 21
23.458450
  0
LINE
  8
0
 10
162.636978
 20
40.458450
 11
164.536987
 21
40.458450
  0
LINE
  8
0
 10
164.536987
 20
25.958450
 11
165.736984
 21
25.958450
  0
LINE
  8
0
 10
106.536972
 20
25.958450
 11
105.336975
 21
25.958450
  0
LINE
  8
0
 10
108.436981
 20
40.708450
 11
108.436981
 21
23.208450
  0
LINE
  8
0
 10
118.536980
 20
23.208450
 11
108.436981
 21
23.208450
  0
LINE
  8
0
 10
118.536980
 20
40.708450
 11
108.436981
 21
40.708450
  0
LINE
  8
0
 10
106.536972
 20
37.958450
 11
105.336975
 21
37.958450
  0
LINE
  8
0
 10
103.136978
 20
40.358444
 11
103.136978
 21
23.558456
  0
LINE
  8
0
 10
106.536972
 20
40.458450
 11
106.536972
 21
23.458450
  0
LINE
  8
0
 10
105.336975
 20
40.358444
 11
105.336975
 21
23.558456
  0
LINE
  8
0
 10
105.336975
 20
23.558456
 11
103.136978
 21
23.558456
  0
LINE
  8
0
 10
105.336975
 20
40.358444
 11
103.136978
 21
40.358444
  0
LINE
  8
0
 10
108.436981
 20
23.458450
 11
106.536972
 21
23.458450
  0
LINE
  8
0
 10
108.436981
 20
40.458450
 11
106.536972
 21
40.458450
  0
LINE
  8
0
  6
CENTER
 10
135.536987
 20
44.266373
 11
135.536987
 21
19.580154
  0
LINE
  8
0
 10
118.536980
 20
21.458450
 11
152.536987
 21
21.458450
  0
LINE
  8
0
 10
118.536980
 20
42.458450
 11
152.536987
 21
42.458450
  0
LINE
  8
0
 10
118.536980
 20
42.458450
 11
118.536980
 21
21.458450
  0
LINE
  8
0
 10
152.536987
 20
42.458450
 11
152.536987
 21
21.458450
  0
LINE
  8
0
 10
144.770081
 20
36.958450
 11
146.993423
 21
36.958450
  0
LINE
  8
0
 10
144.770081
 20
26.958450
 11
146.993423
 21
26.958450
  0
LINE
  8
0
 10
124.080536
 20
26.958450
 11
126.303886
 21
26.958450
  0
LINE
  8
0
 10
124.080536
 20
36.958450
 11
126.303886
 21
36.958450
  0
LINE
  8
0
 10
126.505783
 20
29.458450
 11
144.568176
 21
29.458450
  0
LINE
  8
0
 10
126.505783
 20
34.458450
 11
144.568176
 21
34.458450
  0
LINE
  8
0
 10
127.536980
 20
31.108444
 11
143.536987
 21
31.108444
  0
LINE
  8
0
 10
127.536980
 20
32.808456
 11
143.536987
 21
32.808456
  0
LINE
  8
0
 10
127.536980
 20
32.808456
 11
127.536980
 21
31.108444
  0
LINE
  8
0
 10
143.536987
 20
32.808456
 11
143.536987
 21
31.108444
  0
ARC
  8
0
 10
135.536987
 20
31.958450
 40
12.500000
 50
0.000000
 51
23.578184
  0
CIRCLE
  8
0
 10
135.536987
 20
31.958450
 40
10.500000
  0
ARC
  8
0
 10
135.536987
 20
31.958450
 40
12.500010
 50
156.421860
 51
203.578125
  0
ARC
  8
0
 10
135.536987
 20
31.958450
 40
12.499997
 50
336.421814
 51
0.000000
  0
ARC
  8
0
 10
144.568176
 20
33.958450
 40
0.500002
 50
12.486895
 51
90.000000
  0
ARC
  8
0
 10
126.505783
 20
33.958450
 40
0.500000
 50
90.000000
 51
167.513107
  0
ARC
  8
0
 10
144.568176
 20
29.958450
 40
0.500000
 50
270.000000
 51
347.513092
  0
ARC
  8
0
 10
126.505783
 20
29.958450
 40
0.500002
 50
192.486893
 51
270.000000
  0
ARC
  8
0
 10
135.536987
 20
31.958450
 40
9.750000
 50
0.000000
 51
359.464600
  0
POINT
  8
0
 10
-169.962982
 20
-159.047470
  0
POINT
  8
0
 10
-102.062988
 20
-159.047470
  0
LINE
  8
0
  6
CENTER
 10
-134.462982
 20
-127.090492
 11
-134.462982
 21
-171.277557
  0
LINE
  8
0
 10
-117.462982
 20
-148.547470
 11
-117.462982
 21
-169.547470
  0
LINE
  8
0
 10
-118.998886
 20
-148.547470
 11
-117.462982
 21
-148.547470
  0
LINE
  8
0
  6
CENTER
 10
-122.462982
 20
-145.079926
 11
-122.462982
 21
-152.970779
  0
LINE
  8
0
  6
CENTER
 10
-125.856789
 20
-148.047470
 11
-117.462982
 21
-148.047470
  0
LINE
  8
0
 10
-121.962982
 20
-144.047470
 11
-121.962982
 21
-144.583374
  0
LINE
  8
0
 10
-119.962982
 20
-150.496964
 11
-119.962982
 21
-167.047470
  0
LINE
  8
0
 10
-117.462982
 20
-169.547470
 11
-151.462982
 21
-169.547470
  0
LINE
  8
0
 10
-151.462982
 20
-148.297470
 11
-151.462982
 21
-169.797470
  0
LINE
  8
0
 10
-121.962982
 20
-144.047470
 11
-146.962982
 21
-144.047470
  0
LINE
  8
0
  6
CENTER
 10
-146.462982
 20
-145.079926
 11
-146.462982
 21
-152.970779
  0
LINE
  8
0
  6
CENTER
 10
-143.069183
 20
-148.047470
 11
-151.462982
 21
-148.047470
  0
LINE
  8
0
 10
-146.962982
 20
-144.047470
 11
-146.962982
 21
-144.583374
  0
LINE
  8
0
 10
-121.962982
 20
-144.583374
 11
-146.962982
 21
-144.583374
  0
LINE
  8
0
 10
-148.962982
 20
-150.496964
 11
-148.962982
 21
-167.047470
  0
LINE
  8
0
 10
-119.962982
 20
-167.047470
 11
-148.962982
 21
-167.047470
  0
LINE
  8
0
 10
-125.607986
 20
-149.583374
 11
-143.317978
 21
-149.583374
  0
LINE
  8
0
 10
-124.712982
 20
-129.547470
 11
-124.712982
 21
-144.047470
  0
LINE
  8
0
 10
-125.712982
 20
-128.547470
 11
-143.212982
 21
-128.547470
  0
LINE
  8
0
 10
-144.212982
 20
-129.547470
 11
-144.212982
 21
-144.047470
  0
LINE
  8
0
 10
-124.712982
 20
-138.547470
 11
-144.212982
 21
-138.547470
  0
LINE
  8
0
  6
CENTER
 10
-171.740433
 20
-159.047470
 11
-100.020950
 21
-159.047470
  0
LINE
  8
0
 10
-164.562988
 20
-148.297470
 11
-164.562988
 21
-169.797470
  0
LINE
  8
0
 10
-107.362991
 20
-150.097473
 11
-107.362991
 21
-167.997467
  0
LINE
  8
0
 10
-105.462982
 20
-153.047470
 11
-104.262985
 21
-153.047470
  0
LINE
  8
0
 10
-102.062988
 20
-150.647476
 11
-102.062988
 21
-167.447479
  0
LINE
  8
0
 10
-105.462982
 20
-150.547470
 11
-105.462982
 21
-167.547470
  0
LINE
  8
0
 10
-104.262985
 20
-150.647476
 11
-104.262985
 21
-167.447479
  0
LINE
  8
0
 10
-104.262985
 20
-167.447479
 11
-102.062988
 21
-167.447479
  0
LINE
  8
0
 10
-104.262985
 20
-150.647476
 11
-102.062988
 21
-150.647476
  0
LINE
  8
0
 10
-107.362991
 20
-167.547470
 11
-105.462982
 21
-167.547470
  0
LINE
  8
0
 10
-107.362991
 20
-150.547470
 11
-105.462982
 21
-150.547470
  0
LINE
  8
0
 10
-105.462982
 20
-165.047470
 11
-104.262985
 21
-165.047470
  0
LINE
  8
0
 10
-169.962982
 20
-149.147476
 11
-169.962982
 21
-168.947464
  0
LINE
  8
0
 10
-167.762985
 20
-149.147476
 11
-167.762985
 21
-168.947464
  0
LINE
  8
0
 10
-166.162979
 20
-149.047470
 11
-166.162979
 21
-169.047470
  0
LINE
  8
0
 10
-167.762985
 20
-168.947464
 11
-169.962982
 21
-168.947464
  0
LINE
  8
0
 10
-167.762985
 20
-149.147476
 11
-169.962982
 21
-149.147476
  0
LINE
  8
0
 10
-164.562988
 20
-169.047470
 11
-166.162979
 21
-169.047470
  0
LINE
  8
0
 10
-164.562988
 20
-149.047470
 11
-166.162979
 21
-149.047470
  0
LINE
  8
0
 10
-166.162979
 20
-151.547470
 11
-167.762985
 21
-151.547470
  0
LINE
  8
0
 10
-166.162979
 20
-166.547470
 11
-167.762985
 21
-166.547470
  0
LINE
  8
0
 10
-151.462982
 20
-148.297470
 11
-164.562988
 21
-148.297470
  0
LINE
  8
0
 10
-151.462982
 20
-169.797470
 11
-164.562988
 21
-169.797470
  0
LINE
  8
0
 10
-117.462982
 20
-167.997467
 11
-107.362991
 21
-167.997467
  0
LINE
  8
0
 10
-117.462982
 20
-150.097473
 11
-107.362991
 21
-150.097473
  0
LINE
  8
0
 10
-149.927078
 20
-148.547470
 11
-151.462982
 21
-148.547470
  0
CIRCLE
  8
0
 10
-122.462982
 20
-148.047470
 40
2.100000
  0
ARC
  8
0
 10
-122.462982
 20
-148.047470
 40
3.499995
 50
351.786774
 51
81.786774
  0
ARC
  8
0
 10
-122.462982
 20
-148.047470
 40
3.500008
 50
206.029175
 51
315.584656
  0
CIRCLE
  8
0
 10
-146.462982
 20
-148.047470
 40
2.100000
  0
ARC
  8
0
 10
-146.462982
 20
-148.047470
 40
3.499995
 50
98.213226
 51
188.213226
  0
ARC
  8
0
 10
-146.462982
 20
-148.047470
 40
3.500003
 50
224.415344
 51
333.970825
  0
ARC
  8
0
 10
-143.212982
 20
-129.547470
 40
1.000000
 50
90.000000
 51
180.000000
  0
ARC
  8
0
 10
-125.712982
 20
-129.547470
 40
1.000000
 50
0.000000
 51
90.000000
  0
POINT
  8
0
 10
-47.531799
 20
-159.047455
  0
POINT
  8
0
 10
-37.031799
 20
-159.047455
  0
LINE
  8
0
  6
CENTER
 10
-47.531799
 20
-128.020416
 11
-47.531799
 21
-171.579910
  0
LINE
  8
0
 10
-37.031799
 20
-144.047455
 11
-37.031799
 21
-169.547455
  0
LINE
  8
0
 10
-37.031799
 20
-169.547455
 11
-58.031799
 21
-169.547455
  0
LINE
  8
0
 10
-58.031799
 20
-144.047455
 11
-58.031799
 21
-169.547455
  0
LINE
  8
0
 10
-37.031799
 20
-144.047455
 11
-58.031799
 21
-144.047455
  0
LINE
  8
0
 10
-37.031799
 20
-148.547455
 11
-58.031799
 21
-148.547455
  0
LINE
  8
0
  6
CENTER
 10
-34.051636
 20
-159.047455
 11
-59.322357
 21
-159.047455
  0
LINE
  8
0
 10
-37.781799
 20
-139.047455
 11
-37.781799
 21
-144.047455
  0
LINE
  8
0
 10
-45.031799
 20
-129.047455
 11
-45.031799
 21
-138.547455
  0
LINE
  8
0
 10
-38.281799
 20
-138.547455
 11
-56.781799
 21
-138.547455
  0
LINE
  8
0
 10
-57.281799
 20
-139.047455
 11
-57.281799
 21
-144.047455
  0
LINE
  8
0
 10
-50.031799
 20
-129.047455
 11
-50.031799
 21
-138.547455
  0
LINE
  8
0
 10
-45.531799
 20
-128.547455
 11
-49.531799
 21
-128.547455
  0
ARC
  8
0
 10
-38.281799
 20
-139.047455
 40
0.500000
 50
0.000000
 51
90.000000
  0
ARC
  8
0
 10
-45.531799
 20
-129.047455
 40
0.500000
 50
0.000000
 51
90.000000
  0
ARC
  8
0
 10
-56.781799
 20
-139.047455
 40
0.500000
 50
90.000000
 51
180.000000
  0
ARC
  8
0
 10
-49.531799
 20
-129.047455
 40
0.500000
 50
90.000000
 51
180.000000
  0
CIRCLE
  8
0
 10
-47.531799
 20
-159.047455
 40
8.400000
  0
CIRCLE
  8
0
 10
-47.531799
 20
-159.047455
 40
5.100000
  0
CIRCLE
  8
0
 10
-47.531799
 20
-159.047455
 40
8.750000
  0
POINT
  8
0
 10
-226.150299
 20
-159.047470
  0
POINT
  8
0
 10
-215.650299
 20
-159.047470
  0
LINE
  8
0
 10
-236.150299
 20
-169.547470
 11
-216.150299
 21
-169.547470
  0
LINE
  8
0
  6
CENTER
 10
-226.150299
 20
-128.018463
 11
-226.150299
 21
-171.455536
  0
LINE
  8
0
 10
-236.150299
 20
-144.047470
 11
-216.150299
 21
-144.047470
  0
LINE
  8
0
 10
-236.650299
 20
-144.547470
 11
-236.650299
 21
-169.047470
  0
LINE
  8
0
 10
-215.650299
 20
-144.547470
 11
-215.650299
 21
-169.047470
  0
LINE
  8
0
 10
-216.150299
 20
-144.047470
 11
-215.650299
 21
-144.547470
  0
LINE
  8
0
 10
-236.150284
 20
-144.047485
 11
-236.650284
 21
-144.547485
  0
LINE
  8
0
 10
-236.650299
 20
-169.047470
 11
-236.150299
 21
-169.547470
  0
LINE
  8
0
 10
-216.150299
 20
-169.547470
 11
-215.650299
 21
-169.047470
  0
LINE
  8
0
  6
CENTER
 10
-237.628296
 20
-159.047470
 11
-215.122650
 21
-159.047470
  0
LINE
  8
0
 10
-235.400299
 20
-138.547470
 11
-216.900299
 21
-138.547470
  0
LINE
  8
0
 10
-216.400299
 20
-139.047470
 11
-216.400299
 21
-144.047470
  0
LINE
  8
0
 10
-235.900299
 20
-139.047470
 11
-235.900299
 21
-144.047470
  0
LINE
  8
0
 10
-228.650299
 20
-129.047470
 11
-228.650299
 21
-138.047470
  0
LINE
  8
0
 10
-223.650299
 20
-129.047470
 11
-223.650299
 21
-138.047470
  0
LINE
  8
0
 10
-228.150299
 20
-128.547470
 11
-224.150299
 21
-128.547470
  0
ARC
  8
0
 10
-216.900299
 20
-139.047470
 40
0.500000
 50
0.000000
 51
90.000000
  0
ARC
  8
0
 10
-235.400299
 20
-139.047470
 40
0.500000
 50
90.000000
 51
180.000000
  0
ARC
  8
0
 10
-228.150299
 20
-129.047470
 40
0.500000
 50
90.000000
 51
180.000000
  0
ARC
  8
0
 10
-224.150299
 20
-129.047470
 40
0.500000
 50
0.000000
 51
90.000000
  0
ARC
  8
0
 10
-229.150299
 20
-138.047470
 40
0.500000
 50
270.000000
 51
0.000000
  0
ARC
  8
0
 10
-223.150299
 20
-138.047470
 40
0.500000
 50
180.000000
 51
270.000000
  0
CIRCLE
  8
0
 10
-226.150299
 20
-159.047470
 40
9.900000
  0
CIRCLE
  8
0
 10
-226.150299
 20
-159.047470
 40
6.100000
  0
CIRCLE
  8
0
 10
-226.150299
 20
-159.047470
 40
10.500000
  0
POINT
  8
0
 10
-102.062981
 20
-99.047470
  0
POINT
  8
0
 10
-169.962982
 20
-99.047470
  0
LINE
  8
0
  6
CENTER
 10
-171.740433
 20
-99.047470
 11
-100.020943
 21
-99.047470
  0
LINE
  8
0
 10
-164.562988
 20
-88.297470
 11
-164.562988
 21
-109.797470
  0
LINE
  8
0
 10
-107.362984
 20
-90.097473
 11
-107.362984
 21
-107.997467
  0
LINE
  8
0
 10
-105.462990
 20
-93.047470
 11
-104.262993
 21
-93.047470
  0
LINE
  8
0
 10
-102.062981
 20
-90.647476
 11
-102.062981
 21
-107.447472
  0
LINE
  8
0
 10
-105.462990
 20
-90.547470
 11
-105.462990
 21
-107.547470
  0
LINE
  8
0
 10
-104.262993
 20
-90.647476
 11
-104.262993
 21
-107.447472
  0
LINE
  8
0
 10
-104.262993
 20
-107.447472
 11
-102.062981
 21
-107.447472
  0
LINE
  8
0
 10
-104.262993
 20
-90.647476
 11
-102.062981
 21
-90.647476
  0
LINE
  8
0
 10
-107.362984
 20
-107.547470
 11
-105.462990
 21
-107.547470
  0
LINE
  8
0
 10
-107.362984
 20
-90.547470
 11
-105.462990
 21
-90.547470
  0
LINE
  8
0
 10
-105.462990
 20
-105.047470
 11
-104.262993
 21
-105.047470
  0
LINE
  8
0
 10
-169.962982
 20
-89.147469
 11
-169.962982
 21
-108.947472
  0
LINE
  8
0
 10
-167.762985
 20
-89.147469
 11
-167.762985
 21
-108.947472
  0
LINE
  8
0
 10
-166.162979
 20
-89.047470
 11
-166.162979
 21
-109.047470
  0
LINE
  8
0
 10
-167.762985
 20
-108.947472
 11
-169.962982
 21
-108.947472
  0
LINE
  8
0
 10
-167.762985
 20
-89.147469
 11
-169.962982
 21
-89.147469
  0
LINE
  8
0
 10
-164.562988
 20
-109.047470
 11
-166.162979
 21
-109.047470
  0
LINE
  8
0
 10
-164.562988
 20
-89.047470
 11
-166.162979
 21
-89.047470
  0
LINE
  8
0
 10
-166.162979
 20
-91.547470
 11
-167.762985
 21
-91.547470
  0
LINE
  8
0
 10
-166.162979
 20
-106.547470
 11
-167.762985
 21
-106.547470
  0
LINE
  8
0
  6
CENTER
 10
-134.462982
 20
-86.739555
 11
-134.462982
 21
-111.425766
  0
LINE
  8
0
 10
-151.462982
 20
-88.547470
 11
-151.462982
 21
-109.547470
  0
LINE
  8
0
 10
-117.462982
 20
-88.547470
 11
-117.462982
 21
-109.547470
  0
LINE
  8
0
 10
-125.229889
 20
-94.047470
 11
-123.006546
 21
-94.047470
  0
LINE
  8
0
 10
-125.229889
 20
-104.047470
 11
-123.006546
 21
-104.047470
  0
LINE
  8
0
 10
-145.919418
 20
-104.047470
 11
-143.696075
 21
-104.047470
  0
LINE
  8
0
 10
-145.919418
 20
-94.047470
 11
-143.696075
 21
-94.047470
  0
LINE
  8
0
 10
-143.494171
 20
-101.547470
 11
-125.431786
 21
-101.547470
  0
LINE
  8
0
 10
-143.494171
 20
-96.547470
 11
-125.431786
 21
-96.547470
  0
LINE
  8
0
 10
-142.462982
 20
-99.897469
 11
-126.462982
 21
-99.897469
  0
LINE
  8
0
 10
-142.462982
 20
-98.197472
 11
-126.462982
 21
-98.197472
  0
LINE
  8
0
 10
-142.462982
 20
-98.197472
 11
-142.462982
 21
-99.897469
  0
LINE
  8
0
 10
-126.462982
 20
-98.197472
 11
-126.462982
 21
-99.897469
  0
LINE
  8
0
 10
-151.462982
 20
-88.297470
 11
-164.562988
 21
-88.297470
  0
LINE
  8
0
 10
-151.462982
 20
-109.797470
 11
-164.562988
 21
-109.797470
  0
LINE
  8
0
 10
-117.462982
 20
-107.997467
 11
-107.362984
 21
-107.997467
  0
LINE
  8
0
 10
-117.462982
 20
-90.097473
 11
-107.362984
 21
-90.097473
  0
LINE
  8
0
 10
-151.462982
 20
-88.547470
 11
-117.462982
 21
-88.547470
  0
LINE
  8
0
 10
-151.462982
 20
-109.547470
 11
-117.462982
 21
-109.547470
  0
ARC
  8
0
 10
-134.462982
 20
-99.047470
 40
12.500000
 50
0.000000
 51
23.578184
  0
CIRCLE
  8
0
 10
-134.462982
 20
-99.047470
 40
10.500000
  0
ARC
  8
0
 10
-134.462982
 20
-99.047470
 40
12.499997
 50
156.421814
 51
203.578156
  0
ARC
  8
0
 10
-134.462982
 20
-99.047470
 40
12.499997
 50
336.421814
 51
0.000000
  0
ARC
  8
0
 10
-125.431786
 20
-97.047470
 40
0.500002
 50
12.486895
 51
90.000000
  0
ARC
  8
0
 10
-143.494171
 20
-97.047470
 40
0.500000
 50
90.000000
 51
167.513107
  0
ARC
  8
0
 10
-125.431786
 20
-101.047470
 40
0.500000
 50
270.000000
 51
347.513092
  0
ARC
  8
0
 10
-143.494171
 20
-101.047470
 40
0.500002
 50
192.486893
 51
270.000000
  0
ARC
  8
0
 10
-134.462982
 20
-99.047470
 40
9.750000
 50
0.000000
 51
359.464569
  0
POINT
  8
0
 10
100.036980
 20
-156.047470
  0
POINT
  8
0
 10
171.036987
 20
-156.047470
  0
LINE
  8
0
  6
CENTER
 10
135.536987
 20
-124.090492
 11
135.536987
 21
-168.895752
  0
LINE
  8
0
 10
152.536987
 20
-145.547470
 11
152.536987
 21
-166.547470
  0
LINE
  8
0
 10
151.001083
 20
-145.547470
 11
152.536987
 21
-145.547470
  0
LINE
  8
0
  6
CENTER
 10
147.536987
 20
-142.079926
 11
147.536987
 21
-149.970764
  0
LINE
  8
0
  6
CENTER
 10
94.450050
 20
-156.047470
 11
174.780060
 21
-156.047470
  0
LINE
  8
0
  6
CENTER
 10
144.143173
 20
-145.047470
 11
152.536987
 21
-145.047470
  0
LINE
  8
0
 10
148.036987
 20
-141.047470
 11
148.036987
 21
-141.583374
  0
LINE
  8
0
 10
150.036987
 20
-147.496964
 11
150.036987
 21
-164.047470
  0
LINE
  8
0
 10
152.536987
 20
-166.547470
 11
118.536980
 21
-166.547470
  0
LINE
  8
0
 10
118.536980
 20
-145.297470
 11
118.536980
 21
-166.797470
  0
LINE
  8
0
 10
148.036987
 20
-141.047470
 11
123.036980
 21
-141.047470
  0
LINE
  8
0
  6
CENTER
 10
123.536980
 20
-142.079926
 11
123.536980
 21
-149.970764
  0
LINE
  8
0
  6
CENTER
 10
126.930786
 20
-145.047470
 11
118.536980
 21
-145.047470
  0
LINE
  8
0
 10
123.036980
 20
-141.047470
 11
123.036980
 21
-141.583374
  0
LINE
  8
0
 10
148.036987
 20
-141.583374
 11
123.036980
 21
-141.583374
  0
LINE
  8
0
 10
121.036980
 20
-147.496964
 11
121.036980
 21
-164.047470
  0
LINE
  8
0
 10
150.036987
 20
-164.047470
 11
121.036980
 21
-164.047470
  0
LINE
  8
0
 10
144.391983
 20
-146.583374
 11
126.681976
 21
-146.583374
  0
LINE
  8
0
 10
145.286987
 20
-126.547470
 11
145.286987
 21
-141.047470
  0
LINE
  8
0
 10
144.286987
 20
-125.547470
 11
126.786980
 21
-125.547470
  0
LINE
  8
0
 10
125.786980
 20
-126.547470
 11
125.786980
 21
-141.047470
  0
LINE
  8
0
 10
145.286987
 20
-135.547470
 11
125.786980
 21
-135.547470
  0
LINE
  8
0
 10
165.636993
 20
-166.797470
 11
165.636993
 21
-145.297470
  0
LINE
  8
0
 10
171.036987
 20
-165.947479
 11
171.036987
 21
-146.147461
  0
LINE
  8
0
 10
168.837006
 20
-165.947479
 11
168.837006
 21
-146.147461
  0
LINE
  8
0
 10
167.237000
 20
-166.047470
 11
167.237000
 21
-146.047470
  0
LINE
  8
0
 10
168.836975
 20
-146.147461
 11
171.036987
 21
-146.147461
  0
LINE
  8
0
 10
168.836975
 20
-165.947464
 11
171.036987
 21
-165.947464
  0
LINE
  8
0
 10
165.636993
 20
-146.047455
 11
167.236969
 21
-146.047455
  0
LINE
  8
0
 10
165.636993
 20
-166.047455
 11
167.236969
 21
-166.047455
  0
LINE
  8
0
 10
167.236969
 20
-163.547455
 11
168.836975
 21
-163.547455
  0
LINE
  8
0
 10
167.236969
 20
-148.547455
 11
168.836975
 21
-148.547455
  0
LINE
  8
0
 10
165.636993
 20
-145.297455
 11
152.536987
 21
-145.297455
  0
LINE
  8
0
 10
165.636993
 20
-166.797455
 11
152.536987
 21
-166.797455
  0
LINE
  8
0
 10
120.072876
 20
-145.547470
 11
118.536980
 21
-145.547470
  0
LINE
  8
0
 10
105.436981
 20
-145.297470
 11
118.536980
 21
-145.297470
  0
LINE
  8
0
 10
105.436981
 20
-145.297470
 11
105.436981
 21
-166.797470
  0
LINE
  8
0
 10
100.036980
 20
-146.147461
 11
100.036980
 21
-165.947479
  0
LINE
  8
0
 10
102.236984
 20
-146.147461
 11
102.236984
 21
-165.947479
  0
LINE
  8
0
 10
103.836983
 20
-146.047470
 11
103.836983
 21
-166.047470
  0
LINE
  8
0
 10
102.236984
 20
-165.947479
 11
100.036980
 21
-165.947479
  0
LINE
  8
0
 10
102.236984
 20
-146.147461
 11
100.036980
 21
-146.147461
  0
LINE
  8
0
 10
105.436981
 20
-166.047470
 11
103.836983
 21
-166.047470
  0
LINE
  8
0
 10
105.436981
 20
-146.047470
 11
103.836983
 21
-146.047470
  0
LINE
  8
0
 10
103.836983
 20
-148.547470
 11
102.236984
 21
-148.547470
  0
LINE
  8
0
 10
103.836983
 20
-163.547470
 11
102.236984
 21
-163.547470
  0
LINE
  8
0
 10
105.436981
 20
-166.797470
 11
118.536980
 21
-166.797470
  0
LINE
  8
0
 10
165.636993
 20
-166.797470
 11
165.636993
 21
-145.297470
  0
LINE
  8
0
 10
171.036987
 20
-165.947479
 11
171.036987
 21
-146.147461
  0
LINE
  8
0
 10
168.837006
 20
-165.947479
 11
168.837006
 21
-146.147461
  0
LINE
  8
0
 10
167.237000
 20
-166.047470
 11
167.237000
 21
-146.047470
  0
LINE
  8
0
 10
168.836975
 20
-146.147461
 11
171.036987
 21
-146.147461
  0
LINE
  8
0
 10
168.836975
 20
-165.947464
 11
171.036987
 21
-165.947464
  0
LINE
  8
0
 10
165.636993
 20
-146.047455
 11
167.236969
 21
-146.047455
  0
LINE
  8
0
 10
165.636993
 20
-166.047455
 11
167.236969
 21
-166.047455
  0
LINE
  8
0
 10
167.236969
 20
-163.547455
 11
168.836975
 21
-163.547455
  0
LINE
  8
0
 10
167.236969
 20
-148.547455
 11
168.836975
 21
-148.547455
  0
LINE
  8
0
 10
165.636993
 20
-145.297455
 11
152.536987
 21
-145.297455
  0
LINE
  8
0
 10
165.636993
 20
-166.797455
 11
152.536987
 21
-166.797455
  0
LINE
  8
0
 10
105.436981
 20
-145.297470
 11
118.536980
 21
-145.297470
  0
LINE
  8
0
 10
105.436981
 20
-145.297470
 11
105.436981
 21
-166.797470
  0
LINE
  8
0
 10
100.036980
 20
-146.147461
 11
100.036980
 21
-165.947479
  0
LINE
  8
0
 10
102.236984
 20
-146.147461
 11
102.236984
 21
-165.947479
  0
LINE
  8
0
 10
103.836983
 20
-146.047470
 11
103.836983
 21
-166.047470
  0
LINE
  8
0
 10
102.236984
 20
-165.947479
 11
100.036980
 21
-165.947479
  0
LINE
  8
0
 10
102.236984
 20
-146.147461
 11
100.036980
 21
-146.147461
  0
LINE
  8
0
 10
105.436981
 20
-166.047470
 11
103.836983
 21
-166.047470
  0
LINE
  8
0
 10
105.436981
 20
-146.047470
 11
103.836983
 21
-146.047470
  0
LINE
  8
0
 10
103.836983
 20
-148.547470
 11
102.236984
 21
-148.547470
  0
LINE
  8
0
 10
103.836983
 20
-163.547470
 11
102.236984
 21
-163.547470
  0
LINE
  8
0
 10
105.436981
 20
-166.797470
 11
118.536980
 21
-166.797470
  0
CIRCLE
  8
0
 10
147.536987
 20
-145.047470
 40
2.100000
  0
ARC
  8
0
 10
147.536987
 20
-145.047470
 40
3.499995
 50
351.786774
 51
81.786774
  0
ARC
  8
0
 10
147.536987
 20
-145.047470
 40
3.500001
 50
206.028946
 51
315.584656
  0
CIRCLE
  8
0
 10
123.536980
 20
-145.047470
 40
2.100000
  0
ARC
  8
0
 10
123.536980
 20
-145.047470
 40
3.499995
 50
98.213226
 51
188.213211
  0
ARC
  8
0
 10
123.536980
 20
-145.047470
 40
3.500003
 50
224.415344
 51
333.970764
  0
ARC
  8
0
 10
126.786980
 20
-126.547470
 40
1.000000
 50
90.000000
 51
180.000000
  0
ARC
  8
0
 10
144.286987
 20
-126.547470
 40
1.000000
 50
0.000000
 51
90.000000
  0
POINT
  8
0
 10
51.849731
 20
-156.047470
  0
POINT
  8
0
 10
62.599731
 20
-156.047470
  0
LINE
  8
0
 10
41.849731
 20
-166.547470
 11
49.544846
 21
-166.547470
  0
LINE
  8
0
  6
CENTER
 10
51.849731
 20
-125.018471
 11
51.849731
 21
-168.455536
  0
LINE
  8
0
 10
41.849731
 20
-141.047470
 11
61.849731
 21
-141.047470
  0
LINE
  8
0
 10
41.349731
 20
-141.547470
 11
41.349731
 21
-153.742584
  0
LINE
  8
0
 10
62.349731
 20
-141.547470
 11
62.349731
 21
-153.742584
  0
LINE
  8
0
 10
61.849728
 20
-141.047470
 11
62.349731
 21
-141.547470
  0
LINE
  8
0
 10
41.849716
 20
-141.047470
 11
41.349716
 21
-141.547470
  0
LINE
  8
0
 10
41.349728
 20
-166.047470
 11
41.849728
 21
-166.547470
  0
LINE
  8
0
 10
61.849724
 20
-166.547455
 11
62.349724
 21
-166.047455
  0
LINE
  8
0
  6
CENTER
 10
40.371735
 20
-156.047470
 11
62.877380
 21
-156.047470
  0
LINE
  8
0
 10
42.599731
 20
-135.547470
 11
61.099731
 21
-135.547470
  0
LINE
  8
0
 10
61.599731
 20
-136.047470
 11
61.599731
 21
-141.047470
  0
LINE
  8
0
 10
42.099731
 20
-136.047470
 11
42.099731
 21
-141.047470
  0
LINE
  8
0
 10
49.349731
 20
-126.047470
 11
49.349731
 21
-135.047470
  0
LINE
  8
0
 10
54.349731
 20
-126.047470
 11
54.349731
 21
-135.047470
  0
LINE
  8
0
 10
49.849731
 20
-125.547470
 11
53.849731
 21
-125.547470
  0
LINE
  8
0
 10
41.349731
 20
-158.352356
 11
41.349731
 21
-166.047470
  0
LINE
  8
0
 10
54.154617
 20
-166.547470
 11
61.849731
 21
-166.547470
  0
LINE
  8
0
 10
62.349731
 20
-158.352356
 11
62.349731
 21
-166.047470
  0
ARC
  8
0
 10
61.099731
 20
-136.047470
 40
0.500000
 50
0.000000
 51
90.000000
  0
ARC
  8
0
 10
42.599731
 20
-136.047470
 40
0.500000
 50
90.000000
 51
180.000000
  0
ARC
  8
0
 10
49.849731
 20
-126.047470
 40
0.500000
 50
90.000000
 51
180.000000
  0
ARC
  8
0
 10
53.849731
 20
-126.047470
 40
0.500000
 50
0.000000
 51
90.000000
  0
ARC
  8
0
 10
48.849731
 20
-135.047470
 40
0.500000
 50
270.000000
 51
0.000000
  0
ARC
  8
0
 10
54.849731
 20
-135.047470
 40
0.500000
 50
180.000000
 51
270.000000
  0
CIRCLE
  8
0
 10
51.849731
 20
-156.047470
 40
9.900000
  0
CIRCLE
  8
0
 10
51.849731
 20
-156.047470
 40
6.100000
  0
CIRCLE
  8
0
 10
51.849731
 20
-156.047470
 40
10.750000
  0
POINT
  8
0
 10
100.036980
 20
-96.047485
  0
POINT
  8
0
 10
171.036987
 20
-96.047485
  0
LINE
  8
0
  6
CENTER
 10
135.536972
 20
-83.739563
 11
135.536972
 21
-108.425781
  0
LINE
  8
0
 10
118.536972
 20
-106.547485
 11
152.536972
 21
-106.547485
  0
LINE
  8
0
 10
118.536972
 20
-85.547485
 11
152.536972
 21
-85.547485
  0
LINE
  8
0
 10
118.536972
 20
-85.297478
 11
118.536972
 21
-106.797485
  0
LINE
  8
0
 10
152.536972
 20
-85.297478
 11
152.536972
 21
-106.797478
  0
LINE
  8
0
 10
144.770065
 20
-91.047485
 11
146.993408
 21
-91.047485
  0
LINE
  8
0
 10
144.770065
 20
-101.047485
 11
146.993408
 21
-101.047485
  0
LINE
  8
0
 10
124.080536
 20
-101.047485
 11
126.303879
 21
-101.047485
  0
LINE
  8
0
 10
124.080536
 20
-91.047485
 11
126.303879
 21
-91.047485
  0
LINE
  8
0
 10
126.505783
 20
-98.547485
 11
144.568176
 21
-98.547485
  0
LINE
  8
0
 10
126.505783
 20
-93.547485
 11
144.568176
 21
-93.547485
  0
LINE
  8
0
 10
127.536972
 20
-96.897484
 11
143.536972
 21
-96.897484
  0
LINE
  8
0
 10
127.536972
 20
-95.197479
 11
143.536972
 21
-95.197479
  0
LINE
  8
0
 10
127.536972
 20
-95.197479
 11
127.536972
 21
-96.897484
  0
LINE
  8
0
 10
143.536972
 20
-95.197479
 11
143.536972
 21
-96.897484
  0
LINE
  8
0
  6
CENTER
 10
94.450050
 20
-96.047485
 11
174.577728
 21
-96.047485
  0
LINE
  8
0
 10
165.636993
 20
-106.797485
 11
165.636993
 21
-85.297485
  0
LINE
  8
0
 10
171.036987
 20
-105.947487
 11
171.036987
 21
-86.147484
  0
LINE
  8
0
 10
168.837006
 20
-105.947487
 11
168.837006
 21
-86.147484
  0
LINE
  8
0
 10
167.237000
 20
-106.047485
 11
167.237000
 21
-86.047485
  0
LINE
  8
0
 10
168.836975
 20
-86.147476
 11
171.036987
 21
-86.147476
  0
LINE
  8
0
 10
168.836975
 20
-105.947479
 11
171.036987
 21
-105.947479
  0
LINE
  8
0
 10
165.636993
 20
-86.047478
 11
167.236969
 21
-86.047478
  0
LINE
  8
0
 10
165.636993
 20
-106.047478
 11
167.236969
 21
-106.047478
  0
LINE
  8
0
 10
167.236969
 20
-103.547478
 11
168.836975
 21
-103.547478
  0
LINE
  8
0
 10
167.236969
 20
-88.547478
 11
168.836975
 21
-88.547478
  0
LINE
  8
0
 10
165.636993
 20
-85.297478
 11
152.536987
 21
-85.297478
  0
LINE
  8
0
 10
165.636993
 20
-106.797478
 11
152.536987
 21
-106.797478
  0
LINE
  8
0
 10
105.436981
 20
-85.297485
 11
118.536980
 21
-85.297485
  0
LINE
  8
0
 10
105.436981
 20
-85.297485
 11
105.436981
 21
-106.797485
  0
LINE
  8
0
 10
100.036980
 20
-86.147484
 11
100.036980
 21
-105.947487
  0
LINE
  8
0
 10
102.236984
 20
-86.147484
 11
102.236984
 21
-105.947487
  0
LINE
  8
0
 10
103.836983
 20
-86.047485
 11
103.836983
 21
-106.047485
  0
LINE
  8
0
 10
102.236984
 20
-105.947487
 11
100.036980
 21
-105.947487
  0
LINE
  8
0
 10
102.236984
 20
-86.147484
 11
100.036980
 21
-86.147484
  0
LINE
  8
0
 10
105.436981
 20
-106.047485
 11
103.836983
 21
-106.047485
  0
LINE
  8
0
 10
105.436981
 20
-86.047485
 11
103.836983
 21
-86.047485
  0
LINE
  8
0
 10
103.836983
 20
-88.547485
 11
102.236984
 21
-88.547485
  0
LINE
  8
0
 10
103.836983
 20
-103.547485
 11
102.236984
 21
-103.547485
  0
LINE
  8
0
 10
105.436981
 20
-106.797485
 11
118.536980
 21
-106.797485
  0
ARC
  8
0
 10
135.536972
 20
-96.047485
 40
12.500000
 50
0.000000
 51
23.578184
  0
CIRCLE
  8
0
 10
135.536972
 20
-96.047485
 40
10.500000
  0
ARC
  8
0
 10
135.536972
 20
-96.047485
 40
12.499997
 50
156.421814
 51
203.578156
  0
ARC
  8
0
 10
135.536972
 20
-96.047485
 40
12.499997
 50
336.421814
 51
0.000000
  0
ARC
  8
0
 10
144.568176
 20
-94.047485
 40
0.500002
 50
12.486895
 51
90.000000
  0
ARC
  8
0
 10
126.505783
 20
-94.047485
 40
0.500000
 50
90.000000
 51
167.513107
  0
ARC
  8
0
 10
144.568176
 20
-98.047485
 40
0.500000
 50
270.000000
 51
347.513947
  0
ARC
  8
0
 10
126.505783
 20
-98.047485
 40
0.500000
 50
192.486038
 51
270.000000
  0
ARC
  8
0
 10
135.536972
 20
-96.047485
 40
9.750000
 50
0.000000
 51
359.464630
  0
POINT
  8
0
 10
-44.716690
 20
104.900108
  0
POINT
  8
0
 10
-35.966690
 20
104.900108
  0
LINE
  8
0
  6
CENTER
 10
-44.716690
 20
135.750580
 11
-44.716690
 21
92.607582
  0
LINE
  8
0
  6
CENTER
 10
-54.126724
 20
104.900108
 11
-35.054947
 21
104.900108
  0
LINE
  8
0
 10
-53.466690
 20
97.400108
 11
-35.966690
 21
97.400108
  0
LINE
  8
0
 10
-39.216690
 20
97.400108
 11
-39.216690
 21
94.400108
  0
LINE
  8
0
 10
-50.216690
 20
97.400108
 11
-50.216690
 21
94.400108
  0
LINE
  8
0
 10
-50.216690
 20
94.400108
 11
-39.216690
 21
94.400108
  0
LINE
  8
0
 10
-39.716690
 20
119.900108
 11
-39.716690
 21
116.400108
  0
LINE
  8
0
 10
-49.716690
 20
119.900108
 11
-49.716690
 21
116.400108
  0
LINE
  8
0
 10
-35.966690
 20
112.400108
 11
-53.466690
 21
112.400108
  0
LINE
  8
0
 10
-35.966690
 20
119.900108
 11
-53.466690
 21
119.900108
  0
LINE
  8
0
 10
-35.966690
 20
116.400108
 11
-53.466690
 21
116.400108
  0
LINE
  8
0
 10
-36.466690
 20
124.400108
 11
-36.466690
 21
119.900108
  0
LINE
  8
0
 10
-42.216690
 20
134.400116
 11
-42.216690
 21
125.900108
  0
LINE
  8
0
 10
-36.966690
 20
124.900108
 11
-52.466690
 21
124.900108
  0
LINE
  8
0
 10
-52.966690
 20
124.400108
 11
-52.966690
 21
119.900108
  0
LINE
  8
0
 10
-47.216690
 20
134.400116
 11
-47.216690
 21
125.900108
  0
LINE
  8
0
 10
-42.716690
 20
134.900116
 11
-46.716690
 21
134.900116
  0
LINE
  8
0
 10
-53.466690
 20
119.900108
 11
-53.466690
 21
97.400108
  0
LINE
  8
0
 10
-35.966690
 20
119.900108
 11
-35.966690
 21
97.400108
  0
ARC
  8
0
 10
-36.966690
 20
124.400108
 40
0.500000
 50
0.000000
 51
90.000000
  0
ARC
  8
0
 10
-42.716690
 20
134.400116
 40
0.500000
 50
0.000000
 51
90.000000
  0
ARC
  8
0
 10
-41.216690
 20
125.900108
 40
1.000000
 50
180.000000
 51
270.000000
  0
ARC
  8
0
 10
-52.466690
 20
124.400108
 40
0.500000
 50
90.000000
 51
180.000000
  0
ARC
  8
0
 10
-46.716690
 20
134.400116
 40
0.500000
 50
90.000000
 51
180.000000
  0
ARC
  8
0
 10
-48.216690
 20
125.900108
 40
1.000000
 50
270.000000
 51
0.000000
  0
CIRCLE
  8
0
 10
-44.716690
 20
104.900108
 40
5.900000
  0
CIRCLE
  8
0
 10
-44.716690
 20
104.900108
 40
3.100000
  0
CIRCLE
  8
0
 10
-44.716690
 20
104.900108
 40
6.450000
  0
POINT
  8
0
 10
-54.716675
 20
-28.041542
  0
POINT
  8
0
 10
-45.966675
 20
-28.041542
  0
LINE
  8
0
  6
CENTER
 10
-54.716675
 20
2.808937
 11
-54.716675
 21
-40.334068
  0
LINE
  8
0
  6
CENTER
 10
-64.126709
 20
-28.041542
 11
-45.054932
 21
-28.041542
  0
LINE
  8
0
 10
-63.466675
 20
-35.541542
 11
-45.966675
 21
-35.541542
  0
LINE
  8
0
 10
-49.216675
 20
-35.541542
 11
-49.216675
 21
-38.541542
  0
LINE
  8
0
 10
-60.216675
 20
-35.541542
 11
-60.216675
 21
-38.541542
  0
LINE
  8
0
 10
-60.216675
 20
-38.541542
 11
-49.216675
 21
-38.541542
  0
LINE
  8
0
 10
-49.716675
 20
-13.041542
 11
-49.716675
 21
-16.541542
  0
LINE
  8
0
 10
-59.716675
 20
-13.041542
 11
-59.716675
 21
-16.541542
  0
LINE
  8
0
 10
-45.966675
 20
-20.541542
 11
-63.466675
 21
-20.541542
  0
LINE
  8
0
 10
-45.966675
 20
-13.041542
 11
-63.466675
 21
-13.041542
  0
LINE
  8
0
 10
-45.966675
 20
-16.541542
 11
-63.466675
 21
-16.541542
  0
LINE
  8
0
 10
-46.466675
 20
-8.541542
 11
-46.466675
 21
-13.041542
  0
LINE
  8
0
 10
-52.216675
 20
1.458458
 11
-52.216675
 21
-7.041542
  0
LINE
  8
0
 10
-46.966675
 20
-8.041542
 11
-62.466675
 21
-8.041542
  0
LINE
  8
0
 10
-62.966675
 20
-8.541542
 11
-62.966675
 21
-13.041542
  0
LINE
  8
0
 10
-57.216675
 20
1.458458
 11
-57.216675
 21
-7.041542
  0
LINE
  8
0
 10
-52.716675
 20
1.958458
 11
-56.716675
 21
1.958458
  0
LINE
  8
0
 10
-45.966675
 20
-13.041542
 11
-45.966675
 21
-35.541542
  0
LINE
  8
0
 10
-63.466675
 20
-13.041542
 11
-63.466675
 21
-35.541542
  0
ARC
  8
0
 10
-46.966675
 20
-8.541542
 40
0.500000
 50
0.000000
 51
90.000000
  0
ARC
  8
0
 10
-52.716675
 20
1.458458
 40
0.500000
 50
0.000000
 51
90.000000
  0
ARC
  8
0
 10
-51.216675
 20
-7.041542
 40
1.000000
 50
180.000000
 51
270.000000
  0
ARC
  8
0
 10
-62.466675
 20
-8.541542
 40
0.500000
 50
90.000000
 51
180.000000
  0
ARC
  8
0
 10
-56.716675
 20
1.458458
 40
0.500000
 50
90.000000
 51
180.000000
  0
ARC
  8
0
 10
-58.216675
 20
-7.041542
 40
1.000000
 50
270.000000
 51
0.000000
  0
CIRCLE
  8
0
 10
-54.716675
 20
-28.041542
 40
7.500000
  0
CIRCLE
  8
0
 10
-54.716675
 20
-28.041542
 40
6.900000
  0
CIRCLE
  8
0
 10
-54.716675
 20
-28.041542
 40
4.100000
  0
POINT
  8
0
 10
222.468170
 20
-28.041527
  0
POINT
  8
0
 10
232.968170
 20
-28.041527
  0
LINE
  8
0
  6
CENTER
 10
222.468170
 20
2.985512
 11
222.468170
 21
-40.573975
  0
LINE
  8
0
 10
232.968170
 20
-13.041527
 11
232.968170
 21
-38.541527
  0
LINE
  8
0
 10
232.968170
 20
-38.541527
 11
211.968170
 21
-38.541527
  0
LINE
  8
0
 10
211.968170
 20
-13.041527
 11
211.968170
 21
-38.541527
  0
LINE
  8
0
 10
232.968170
 20
-13.041527
 11
211.968170
 21
-13.041527
  0
LINE
  8
0
 10
232.968170
 20
-17.541527
 11
211.968170
 21
-17.541527
  0
LINE
  8
0
  6
CENTER
 10
235.526291
 20
-28.041527
 11
210.677612
 21
-28.041527
  0
LINE
  8
0
 10
232.218170
 20
-8.041527
 11
232.218170
 21
-13.041527
  0
LINE
  8
0
 10
224.968170
 20
1.958473
 11
224.968170
 21
-7.541527
  0
LINE
  8
0
 10
231.718170
 20
-7.541527
 11
213.218170
 21
-7.541527
  0
LINE
  8
0
 10
212.718170
 20
-8.041527
 11
212.718170
 21
-13.041527
  0
LINE
  8
0
 10
219.968170
 20
1.958473
 11
219.968170
 21
-7.541527
  0
LINE
  8
0
 10
224.468170
 20
2.458473
 11
220.468170
 21
2.458473
  0
ARC
  8
0
 10
231.718170
 20
-8.041527
 40
0.500000
 50
0.000000
 51
90.000000
  0
ARC
  8
0
 10
224.468170
 20
1.958473
 40
0.500000
 50
0.000000
 51
90.000000
  0
ARC
  8
0
 10
213.218170
 20
-8.041527
 40
0.500000
 50
90.000000
 51
180.000000
  0
ARC
  8
0
 10
220.468170
 20
1.958473
 40
0.500000
 50
90.000000
 51
180.000000
  0
CIRCLE
  8
0
 10
222.468170
 20
-28.041527
 40
8.400000
  0
CIRCLE
  8
0
 10
222.468170
 20
-28.041527
 40
5.100000
  0
CIRCLE
  8
0
 10
222.468170
 20
-28.041527
 40
8.950000
  0
POINT
  8
0
 10
222.468170
 20
-156.047470
  0
POINT
  8
0
 10
233.218170
 20
-156.047470
  0
LINE
  8
0
 10
212.468170
 20
-166.547470
 11
220.163284
 21
-166.547470
  0
LINE
  8
0
  6
CENTER
 10
222.468170
 20
-125.018471
 11
222.468170
 21
-168.455536
  0
LINE
  8
0
 10
212.468170
 20
-141.047470
 11
232.468170
 21
-141.047470
  0
LINE
  8
0
 10
211.968170
 20
-141.547470
 11
211.968170
 21
-153.742584
  0
LINE
  8
0
 10
232.968170
 20
-141.547470
 11
232.968170
 21
-153.742584
  0
LINE
  8
0
 10
232.468170
 20
-141.047470
 11
232.968170
 21
-141.547470
  0
LINE
  8
0
 10
212.468155
 20
-141.047470
 11
211.968155
 21
-141.547470
  0
LINE
  8
0
 10
211.968170
 20
-166.047470
 11
212.468170
 21
-166.547470
  0
LINE
  8
0
 10
232.468170
 20
-166.547455
 11
232.968170
 21
-166.047455
  0
LINE
  8
0
  6
CENTER
 10
210.990173
 20
-156.047470
 11
233.495819
 21
-156.047470
  0
LINE
  8
0
 10
213.218170
 20
-135.547470
 11
231.718170
 21
-135.547470
  0
LINE
  8
0
 10
232.218170
 20
-136.047470
 11
232.218170
 21
-141.047470
  0
LINE
  8
0
 10
212.718170
 20
-136.047470
 11
212.718170
 21
-141.047470
  0
LINE
  8
0
 10
219.968170
 20
-126.047470
 11
219.968170
 21
-135.047470
  0
LINE
  8
0
 10
224.968170
 20
-126.047470
 11
224.968170
 21
-135.047470
  0
LINE
  8
0
 10
220.468170
 20
-125.547470
 11
224.468170
 21
-125.547470
  0
LINE
  8
0
 10
211.968170
 20
-158.352356
 11
211.968170
 21
-166.047470
  0
LINE
  8
0
 10
224.773056
 20
-166.547470
 11
232.468170
 21
-166.547470
  0
LINE
  8
0
 10
232.968170
 20
-158.352356
 11
232.968170
 21
-166.047470
  0
ARC
  8
0
 10
231.718170
 20
-136.047470
 40
0.500000
 50
0.000000
 51
90.000000
  0
ARC
  8
0
 10
213.218170
 20
-136.047470
 40
0.500000
 50
90.000000
 51
180.000000
  0
ARC
  8
0
 10
220.468170
 20
-126.047470
 40
0.500000
 50
90.000000
 51
180.000000
  0
ARC
  8
0
 10
224.468170
 20
-126.047470
 40
0.500000
 50
0.000000
 51
90.000000
  0
ARC
  8
0
 10
219.468170
 20
-135.047470
 40
0.500000
 50
270.000000
 51
0.000000
  0
ARC
  8
0
 10
225.468170
 20
-135.047470
 40
0.500000
 50
180.000000
 51
270.000000
  0
CIRCLE
  8
0
 10
222.468170
 20
-156.047470
 40
9.900000
  0
CIRCLE
  8
0
 10
222.468170
 20
-156.047470
 40
6.100000
  0
CIRCLE
  8
0
 10
222.468170
 20
-156.047470
 40
10.750000
  0
ENDSEC
  0
EOF
