  0
SECTION
  2
HEADER
  0
ENDSEC
  0
SECTION
  2
TABLES
  0
TABLE
  2
LTYPE
 70
     4
  0
LTYPE
  2
CONTINUOUS
 70
    64
  3
Solid line
 72
    65
 73
     0
 40
0.000000
  0
LTYPE
  2
DASHED
 70
    64
  3
__ __ __ __ __ __ __ __ __ __ __ __ __ __ __
 72
    65
 73
     2
 40
3.500000
 49
2.000000
 49
-1.500000
  0
LTYPE
  2
CENTER
 70
    64
  3
____ _ ____ _ ____ _ ____ _ ____ _ ____ _ ____
 72
    65
 73
     4
 40
17.500000
 49
13.000000
 49
-1.500000
 49
1.500000
 49
-1.500000
  0
LTYPE
  2
PHANTOM
 70
    64
  3
_____ _ _ _____ _ _ _____ _ _ _____ _ _ ____  
 72
    65
 73
     6
 40
15.500000
 49
8.000000
 49
-1.500000
 49
1.500000
 49
-1.500000
 49
1.500000
 49
-1.500000
  0
LTYPE
  2
DASHED1
 70
    64
  3
__ __ __ __ __ __ __ __ __ __ __ __ __ __ __
 72
    65
 73
     2
 40
1.500000
 49
1.000000
 49
-0.500000
  0
LTYPE
  2
DASHED2
 70
    64
  3
__ __ __ __ __ __ __ __ __ __ __ __ __ __ __
 72
    65
 73
     2
 40
3.500000
 49
2.500000
 49
-1.000000
  0
LTYPE
  2
DASHED3
 70
    64
  3
__ __ __ __ __ __ __ __ __ __ __ __ __ __ __
 72
    65
 73
     2
 40
6.000000
 49
4.000000
 49
-2.000000
  0
LTYPE
  2
DASHED4
 70
    64
  3
__ __ __ __ __ __ __ __ __ __ __ __ __ __ __
 72
    65
 73
     2
 40
12.000000
 49
10.000000
 49
-2.000000
  0
LTYPE
  2
DASHED5
 70
    64
  3
__ __ __ __ __ __ __ __ __ __ __ __ __ __ __
 72
    65
 73
     2
 40
17.000000
 49
15.000000
 49
-2.000000
  0
LTYPE
  2
DASHED6
 70
    64
  3
__ __ __ __ __ __ __ __ __ __ __ __ __ __ __
 72
    65
 73
     2
 40
29.000000
 49
27.000000
 49
-2.000000
  0
LTYPE
  2
PHANTOM1
 70
    64
  3
_____ _ _ _____ _ _ _____ _ _ _____ _ _ ____  
 72
    65
 73
     6
 40
31.000000
 49
25.000000
 49
-1.500000
 49
1.000000
 49
-1.000000
 49
1.000000
 49
-1.500000
  0
LTYPE
  2
PHANTOM2
 70
    64
  3
_____ _ _ _____ _ _ _____ _ _ _____ _ _ ____  
 72
    65
 73
     6
 40
36.000000
 49
27.000000
 49
-1.500000
 49
2.500000
 49
-1.000000
 49
2.500000
 49
-1.500000
  0
LTYPE
  2
PHANTOM3
 70
    64
  3
_____ _ _ _____ _ _ _____ _ _ _____ _ _ ____  
 72
    65
 73
     6
 40
78.000000
 49
64.000000
 49
-2.000000
 49
4.000000
 49
-2.000000
 49
4.000000
 49
-2.000000
  0
LTYPE
  2
CENTER1
 70
    64
  3
____ _ ____ _ ____ _ ____ _ ____ _ ____ _ ____
 72
    65
 73
     4
 40
19.000000
 49
14.000000
 49
-1.000000
 49
3.000000
 49
-1.000000
  0
LTYPE
  2
CENTER2
 70
    64
  3
____ _ ____ _ ____ _ ____ _ ____ _ ____ _ ____
 72
    65
 73
     4
 40
28.500000
 49
25.000000
 49
-1.000000
 49
1.500000
 49
-1.000000
  0
LTYPE
  2
CENTER3
 70
    64
  3
____ _ ____ _ ____ _ ____ _ ____ _ ____ _ ____
 72
    65
 73
     4
 40
31.500000
 49
27.000000
 49
-1.000000
 49
2.500000
 49
-1.000000
  0
LTYPE
  2
CENTER4
 70
    64
  3
____ _ ____ _ ____ _ ____ _ ____ _ ____ _ ____
 72
    65
 73
     4
 40
50.000000
 49
45.000000
 49
-1.000000
 49
3.000000
 49
-1.000000
  0
LTYPE
  2
CENTER5
 70
    64
  3
____ _ ____ _ ____ _ ____ _ ____ _ ____ _ ____
 72
    65
 73
     4
 40
100.000000
 49
92.000000
 49
-2.000000
 49
4.000000
 49
-2.000000
  0
LTYPE
  2
SBK1
 70
    64
  3
______ _ _ _ ______ _ _ _ ______ _ _ _ _____  
 72
    65
 73
     8
 40
60.500000
 49
45.000000
 49
-2.000000
 49
2.500000
 49
-2.000000
 49
2.500000
 49
-2.000000
 49
2.500000
 49
-2.000000
  0
LTYPE
  2
SBK2
 70
    64
  3
______ _ _ _ ______ _ _ _ ______ _ _ _ _____  
 72
    65
 73
     8
 40
84.000000
 49
64.000000
 49
-2.000000
 49
4.000000
 49
-2.000000
 49
4.000000
 49
-2.000000
 49
4.000000
 49
-2.000000
  0
LTYPE
  2
STCH
 70
    64
  3
__ __ __ __ __ __ __ __ __ __ __ __ __ __ __
 72
    65
 73
     2
 40
3.000000
 49
1.000000
 49
-2.000000
  0
LTYPE
  2
MTCH
 70
    64
  3
_____ _ _ _____ _ _ _____ _ _ _____ _ _ ____  
 72
    65
 73
     6
 40
80.000000
 49
66.000000
 49
-2.000000
 49
4.000000
 49
-2.000000
 49
4.000000
 49
-2.000000
  0
ENDTAB
  0
TABLE
  2
LAYER
 70
     1
  0
LAYER
  2
0
 70
     0
 62
     7
  6
CONTINUOUS
  0
ENDTAB
  0
TABLE
  2
STYLE
 70
     1
  0
STYLE
  2
STANDARD
 70
     0
 40
0.000000
 41
1.000000
 50
0.000000
 71
     0
 42
0.200000
  3
txt
  4
BIGFONT
  0
ENDTAB
  0
TABLE
  2
VIEW
 70
     0
  0
ENDTAB
  0
ENDSEC
  0
SECTION
  2
BLOCKS
  0
ENDSEC
  0
SECTION
  2
ENTITIES
  0
LINE
  8
0
 10
-181.250000
 20
195.500000
 11
-181.250000
 21
180.500000
  0
LINE
  8
0
 10
182.099976
 20
195.500000
 11
182.099976
 21
180.500000
  0
LINE
  8
0
 10
-281.250000
 20
180.500000
 11
-181.250000
 21
180.500000
  0
LINE
  8
0
 10
182.099976
 20
-175.000000
 11
182.099976
 21
-195.000000
  0
LINE
  8
0
 10
182.099976
 20
180.500000
 11
282.099976
 21
180.500000
  0
LINE
  8
0
 10
182.099976
 20
-175.000000
 11
282.099976
 21
-175.000000
  0
LINE
  8
0
 10
-281.250000
 20
-64.833344
 11
282.099976
 21
-64.833344
  0
LINE
  8
0
 10
-281.250000
 20
-185.000000
 11
182.099976
 21
-185.000000
  0
LINE
  8
0
 10
-297.000000
 20
210.000000
 11
297.000000
 21
210.000000
  0
LINE
  8
0
 10
-297.000000
 20
-210.000000
 11
297.000000
 21
-210.000000
  0
LINE
  8
0
 10
297.000000
 20
210.000000
 11
297.000000
 21
-210.000000
  0
LINE
  8
0
 10
-297.000000
 20
210.000000
 11
-297.000000
 21
-210.000000
  0
LINE
  8
0
 10
-281.250000
 20
195.500000
 11
282.099976
 21
195.500000
  0
LINE
  8
0
 10
-281.250000
 20
195.500000
 11
-281.250000
 21
-195.000000
  0
LINE
  8
0
 10
282.099976
 20
195.500000
 11
282.099976
 21
-195.000000
  0
LINE
  8
0
 10
-281.250000
 20
-195.000000
 11
282.099976
 21
-195.000000
  0
LINE
  8
0
 10
-281.250000
 20
-54.833344
 11
282.099976
 21
-54.833344
  0
LINE
  8
0
 10
-281.250000
 20
75.333328
 11
282.099976
 21
75.333328
  0
LINE
  8
0
 10
-281.250000
 20
65.333328
 11
282.099976
 21
65.333328
  0
LINE
  8
0
 10
0.424988
 20
-195.000000
 11
0.424988
 21
195.500000
  0
TEXT
  8
0
 10
188.021667
 20
183.779999
 40
5.800000
  1
DATE: MAY ,1992
 50
0.000000
 41
1.052632
 51
0.000000
  7
STANDARD
  0
TEXT
  8
0
 10
178.000870
 20
-190.300003
 40
7.000000
  1
ＫＯＧＡＮＥＩ，ＣＯＲＰ．
 50
0.000000
 41
0.902367
 51
15.000000
  7
STANDARD
  0
TEXT
  8
0
 10
-276.000000
 20
-61.833344
 40
5.000000
  1
MODEL:FVA6-03
 50
0.000000
 41
1.052632
 51
0.000000
  7
STANDARD
  0
TEXT
  8
0
 10
5.674988
 20
-192.000015
 40
5.000000
  1
MODEL:FVA8-03
 50
0.000000
 41
1.052632
 51
0.000000
  7
STANDARD
  0
TEXT
  8
0
 10
-279.571136
 20
182.880005
 40
6.800000
  1
HAND VALVE,FVA
 50
0.000000
 41
1.052632
 51
0.000000
  7
STANDARD
  0
TEXT
  8
0
 10
-276.000000
 20
68.333328
 40
5.000000
  1
MODEL:FVA6-01
 50
0.000000
 41
1.052632
 51
0.000000
  7
STANDARD
  0
TEXT
  8
0
 10
5.674988
 20
68.333328
 40
5.000000
  1
MODEL:FVA6-02
 50
0.000000
 41
1.052632
 51
0.000000
  7
STANDARD
  0
TEXT
  8
0
 10
5.674988
 20
-61.833344
 40
5.000000
  1
MODEL:FVA8-01
 50
0.000000
 41
1.052632
 51
0.000000
  7
STANDARD
  0
TEXT
  8
0
 10
-276.000000
 20
-192.000015
 40
5.000000
  1
MODEL:FVA8-02
 50
0.000000
 41
1.052632
 51
0.000000
  7
STANDARD
  0
POINT
  8
0
 10
-124.307526
 20
100.697235
  0
POINT
  8
0
 10
-111.307526
 20
100.697235
  0
LINE
  8
0
  6
CENTER
 10
-153.807526
 20
134.839981
 11
-153.807526
 21
85.721687
  0
LINE
  8
0
 10
-148.307526
 20
93.197227
 11
-148.307526
 21
90.197235
  0
LINE
  8
0
 10
-139.807526
 20
108.197235
 11
-139.807526
 21
93.197235
  0
LINE
  8
0
 10
-153.807526
 20
115.697227
 11
-143.807526
 21
115.697235
  0
LINE
  8
0
 10
-141.343414
 20
108.197235
 11
-139.807526
 21
108.197235
  0
LINE
  8
0
 10
-143.807526
 20
115.697235
 11
-143.807526
 21
112.197235
  0
LINE
  8
0
  6
CENTER
 10
-147.498520
 20
108.697227
 11
-140.423309
 21
108.697235
  0
LINE
  8
0
  6
CENTER
 10
-144.807526
 20
111.805145
 11
-144.807526
 21
105.420197
  0
LINE
  8
0
 10
-142.307526
 20
103.798248
 11
-142.307526
 21
95.697235
  0
LINE
  8
0
 10
-141.307526
 20
105.868805
 11
-141.307526
 21
94.697235
  0
LINE
  8
0
  6
CENTER
 10
-186.088379
 20
100.697227
 11
-118.219017
 21
100.697235
  0
LINE
  8
0
 10
-146.807526
 20
115.697235
 11
-146.807526
 21
112.197235
  0
LINE
  8
0
 10
-148.307526
 20
115.697235
 11
-148.307526
 21
112.197235
  0
LINE
  8
0
 10
-139.807510
 20
93.197235
 11
-167.807526
 21
93.197227
  0
LINE
  8
0
 10
-148.307510
 20
90.197235
 11
-159.307526
 21
90.197227
  0
LINE
  8
0
 10
-159.307526
 20
93.197227
 11
-159.307526
 21
90.197227
  0
LINE
  8
0
 10
-167.807526
 20
108.197227
 11
-167.807526
 21
93.197227
  0
LINE
  8
0
 10
-153.807526
 20
115.697227
 11
-163.807526
 21
115.697227
  0
LINE
  8
0
 10
-143.807526
 20
112.197235
 11
-163.807526
 21
112.197227
  0
LINE
  8
0
 10
-166.271622
 20
108.197227
 11
-167.807526
 21
108.197227
  0
LINE
  8
0
 10
-163.807526
 20
115.697227
 11
-163.807526
 21
112.197227
  0
LINE
  8
0
  6
CENTER
 10
-160.116516
 20
108.697227
 11
-167.191742
 21
108.697227
  0
LINE
  8
0
  6
CENTER
 10
-162.807526
 20
111.805138
 11
-162.807526
 21
105.420189
  0
LINE
  8
0
 10
-149.279663
 20
109.197227
 11
-158.335388
 21
109.197227
  0
LINE
  8
0
 10
-150.284744
 20
108.197227
 11
-157.330292
 21
108.197227
  0
LINE
  8
0
 10
-142.307526
 20
95.697235
 11
-165.307526
 21
95.697227
  0
LINE
  8
0
 10
-141.307510
 20
94.697235
 11
-166.307526
 21
94.697227
  0
LINE
  8
0
 10
-165.307526
 20
103.798241
 11
-165.307526
 21
95.697227
  0
LINE
  8
0
 10
-166.307526
 20
105.868797
 11
-166.307526
 21
94.697227
  0
LINE
  8
0
 10
-160.807526
 20
115.697227
 11
-160.807526
 21
112.197227
  0
LINE
  8
0
 10
-159.307526
 20
115.697227
 11
-159.307526
 21
112.197227
  0
LINE
  8
0
 10
-145.557526
 20
129.697235
 11
-145.557526
 21
115.697235
  0
LINE
  8
0
 10
-145.557526
 20
120.697235
 11
-162.057526
 21
120.697227
  0
LINE
  8
0
 10
-146.557526
 20
130.697235
 11
-161.057526
 21
130.697235
  0
LINE
  8
0
 10
-162.057526
 20
129.697235
 11
-162.057526
 21
115.697227
  0
LINE
  8
0
 10
-133.307526
 20
107.697235
 11
-133.307526
 21
93.697235
  0
LINE
  8
0
 10
-139.807526
 20
107.697235
 11
-133.307526
 21
107.697235
  0
LINE
  8
0
 10
-139.807510
 20
93.697235
 11
-133.307510
 21
93.697235
  0
LINE
  8
0
 10
-174.707520
 20
107.147224
 11
-174.707520
 21
94.247231
  0
LINE
  8
0
 10
-128.307526
 20
107.597229
 11
-128.307526
 21
93.697235
  0
LINE
  8
0
 10
-133.039566
 20
108.597229
 11
-128.575470
 21
108.597229
  0
LINE
  8
0
 10
-128.575485
 20
108.597244
 11
-128.307541
 21
107.597244
  0
LINE
  8
0
 10
-133.307526
 20
107.597214
 11
-133.039581
 21
108.597214
  0
LINE
  8
0
 10
-133.039566
 20
92.797234
 11
-128.575455
 21
92.797234
  0
LINE
  8
0
 10
-133.307510
 20
93.797218
 11
-133.039566
 21
92.797226
  0
LINE
  8
0
 10
-128.575470
 20
92.797226
 11
-128.307526
 21
93.797234
  0
LINE
  8
0
 10
-133.307510
 20
96.697235
 11
-128.307510
 21
96.697235
  0
LINE
  8
0
 10
-133.307526
 20
104.697235
 11
-128.307526
 21
104.697235
  0
LINE
  8
0
 10
-128.307510
 20
105.687256
 11
-120.807281
 21
105.452873
  0
LINE
  8
0
 10
-128.307510
 20
105.687241
 11
-128.130875
 21
105.028023
  0
LINE
  8
0
 10
-120.807281
 20
105.452858
 11
-120.307526
 21
104.920853
  0
LINE
  8
0
 10
-128.130890
 20
105.028015
 11
-120.307518
 21
104.920845
  0
LINE
  8
0
 10
-120.307526
 20
96.473618
 11
-120.307526
 21
104.920837
  0
LINE
  8
0
 10
-128.307510
 20
95.707230
 11
-120.807266
 21
95.941612
  0
LINE
  8
0
 10
-120.807266
 20
95.941620
 11
-120.307510
 21
96.473625
  0
LINE
  8
0
 10
-128.130890
 20
96.366455
 11
-120.307518
 21
96.473625
  0
LINE
  8
0
 10
-128.307526
 20
95.707245
 11
-128.130890
 21
96.366455
  0
LINE
  8
0
 10
-128.130890
 20
105.028015
 11
-128.130890
 21
96.366447
  0
LINE
  8
0
 10
-120.807281
 20
105.452850
 11
-120.807281
 21
95.941620
  0
LINE
  8
0
 10
-174.707520
 20
106.447227
 11
-176.707520
 21
106.447227
  0
LINE
  8
0
 10
-177.907516
 20
106.597221
 11
-179.707520
 21
106.597221
  0
LINE
  8
0
 10
-176.707520
 20
104.747231
 11
-177.907516
 21
104.747231
  0
LINE
  8
0
 10
-174.707520
 20
94.947227
 11
-176.707520
 21
94.947227
  0
LINE
  8
0
 10
-176.707520
 20
94.947227
 11
-176.707520
 21
106.447227
  0
LINE
  8
0
 10
-179.707520
 20
94.797226
 11
-179.707520
 21
106.597221
  0
LINE
  8
0
 10
-177.907532
 20
94.797226
 11
-177.907532
 21
106.597221
  0
LINE
  8
0
 10
-177.907516
 20
94.797226
 11
-179.707520
 21
94.797226
  0
LINE
  8
0
 10
-176.707520
 20
96.647224
 11
-177.907516
 21
96.647224
  0
LINE
  8
0
  6
CENTER
 10
-124.307526
 20
90.315140
 11
-124.307526
 21
108.757462
  0
LINE
  8
0
 10
-174.707520
 20
107.147224
 11
-167.807526
 21
107.147224
  0
LINE
  8
0
 10
-174.707520
 20
94.247231
 11
-167.807526
 21
94.247231
  0
ARC
  8
0
 10
-144.807526
 20
108.697235
 40
3.500010
 50
351.786804
 51
90.000000
  0
CIRCLE
  8
0
 10
-144.807526
 20
108.697235
 40
2.100000
  0
ARC
  8
0
 10
-144.807526
 20
108.697235
 40
4.500000
 50
173.620728
 51
321.057526
  0
ARC
  8
0
 10
-144.807526
 20
108.697235
 40
5.499993
 50
185.215912
 51
297.035706
  0
ARC
  8
0
 10
-162.807526
 20
108.697227
 40
3.500000
 50
90.000000
 51
188.213226
  0
CIRCLE
  8
0
 10
-162.807526
 20
108.697227
 40
2.100000
  0
ARC
  8
0
 10
-162.807526
 20
108.697227
 40
4.499997
 50
218.942398
 51
6.379368
  0
ARC
  8
0
 10
-162.807526
 20
108.697227
 40
5.500000
 50
242.964310
 51
354.784088
  0
ARC
  8
0
 10
-161.057526
 20
129.697235
 40
1.000000
 50
90.000000
 51
180.000000
  0
ARC
  8
0
 10
-146.557526
 20
129.697235
 40
1.000000
 50
0.000000
 51
90.000000
  0
POINT
  8
0
 10
-45.557770
 20
100.697250
  0
POINT
  8
0
 10
-36.807785
 20
100.697250
  0
LINE
  8
0
  6
CENTER
 10
-45.557770
 20
135.398148
 11
-45.557770
 21
86.093811
  0
LINE
  8
0
  6
CENTER
 10
-62.326080
 20
100.697250
 11
-32.390991
 21
100.697250
  0
LINE
  8
0
 10
-38.557785
 20
104.738708
 11
-38.557785
 21
96.655800
  0
LINE
  8
0
 10
-38.557777
 20
96.655792
 11
-45.557781
 21
92.797241
  0
LINE
  8
0
 10
-38.557777
 20
104.738686
 11
-45.557781
 21
108.597237
  0
LINE
  8
0
 10
-52.557777
 20
104.738708
 11
-45.557774
 21
108.597260
  0
LINE
  8
0
 10
-52.557770
 20
104.738708
 11
-52.557770
 21
96.655800
  0
LINE
  8
0
 10
-52.557770
 20
96.655815
 11
-45.557766
 21
92.797264
  0
LINE
  8
0
 10
-40.057785
 20
93.197250
 11
-40.057785
 21
90.197250
  0
LINE
  8
0
 10
-51.057770
 20
93.197250
 11
-51.057770
 21
90.197250
  0
LINE
  8
0
 10
-51.057770
 20
90.197250
 11
-40.057770
 21
90.197250
  0
LINE
  8
0
 10
-44.832108
 20
93.197250
 11
-36.807770
 21
93.197250
  0
LINE
  8
0
 10
-54.307770
 20
115.697250
 11
-36.807770
 21
115.697250
  0
LINE
  8
0
 10
-54.307770
 20
112.197250
 11
-36.807770
 21
112.197250
  0
LINE
  8
0
 10
-44.832108
 20
108.197250
 11
-36.807770
 21
108.197250
  0
LINE
  8
0
 10
-40.557785
 20
115.697250
 11
-40.557785
 21
112.197250
  0
LINE
  8
0
 10
-50.557770
 20
115.697250
 11
-50.557770
 21
112.197250
  0
LINE
  8
0
 10
-46.283432
 20
108.197250
 11
-54.307770
 21
108.197250
  0
LINE
  8
0
 10
-37.307785
 20
120.197250
 11
-37.307785
 21
115.697250
  0
LINE
  8
0
 10
-43.057785
 20
130.197250
 11
-43.057785
 21
121.697250
  0
LINE
  8
0
 10
-47.557770
 20
130.697266
 11
-43.557770
 21
130.697266
  0
LINE
  8
0
 10
-37.807770
 20
120.697250
 11
-53.307770
 21
120.697250
  0
LINE
  8
0
 10
-53.807770
 20
120.197250
 11
-53.807770
 21
115.697250
  0
LINE
  8
0
 10
-48.057770
 20
130.197250
 11
-48.057770
 21
121.697250
  0
LINE
  8
0
 10
-54.307770
 20
115.697250
 11
-54.307770
 21
93.197250
  0
LINE
  8
0
 10
-36.807785
 20
115.697250
 11
-36.807785
 21
93.197250
  0
LINE
  8
0
 10
-54.307770
 20
93.197250
 11
-46.283432
 21
93.197250
  0
CIRCLE
  8
0
 10
-45.557770
 20
100.697250
 40
4.740000
  0
CIRCLE
  8
0
 10
-45.557770
 20
100.697250
 40
4.990000
  0
CIRCLE
  8
0
 10
-45.557770
 20
100.697250
 40
3.000000
  0
ARC
  8
0
 10
-37.807770
 20
120.197250
 40
0.500000
 50
0.000000
 51
90.000000
  0
ARC
  8
0
 10
-43.557770
 20
130.197250
 40
0.500000
 50
0.000000
 51
90.000000
  0
ARC
  8
0
 10
-42.057770
 20
121.697250
 40
1.000000
 50
180.000000
 51
270.000000
  0
ARC
  8
0
 10
-53.307770
 20
120.197250
 40
0.500000
 50
90.000000
 51
180.000000
  0
ARC
  8
0
 10
-47.557770
 20
130.197250
 40
0.500000
 50
90.000000
 51
180.000000
  0
ARC
  8
0
 10
-49.057770
 20
121.697250
 40
1.000000
 50
270.000000
 51
0.000000
  0
POINT
  8
0
 10
-230.686584
 20
100.697235
  0
POINT
  8
0
 10
-221.936584
 20
100.697235
  0
LINE
  8
0
  6
CENTER
 10
-230.686584
 20
135.026031
 11
-230.686584
 21
85.535645
  0
LINE
  8
0
  6
CENTER
 10
-244.660950
 20
100.697235
 11
-216.541290
 21
100.697235
  0
LINE
  8
0
 10
-225.186584
 20
93.197235
 11
-225.186584
 21
90.197235
  0
LINE
  8
0
 10
-236.186584
 20
93.197235
 11
-236.186584
 21
90.197235
  0
LINE
  8
0
 10
-236.186584
 20
90.197235
 11
-225.186584
 21
90.197235
  0
LINE
  8
0
 10
-239.436584
 20
93.197235
 11
-221.936584
 21
93.197235
  0
LINE
  8
0
 10
-239.436584
 20
115.697235
 11
-221.936584
 21
115.697235
  0
LINE
  8
0
 10
-239.436584
 20
112.197235
 11
-222.186584
 21
112.197235
  0
LINE
  8
0
 10
-239.436584
 20
108.197235
 11
-222.186584
 21
108.197235
  0
LINE
  8
0
 10
-225.686584
 20
115.697235
 11
-225.686584
 21
112.197235
  0
LINE
  8
0
 10
-235.686584
 20
115.697235
 11
-235.686584
 21
112.197235
  0
LINE
  8
0
 10
-222.436584
 20
120.197235
 11
-222.436584
 21
115.697235
  0
LINE
  8
0
 10
-228.186584
 20
130.197235
 11
-228.186584
 21
121.697235
  0
LINE
  8
0
 10
-232.686584
 20
130.697235
 11
-228.686584
 21
130.697235
  0
LINE
  8
0
 10
-222.936584
 20
120.697235
 11
-238.436584
 21
120.697235
  0
LINE
  8
0
 10
-238.936584
 20
120.197235
 11
-238.936584
 21
115.697235
  0
LINE
  8
0
 10
-233.186584
 20
130.197235
 11
-233.186584
 21
121.697235
  0
LINE
  8
0
 10
-221.936584
 20
115.697235
 11
-221.936584
 21
93.197235
  0
LINE
  8
0
 10
-239.436584
 20
115.697235
 11
-239.436584
 21
93.197235
  0
ARC
  8
0
 10
-222.936584
 20
120.197235
 40
0.500000
 50
0.000000
 51
90.000000
  0
ARC
  8
0
 10
-228.686584
 20
130.197235
 40
0.500000
 50
0.000000
 51
90.000000
  0
ARC
  8
0
 10
-227.186584
 20
121.697235
 40
1.000000
 50
180.000000
 51
270.000000
  0
ARC
  8
0
 10
-238.436584
 20
120.197235
 40
0.500000
 50
90.000000
 51
180.000000
  0
ARC
  8
0
 10
-232.686584
 20
130.197235
 40
0.500000
 50
90.000000
 51
180.000000
  0
ARC
  8
0
 10
-234.186584
 20
121.697235
 40
1.000000
 50
270.000000
 51
0.000000
  0
CIRCLE
  8
0
 10
-230.686584
 20
100.697235
 40
5.900000
  0
CIRCLE
  8
0
 10
-230.686584
 20
100.697235
 40
3.100000
  0
CIRCLE
  8
0
 10
-230.686584
 20
100.697235
 40
6.449997
  0
POINT
  8
0
 10
-124.307526
 20
160.697235
  0
POINT
  8
0
 10
-111.307526
 20
160.697235
  0
LINE
  8
0
  6
CENTER
 10
-185.087982
 20
160.697220
 11
-114.268082
 21
160.697235
  0
LINE
  8
0
  6
CENTER
 10
-153.807526
 20
173.214050
 11
-153.807526
 21
147.724640
  0
LINE
  8
0
 10
-167.807526
 20
169.447235
 11
-167.807526
 21
151.947235
  0
LINE
  8
0
 10
-139.807526
 20
169.447235
 11
-139.807526
 21
151.947235
  0
LINE
  8
0
 10
-162.467773
 20
155.697235
 11
-160.681381
 21
155.697235
  0
LINE
  8
0
 10
-162.467773
 20
165.697235
 11
-160.681381
 21
165.697235
  0
LINE
  8
0
 10
-146.933655
 20
165.697235
 11
-145.147263
 21
165.697235
  0
LINE
  8
0
 10
-146.933655
 20
155.697235
 11
-145.147263
 21
155.697235
  0
LINE
  8
0
 10
-161.295013
 20
158.197235
 11
-146.320038
 21
158.197235
  0
LINE
  8
0
 10
-161.295013
 20
163.197235
 11
-146.320038
 21
163.197235
  0
LINE
  8
0
 10
-159.807526
 20
161.547241
 11
-147.807526
 21
161.547241
  0
LINE
  8
0
 10
-159.807526
 20
159.847229
 11
-147.807526
 21
159.847229
  0
LINE
  8
0
 10
-147.807526
 20
161.547241
 11
-147.807526
 21
159.847229
  0
LINE
  8
0
 10
-159.807526
 20
161.547241
 11
-159.807526
 21
159.847229
  0
LINE
  8
0
 10
-133.307541
 20
167.697235
 11
-133.307526
 21
153.697235
  0
LINE
  8
0
 10
-139.807526
 20
167.697235
 11
-133.307526
 21
167.697235
  0
LINE
  8
0
 10
-139.807526
 20
153.697235
 11
-133.307526
 21
153.697235
  0
LINE
  8
0
 10
-174.707520
 20
167.147217
 11
-174.707520
 21
154.247223
  0
LINE
  8
0
 10
-128.307541
 20
167.597229
 11
-128.307526
 21
153.797256
  0
LINE
  8
0
 10
-128.334320
 20
167.697250
 11
-128.307526
 21
167.597244
  0
LINE
  8
0
 10
-133.307526
 20
167.597275
 11
-133.280731
 21
167.697266
  0
LINE
  8
0
 10
-133.307495
 20
153.797256
 11
-133.280701
 21
153.697250
  0
LINE
  8
0
 10
-128.334335
 20
153.697235
 11
-128.307541
 21
153.797226
  0
LINE
  8
0
 10
-128.307526
 20
165.687241
 11
-120.807289
 21
165.452850
  0
LINE
  8
0
 10
-128.307526
 20
165.687195
 11
-128.130890
 21
165.027985
  0
LINE
  8
0
 10
-120.807274
 20
165.452866
 11
-120.307518
 21
164.920853
  0
LINE
  8
0
 10
-128.130890
 20
165.028015
 11
-120.307526
 21
164.920837
  0
LINE
  8
0
 10
-120.307526
 20
156.473618
 11
-120.307526
 21
164.920868
  0
LINE
  8
0
 10
-128.307526
 20
155.707214
 11
-120.807274
 21
155.941605
  0
LINE
  8
0
 10
-120.807289
 20
155.941620
 11
-120.307533
 21
156.473618
  0
LINE
  8
0
 10
-128.130875
 20
156.366409
 11
-120.307510
 21
156.473587
  0
LINE
  8
0
 10
-128.307541
 20
155.707245
 11
-128.130905
 21
156.366455
  0
LINE
  8
0
 10
-128.130905
 20
165.028030
 11
-128.130890
 21
156.366455
  0
LINE
  8
0
 10
-120.807289
 20
165.452850
 11
-120.807289
 21
155.941620
  0
LINE
  8
0
 10
-174.707520
 20
166.447220
 11
-176.707520
 21
166.447220
  0
LINE
  8
0
 10
-177.907532
 20
166.597214
 11
-179.707520
 21
166.597214
  0
LINE
  8
0
 10
-176.707520
 20
164.747208
 11
-177.907532
 21
164.747208
  0
LINE
  8
0
 10
-174.707520
 20
154.947220
 11
-176.707520
 21
154.947220
  0
LINE
  8
0
 10
-176.707520
 20
154.947220
 11
-176.707520
 21
166.447220
  0
LINE
  8
0
 10
-179.707520
 20
154.797226
 11
-179.707520
 21
166.597229
  0
LINE
  8
0
 10
-177.907532
 20
154.797226
 11
-177.907532
 21
166.597229
  0
LINE
  8
0
 10
-177.907532
 20
154.797226
 11
-179.707520
 21
154.797226
  0
LINE
  8
0
 10
-176.707520
 20
156.647202
 11
-177.907532
 21
156.647202
  0
LINE
  8
0
 10
-133.307526
 20
167.697235
 11
-128.334320
 21
167.697235
  0
LINE
  8
0
 10
-133.280716
 20
153.697235
 11
-128.334335
 21
153.697235
  0
LINE
  8
0
 10
-167.807526
 20
151.947235
 11
-139.807526
 21
151.947235
  0
LINE
  8
0
 10
-167.807526
 20
169.447235
 11
-139.807526
 21
169.447235
  0
LINE
  8
0
  6
CENTER
 10
-124.307526
 20
150.904694
 11
-124.307526
 21
168.287109
  0
LINE
  8
0
 10
-174.707520
 20
167.147217
 11
-167.807526
 21
167.147217
  0
LINE
  8
0
 10
-174.707520
 20
154.247223
 11
-167.807526
 21
154.247223
  0
LINE
  8
0
 10
-133.307526
 20
160.697235
 11
-128.307526
 21
160.697235
  0
CIRCLE
  8
0
 10
-153.807526
 20
160.697235
 40
8.500000
  0
ARC
  8
0
 10
-153.807526
 20
160.697235
 40
9.999987
 50
150.000061
 51
210.000015
  0
ARC
  8
0
 10
-153.807526
 20
160.697235
 40
10.000008
 50
330.000031
 51
29.999973
  0
ARC
  8
0
 10
-153.807526
 20
160.697235
 40
8.249996
 50
345.044769
 51
14.955227
  0
ARC
  8
0
 10
-146.320038
 20
158.697235
 40
0.500000
 50
270.000000
 51
345.043915
  0
ARC
  8
0
 10
-146.320038
 20
162.697235
 40
0.500013
 50
14.954393
 51
90.000000
  0
ARC
  8
0
 10
-153.807526
 20
160.697235
 40
8.249996
 50
165.044769
 51
194.955231
  0
ARC
  8
0
 10
-161.295013
 20
162.697235
 40
0.500000
 50
90.000000
 51
165.045151
  0
ARC
  8
0
 10
-161.295013
 20
158.697235
 40
0.500002
 50
194.956528
 51
270.000000
  0
POINT
  8
0
 10
144.904282
 20
100.697235
  0
POINT
  8
0
 10
157.904282
 20
100.697235
  0
LINE
  8
0
  6
CENTER
 10
114.404266
 20
131.558167
 11
114.404274
 21
88.796295
  0
LINE
  8
0
 10
119.904274
 20
93.197227
 11
119.904274
 21
90.197227
  0
LINE
  8
0
 10
128.404266
 20
108.197235
 11
128.404266
 21
93.197235
  0
LINE
  8
0
 10
104.404266
 20
115.697227
 11
124.404274
 21
115.697235
  0
LINE
  8
0
 10
104.404266
 20
112.197227
 11
124.404274
 21
112.197235
  0
LINE
  8
0
 10
126.868378
 20
108.197235
 11
128.404282
 21
108.197235
  0
LINE
  8
0
 10
124.404266
 20
115.697235
 11
124.404266
 21
112.197235
  0
LINE
  8
0
  6
CENTER
 10
123.404266
 20
111.805145
 11
123.404266
 21
105.420197
  0
LINE
  8
0
 10
125.904266
 20
103.798264
 11
125.904266
 21
95.697235
  0
LINE
  8
0
 10
126.904266
 20
105.868813
 11
126.904274
 21
94.697235
  0
LINE
  8
0
  6
CENTER
 10
81.973869
 20
100.697227
 11
153.066193
 21
100.697235
  0
LINE
  8
0
 10
121.404266
 20
115.697235
 11
121.404266
 21
112.197235
  0
LINE
  8
0
 10
119.904266
 20
115.697227
 11
119.904266
 21
112.197227
  0
LINE
  8
0
 10
128.404266
 20
93.197235
 11
100.404282
 21
93.197227
  0
LINE
  8
0
 10
119.904274
 20
90.197227
 11
108.904282
 21
90.197227
  0
LINE
  8
0
 10
108.904266
 20
93.197227
 11
108.904266
 21
90.197227
  0
LINE
  8
0
 10
100.404266
 20
108.197227
 11
100.404266
 21
93.197227
  0
LINE
  8
0
 10
101.940178
 20
108.197227
 11
100.404282
 21
108.197227
  0
LINE
  8
0
 10
104.404266
 20
115.697227
 11
104.404266
 21
112.197227
  0
LINE
  8
0
  6
CENTER
 10
105.404266
 20
111.805145
 11
105.404266
 21
105.420189
  0
LINE
  8
0
 10
118.932144
 20
109.197227
 11
109.876419
 21
109.197227
  0
LINE
  8
0
 10
117.927055
 20
108.197227
 11
110.881500
 21
108.197227
  0
LINE
  8
0
 10
125.904266
 20
95.697235
 11
102.904282
 21
95.697227
  0
LINE
  8
0
 10
128.404266
 20
94.697235
 11
101.904282
 21
94.697227
  0
LINE
  8
0
 10
102.904266
 20
103.798256
 11
102.904266
 21
95.697227
  0
LINE
  8
0
 10
101.904266
 20
105.868805
 11
101.904266
 21
94.697227
  0
LINE
  8
0
 10
107.404266
 20
115.697227
 11
107.404266
 21
112.197227
  0
LINE
  8
0
 10
108.904266
 20
115.697227
 11
108.904266
 21
112.197227
  0
LINE
  8
0
 10
122.654266
 20
129.697235
 11
122.654266
 21
115.697235
  0
LINE
  8
0
 10
122.654266
 20
120.697235
 11
106.154274
 21
120.697235
  0
LINE
  8
0
 10
121.654274
 20
130.697235
 11
107.154274
 21
130.697235
  0
LINE
  8
0
 10
106.154266
 20
129.697235
 11
106.154266
 21
115.697227
  0
LINE
  8
0
 10
134.904266
 20
107.697235
 11
134.904282
 21
93.697235
  0
LINE
  8
0
 10
128.404282
 20
93.697235
 11
134.904282
 21
93.697235
  0
LINE
  8
0
 10
128.404282
 20
107.697235
 11
134.904282
 21
107.697235
  0
LINE
  8
0
 10
139.904266
 20
107.597237
 11
139.904282
 21
93.697235
  0
LINE
  8
0
 10
135.199020
 20
108.697235
 11
139.609528
 21
108.697235
  0
LINE
  8
0
 10
134.904282
 20
107.597237
 11
135.199020
 21
108.697235
  0
LINE
  8
0
 10
139.609528
 20
108.697235
 11
139.904266
 21
107.597237
  0
LINE
  8
0
 10
134.904236
 20
93.797234
 11
135.198990
 21
92.697235
  0
LINE
  8
0
 10
135.199020
 20
92.697235
 11
139.609543
 21
92.697235
  0
LINE
  8
0
 10
139.609497
 20
92.697250
 11
139.904251
 21
93.797249
  0
LINE
  8
0
 10
134.904282
 20
104.697235
 11
139.904282
 21
104.697235
  0
LINE
  8
0
 10
134.904282
 20
96.697235
 11
139.904282
 21
96.697235
  0
LINE
  8
0
 10
139.904266
 20
107.427231
 11
140.136734
 21
106.559639
  0
LINE
  8
0
 10
139.904282
 20
107.427238
 11
150.404526
 21
107.102692
  0
LINE
  8
0
 10
140.136749
 20
106.559647
 11
150.877716
 21
106.227654
  0
LINE
  8
0
 10
150.404480
 20
107.102669
 11
150.904251
 21
106.226807
  0
LINE
  8
0
 10
150.904282
 20
95.167648
 11
150.904266
 21
106.226799
  0
LINE
  8
0
 10
139.904282
 20
93.967239
 11
150.404510
 21
94.291794
  0
LINE
  8
0
 10
140.136749
 20
94.834846
 11
150.877701
 21
95.166840
  0
LINE
  8
0
 10
150.404526
 20
94.291786
 11
150.904282
 21
95.167648
  0
LINE
  8
0
 10
139.904297
 20
93.967239
 11
140.136765
 21
94.834831
  0
LINE
  8
0
 10
140.136734
 20
106.559647
 11
140.136749
 21
94.834839
  0
LINE
  8
0
 10
93.504280
 20
107.147224
 11
93.504280
 21
94.247223
  0
LINE
  8
0
 10
93.504288
 20
106.447227
 11
91.504288
 21
106.447227
  0
LINE
  8
0
 10
91.504280
 20
106.447227
 11
91.504280
 21
94.947227
  0
LINE
  8
0
 10
88.504280
 20
106.597229
 11
88.504280
 21
94.797226
  0
LINE
  8
0
 10
90.304276
 20
106.597229
 11
90.304276
 21
94.797226
  0
LINE
  8
0
 10
90.304283
 20
106.597229
 11
88.504288
 21
106.597229
  0
LINE
  8
0
 10
91.504288
 20
104.747231
 11
90.304283
 21
104.747231
  0
LINE
  8
0
 10
93.504288
 20
94.947227
 11
91.504280
 21
94.947227
  0
LINE
  8
0
 10
90.304276
 20
94.797226
 11
88.504280
 21
94.797226
  0
LINE
  8
0
 10
91.504288
 20
96.647224
 11
90.304283
 21
96.647224
  0
LINE
  8
0
 10
93.504280
 20
94.247223
 11
100.404266
 21
94.247231
  0
LINE
  8
0
 10
93.504280
 20
107.147224
 11
100.404266
 21
107.147224
  0
LINE
  8
0
  6
CENTER
 10
144.904282
 20
112.399086
 11
144.904282
 21
87.300583
  0
LINE
  8
0
  6
CENTER
 10
101.904282
 20
108.697235
 11
108.904282
 21
108.697235
  0
LINE
  8
0
  6
CENTER
 10
119.904282
 20
108.697235
 11
126.904282
 21
108.697235
  0
LINE
  8
0
 10
150.404526
 20
107.102692
 11
150.404526
 21
94.291794
  0
ARC
  8
0
 10
123.404282
 20
108.697235
 40
3.499995
 50
351.786774
 51
90.000000
  0
CIRCLE
  8
0
 10
123.404282
 20
108.697235
 40
2.100000
  0
ARC
  8
0
 10
123.404282
 20
108.697235
 40
4.500001
 50
173.620636
 51
321.057617
  0
ARC
  8
0
 10
123.404282
 20
108.697235
 40
5.500000
 50
185.215912
 51
297.035706
  0
ARC
  8
0
 10
105.404282
 20
108.697235
 40
3.500000
 50
90.000000
 51
188.213211
  0
CIRCLE
  8
0
 10
105.404282
 20
108.697235
 40
2.100000
  0
ARC
  8
0
 10
105.404282
 20
108.697235
 40
4.500002
 50
218.942474
 51
6.379272
  0
ARC
  8
0
 10
105.404282
 20
108.697235
 40
5.500000
 50
242.964310
 51
354.784088
  0
ARC
  8
0
 10
107.154274
 20
129.697235
 40
1.000000
 50
90.000000
 51
180.000000
  0
ARC
  8
0
 10
121.654274
 20
129.697235
 40
1.000000
 50
0.000000
 51
90.000000
  0
POINT
  8
0
 10
229.654037
 20
100.697250
  0
POINT
  8
0
 10
238.404037
 20
100.697250
  0
LINE
  8
0
  6
CENTER
 10
229.654037
 20
131.547729
 11
229.654037
 21
88.404724
  0
LINE
  8
0
  6
CENTER
 10
215.833862
 20
100.697250
 11
242.912064
 21
100.697250
  0
LINE
  8
0
 10
236.654037
 20
104.738701
 11
236.654037
 21
96.655792
  0
LINE
  8
0
 10
236.654037
 20
96.655800
 11
229.654037
 21
92.797249
  0
LINE
  8
0
 10
236.654022
 20
104.738693
 11
229.654022
 21
108.597244
  0
LINE
  8
0
 10
222.654037
 20
104.738686
 11
229.654053
 21
108.597237
  0
LINE
  8
0
 10
222.654037
 20
104.738701
 11
222.654037
 21
96.655792
  0
LINE
  8
0
 10
222.654037
 20
96.655792
 11
229.654037
 21
92.797241
  0
LINE
  8
0
 10
220.904037
 20
93.197250
 11
228.928375
 21
93.197250
  0
LINE
  8
0
 10
235.154037
 20
93.197250
 11
235.154037
 21
90.197250
  0
LINE
  8
0
 10
224.154037
 20
93.197250
 11
224.154037
 21
90.197250
  0
LINE
  8
0
 10
224.154037
 20
90.197250
 11
235.154037
 21
90.197250
  0
LINE
  8
0
 10
220.904037
 20
112.197250
 11
238.404037
 21
112.197250
  0
LINE
  8
0
 10
230.379700
 20
108.197250
 11
238.404037
 21
108.197250
  0
LINE
  8
0
 10
234.654037
 20
115.697250
 11
234.654037
 21
112.197250
  0
LINE
  8
0
 10
224.654037
 20
115.697250
 11
224.654037
 21
112.197250
  0
LINE
  8
0
 10
228.928375
 20
108.197250
 11
220.904037
 21
108.197250
  0
LINE
  8
0
 10
238.404037
 20
115.697250
 11
220.904037
 21
115.697250
  0
LINE
  8
0
 10
237.904037
 20
120.197250
 11
237.904037
 21
115.697250
  0
LINE
  8
0
 10
232.154037
 20
130.197250
 11
232.154037
 21
121.697250
  0
LINE
  8
0
 10
237.404037
 20
120.697250
 11
221.904037
 21
120.697250
  0
LINE
  8
0
 10
221.404037
 20
120.197243
 11
221.404037
 21
115.697243
  0
LINE
  8
0
 10
227.154037
 20
130.197250
 11
227.154037
 21
121.697250
  0
LINE
  8
0
 10
231.654037
 20
130.697250
 11
227.654037
 21
130.697250
  0
LINE
  8
0
 10
220.904037
 20
115.697243
 11
220.904037
 21
93.197243
  0
LINE
  8
0
 10
238.404037
 20
115.697250
 11
238.404037
 21
93.197250
  0
LINE
  8
0
 10
230.379700
 20
93.197250
 11
238.404037
 21
93.197250
  0
CIRCLE
  8
0
 10
229.654037
 20
100.697250
 40
4.740000
  0
CIRCLE
  8
0
 10
229.654037
 20
100.697250
 40
4.990000
  0
CIRCLE
  8
0
 10
229.654037
 20
100.697250
 40
3.000000
  0
ARC
  8
0
 10
237.404037
 20
120.197250
 40
0.500000
 50
0.000000
 51
90.000000
  0
ARC
  8
0
 10
231.654037
 20
130.197250
 40
0.500000
 50
0.000000
 51
90.000000
  0
ARC
  8
0
 10
233.154037
 20
121.697243
 40
1.000000
 50
180.000000
 51
270.000000
  0
ARC
  8
0
 10
221.904037
 20
120.197243
 40
0.500000
 50
90.000000
 51
180.000000
  0
ARC
  8
0
 10
227.654037
 20
130.197235
 40
0.500000
 50
90.000000
 51
180.000000
  0
ARC
  8
0
 10
226.154037
 20
121.697243
 40
1.000000
 50
270.000000
 51
0.000000
  0
POINT
  8
0
 10
42.525208
 20
100.697235
  0
POINT
  8
0
 10
51.275208
 20
100.697235
  0
LINE
  8
0
  6
CENTER
 10
42.525208
 20
131.547714
 11
42.525208
 21
88.404709
  0
LINE
  8
0
  6
CENTER
 10
29.279858
 20
100.697235
 11
56.774647
 21
100.697235
  0
LINE
  8
0
 10
33.775208
 20
93.197235
 11
51.275208
 21
93.197235
  0
LINE
  8
0
 10
48.025208
 20
93.197235
 11
48.025208
 21
90.197235
  0
LINE
  8
0
 10
37.025208
 20
93.197235
 11
37.025208
 21
90.197235
  0
LINE
  8
0
 10
47.525208
 20
115.697235
 11
47.525208
 21
112.197235
  0
LINE
  8
0
 10
37.525208
 20
115.697235
 11
37.525208
 21
112.197235
  0
LINE
  8
0
 10
51.275208
 20
108.197235
 11
33.775208
 21
108.197235
  0
LINE
  8
0
 10
51.275208
 20
115.697235
 11
33.775208
 21
115.697235
  0
LINE
  8
0
 10
51.275208
 20
112.197235
 11
33.775208
 21
112.197235
  0
LINE
  8
0
 10
50.775208
 20
120.197235
 11
50.775208
 21
115.697235
  0
LINE
  8
0
 10
45.025208
 20
130.197235
 11
45.025208
 21
121.697235
  0
LINE
  8
0
 10
50.343323
 20
120.697235
 11
34.775208
 21
120.697235
  0
LINE
  8
0
 10
34.275208
 20
120.197235
 11
34.275208
 21
115.697235
  0
LINE
  8
0
 10
40.025208
 20
130.197235
 11
40.025208
 21
121.697235
  0
LINE
  8
0
 10
44.576157
 20
130.697235
 11
40.525208
 21
130.697235
  0
LINE
  8
0
 10
33.775208
 20
115.697235
 11
33.775208
 21
93.197235
  0
LINE
  8
0
 10
51.275208
 20
115.697235
 11
51.275208
 21
93.197235
  0
LINE
  8
0
 10
37.025208
 20
90.197235
 11
48.025208
 21
90.197235
  0
ARC
  8
0
 10
50.275208
 20
120.197235
 40
0.500000
 50
0.000000
 51
90.000000
  0
ARC
  8
0
 10
44.525208
 20
130.197235
 40
0.500000
 50
0.000000
 51
90.000000
  0
ARC
  8
0
 10
46.025208
 20
121.697235
 40
1.000000
 50
180.000000
 51
270.000000
  0
ARC
  8
0
 10
34.775208
 20
120.197235
 40
0.500000
 50
90.000000
 51
180.000000
  0
ARC
  8
0
 10
40.525208
 20
130.197235
 40
0.500000
 50
90.000000
 51
180.000000
  0
ARC
  8
0
 10
39.025208
 20
121.697235
 40
1.000000
 50
270.000000
 51
0.000000
  0
CIRCLE
  8
0
 10
42.525208
 20
100.697235
 40
5.900000
  0
CIRCLE
  8
0
 10
42.525208
 20
100.697235
 40
3.100000
  0
ARC
  8
0
 10
42.525208
 20
100.697235
 40
6.450001
 50
0.000000
 51
353.024048
  0
POINT
  8
0
 10
144.904266
 20
160.697235
  0
POINT
  8
0
 10
157.904266
 20
160.697235
  0
LINE
  8
0
  6
CENTER
 10
82.925385
 20
160.697220
 11
151.873444
 21
160.697235
  0
LINE
  8
0
  6
CENTER
 10
114.404251
 20
169.989395
 11
114.404259
 21
151.291931
  0
LINE
  8
0
 10
100.404251
 20
169.447235
 11
100.404251
 21
151.947235
  0
LINE
  8
0
 10
128.404251
 20
169.447235
 11
128.404251
 21
151.947235
  0
LINE
  8
0
 10
105.744003
 20
155.697235
 11
107.530396
 21
155.697235
  0
LINE
  8
0
 10
105.744003
 20
165.697235
 11
107.530396
 21
165.697235
  0
LINE
  8
0
 10
121.278122
 20
165.697235
 11
123.064514
 21
165.697235
  0
LINE
  8
0
 10
121.278122
 20
155.697235
 11
123.064514
 21
155.697235
  0
LINE
  8
0
 10
106.916771
 20
158.197235
 11
121.891754
 21
158.197235
  0
LINE
  8
0
 10
106.916771
 20
163.197235
 11
121.891754
 21
163.197235
  0
LINE
  8
0
 10
108.404266
 20
161.547226
 11
120.404266
 21
161.547226
  0
LINE
  8
0
 10
108.404266
 20
159.847229
 11
120.404266
 21
159.847229
  0
LINE
  8
0
 10
120.404251
 20
161.547226
 11
120.404251
 21
159.847229
  0
LINE
  8
0
 10
108.404251
 20
161.547226
 11
108.404251
 21
159.847229
  0
LINE
  8
0
 10
134.904251
 20
167.697235
 11
134.904251
 21
153.697235
  0
LINE
  8
0
 10
128.404266
 20
167.697235
 11
134.904251
 21
167.697235
  0
LINE
  8
0
 10
128.404266
 20
153.697235
 11
134.904266
 21
153.697235
  0
LINE
  8
0
 10
139.904251
 20
167.597229
 11
139.904251
 21
153.697235
  0
LINE
  8
0
 10
134.904251
 20
167.597244
 11
134.931046
 21
167.697235
  0
LINE
  8
0
 10
139.877441
 20
167.697235
 11
139.904236
 21
167.597229
  0
LINE
  8
0
 10
134.904205
 20
153.797226
 11
134.931000
 21
153.697220
  0
LINE
  8
0
 10
139.877411
 20
153.697235
 11
139.904205
 21
153.797256
  0
LINE
  8
0
 10
150.904251
 20
166.226822
 11
150.904251
 21
155.167633
  0
LINE
  8
0
 10
139.904251
 20
167.427231
 11
140.136719
 21
166.559631
  0
LINE
  8
0
 10
139.904266
 20
167.427246
 11
150.404510
 21
167.102692
  0
LINE
  8
0
 10
140.136734
 20
166.559647
 11
150.877701
 21
166.227661
  0
LINE
  8
0
 10
150.404465
 20
167.102661
 11
150.904236
 21
166.226807
  0
LINE
  8
0
 10
139.904266
 20
153.967239
 11
150.404510
 21
154.291794
  0
LINE
  8
0
 10
140.136749
 20
154.834808
 11
150.877701
 21
155.166809
  0
LINE
  8
0
 10
150.404495
 20
154.291779
 11
150.904266
 21
155.167633
  0
LINE
  8
0
 10
139.904282
 20
153.967239
 11
140.136749
 21
154.834839
  0
LINE
  8
0
 10
140.136719
 20
166.559631
 11
140.136734
 21
154.834824
  0
LINE
  8
0
 10
134.904266
 20
153.697235
 11
139.904266
 21
153.697235
  0
LINE
  8
0
 10
134.904251
 20
167.697235
 11
139.904251
 21
167.697235
  0
LINE
  8
0
 10
100.404266
 20
151.947235
 11
128.404266
 21
151.947235
  0
LINE
  8
0
 10
100.404266
 20
169.447235
 11
128.404266
 21
169.447235
  0
LINE
  8
0
 10
91.504272
 20
156.647217
 11
90.304268
 21
156.647217
  0
LINE
  8
0
 10
93.504265
 20
167.147217
 11
93.504265
 21
154.247223
  0
LINE
  8
0
 10
93.504272
 20
166.447220
 11
91.504272
 21
166.447220
  0
LINE
  8
0
 10
91.504265
 20
166.447220
 11
91.504265
 21
154.947220
  0
LINE
  8
0
 10
88.504265
 20
166.597229
 11
88.504265
 21
154.797226
  0
LINE
  8
0
 10
90.304260
 20
166.597229
 11
90.304260
 21
154.797226
  0
LINE
  8
0
 10
90.304268
 20
166.597229
 11
88.504272
 21
166.597229
  0
LINE
  8
0
 10
91.504272
 20
164.747223
 11
90.304268
 21
164.747223
  0
LINE
  8
0
 10
93.504272
 20
154.947220
 11
91.504265
 21
154.947220
  0
LINE
  8
0
 10
90.304260
 20
154.797226
 11
88.504265
 21
154.797226
  0
LINE
  8
0
 10
93.504265
 20
154.247223
 11
100.404251
 21
154.247223
  0
LINE
  8
0
 10
93.504265
 20
167.147217
 11
100.404251
 21
167.147217
  0
LINE
  8
0
  6
CENTER
 10
144.904266
 20
170.209076
 11
144.904266
 21
149.367050
  0
LINE
  8
0
 10
150.404510
 20
167.102692
 11
150.404510
 21
154.291794
  0
LINE
  8
0
 10
134.904266
 20
160.697235
 11
139.904266
 21
160.697235
  0
CIRCLE
  8
0
 10
114.404266
 20
160.697235
 40
8.500000
  0
ARC
  8
0
 10
114.404266
 20
160.697235
 40
10.000000
 50
150.000107
 51
209.999969
  0
ARC
  8
0
 10
114.404266
 20
160.697235
 40
9.999994
 50
329.999969
 51
30.000017
  0
ARC
  8
0
 10
114.404266
 20
160.697235
 40
8.249996
 50
345.044769
 51
14.955227
  0
ARC
  8
0
 10
121.891754
 20
158.697235
 40
0.500000
 50
270.000000
 51
345.043457
  0
ARC
  8
0
 10
121.891754
 20
162.697235
 40
0.499998
 50
14.954844
 51
90.000000
  0
ARC
  8
0
 10
114.404266
 20
160.697235
 40
8.250004
 50
165.044785
 51
194.955215
  0
ARC
  8
0
 10
106.916771
 20
162.697235
 40
0.500000
 50
90.000000
 51
165.045151
  0
ARC
  8
0
 10
106.916771
 20
158.697235
 40
0.500002
 50
194.956528
 51
270.000000
  0
POINT
  8
0
 10
-122.007507
 20
-30.534109
  0
POINT
  8
0
 10
-107.007507
 20
-30.534107
  0
LINE
  8
0
 10
-174.707504
 20
-24.084122
 11
-174.707504
 21
-36.984116
  0
LINE
  8
0
 10
-174.707489
 20
-24.784119
 11
-176.707489
 21
-24.784119
  0
LINE
  8
0
 10
-176.707504
 20
-24.784119
 11
-176.707504
 21
-36.284119
  0
LINE
  8
0
 10
-179.707504
 20
-24.634117
 11
-179.707504
 21
-36.434120
  0
LINE
  8
0
 10
-177.907501
 20
-24.634117
 11
-177.907501
 21
-36.434120
  0
LINE
  8
0
 10
-177.907501
 20
-24.634117
 11
-179.707489
 21
-24.634117
  0
LINE
  8
0
 10
-176.707489
 20
-26.484116
 11
-177.907501
 21
-26.484116
  0
LINE
  8
0
 10
-174.707489
 20
-36.284119
 11
-176.707504
 21
-36.284119
  0
LINE
  8
0
 10
-177.907501
 20
-36.434120
 11
-179.707504
 21
-36.434120
  0
LINE
  8
0
 10
-176.707489
 20
-34.584122
 11
-177.907501
 21
-34.584122
  0
LINE
  8
0
  6
CENTER
 10
-153.807526
 20
0.326824
 11
-153.807510
 21
-42.435047
  0
LINE
  8
0
 10
-148.307510
 20
-38.034122
 11
-148.307510
 21
-41.034122
  0
LINE
  8
0
 10
-139.807510
 20
-23.034105
 11
-139.807510
 21
-38.034119
  0
LINE
  8
0
 10
-141.343414
 20
-23.034113
 11
-139.807510
 21
-23.034113
  0
LINE
  8
0
 10
-143.807510
 20
-15.534105
 11
-143.807510
 21
-19.034105
  0
LINE
  8
0
  6
CENTER
 10
-147.498520
 20
-22.534113
 11
-140.423294
 21
-22.534113
  0
LINE
  8
0
  6
CENTER
 10
-144.807510
 20
-19.426195
 11
-144.807510
 21
-25.811144
  0
LINE
  8
0
 10
-142.307510
 20
-27.433092
 11
-142.307510
 21
-35.534103
  0
LINE
  8
0
 10
-141.307510
 20
-25.362535
 11
-141.307510
 21
-36.534103
  0
LINE
  8
0
  6
CENTER
 10
-185.341736
 20
-30.534121
 11
-112.011780
 21
-30.534107
  0
LINE
  8
0
 10
-146.807510
 20
-15.534106
 11
-146.807510
 21
-19.034107
  0
LINE
  8
0
 10
-148.307510
 20
-15.534106
 11
-148.307510
 21
-19.034107
  0
LINE
  8
0
 10
-139.807510
 20
-38.034119
 11
-167.807510
 21
-38.034126
  0
LINE
  8
0
 10
-148.307510
 20
-41.034122
 11
-159.307510
 21
-41.034122
  0
LINE
  8
0
 10
-159.307510
 20
-38.034122
 11
-159.307510
 21
-41.034122
  0
LINE
  8
0
 10
-167.807510
 20
-23.034109
 11
-167.807510
 21
-38.034126
  0
LINE
  8
0
 10
-143.807510
 20
-15.534113
 11
-163.807510
 21
-15.534117
  0
LINE
  8
0
 10
-143.807510
 20
-19.034113
 11
-163.807510
 21
-19.034117
  0
LINE
  8
0
 10
-166.271606
 20
-23.034117
 11
-167.807510
 21
-23.034117
  0
LINE
  8
0
 10
-163.807526
 20
-15.534109
 11
-163.807526
 21
-19.034109
  0
LINE
  8
0
  6
CENTER
 10
-160.116501
 20
-22.534115
 11
-167.191727
 21
-22.534117
  0
LINE
  8
0
  6
CENTER
 10
-162.807526
 20
-19.426197
 11
-162.807510
 21
-25.811148
  0
LINE
  8
0
 10
-149.279648
 20
-22.034115
 11
-158.335373
 21
-22.034115
  0
LINE
  8
0
 10
-150.284729
 20
-23.034115
 11
-157.330276
 21
-23.034115
  0
LINE
  8
0
 10
-142.307510
 20
-35.534111
 11
-165.307510
 21
-35.534119
  0
LINE
  8
0
 10
-141.307510
 20
-36.534111
 11
-166.307510
 21
-36.534119
  0
LINE
  8
0
 10
-165.307510
 20
-27.433096
 11
-165.307510
 21
-35.534111
  0
LINE
  8
0
 10
-166.307510
 20
-25.362539
 11
-166.307510
 21
-36.534111
  0
LINE
  8
0
 10
-160.807526
 20
-15.534108
 11
-160.807526
 21
-19.034107
  0
LINE
  8
0
 10
-159.307526
 20
-15.534108
 11
-159.307526
 21
-19.034107
  0
LINE
  8
0
 10
-145.557526
 20
-1.534105
 11
-145.557510
 21
-15.534105
  0
LINE
  8
0
 10
-145.557526
 20
-10.534113
 11
-162.057510
 21
-10.534117
  0
LINE
  8
0
 10
-146.557510
 20
-0.534113
 11
-161.057510
 21
-0.534117
  0
LINE
  8
0
 10
-162.057526
 20
-1.534109
 11
-162.057526
 21
-15.534108
  0
LINE
  8
0
 10
-133.307526
 20
-22.026602
 11
-133.307510
 21
-39.041634
  0
LINE
  8
0
 10
-139.807510
 20
-23.534113
 11
-133.307510
 21
-23.534111
  0
LINE
  8
0
 10
-139.807510
 20
-37.534119
 11
-133.307510
 21
-37.534119
  0
LINE
  8
0
 10
-127.507515
 20
-22.026619
 11
-127.507515
 21
-30.534111
  0
LINE
  8
0
 10
-132.961197
 20
-20.734123
 11
-127.853828
 21
-20.734123
  0
LINE
  8
0
 10
-133.307510
 20
-25.534111
 11
-127.507507
 21
-25.534111
  0
LINE
  8
0
 10
-133.307510
 20
-35.534111
 11
-127.507507
 21
-35.534111
  0
LINE
  8
0
 10
-127.507515
 20
-39.041626
 11
-127.507515
 21
-30.534111
  0
LINE
  8
0
 10
-132.961197
 20
-40.334106
 11
-127.853828
 21
-40.334106
  0
LINE
  8
0
 10
-115.507515
 20
-37.799202
 11
-115.507515
 21
-23.269138
  0
LINE
  8
0
 10
-127.853836
 20
-20.734104
 11
-127.507507
 21
-22.026600
  0
LINE
  8
0
 10
-127.853806
 20
-40.334129
 11
-127.507484
 21
-39.041634
  0
LINE
  8
0
 10
-127.507507
 20
-22.026548
 11
-116.347099
 21
-22.375309
  0
LINE
  8
0
 10
-127.507507
 20
-22.026600
 11
-127.280418
 21
-22.874115
  0
LINE
  8
0
 10
-127.280411
 20
-22.874065
 11
-115.533745
 21
-23.241146
  0
LINE
  8
0
 10
-116.347092
 20
-22.375381
 11
-115.507500
 21
-23.269136
  0
LINE
  8
0
 10
-116.347099
 20
-22.375370
 11
-116.347099
 21
-30.534107
  0
LINE
  8
0
 10
-127.507507
 20
-39.041622
 11
-116.347099
 21
-38.692856
  0
LINE
  8
0
 10
-127.507439
 20
-39.041637
 11
-127.280350
 21
-38.194122
  0
LINE
  8
0
 10
-127.280411
 20
-38.194130
 11
-115.533737
 21
-37.827042
  0
LINE
  8
0
 10
-116.347038
 20
-38.692886
 11
-115.507446
 21
-37.799133
  0
LINE
  8
0
 10
-127.280418
 20
-38.194092
 11
-127.280418
 21
-22.874063
  0
LINE
  8
0
 10
-116.347099
 20
-38.692837
 11
-116.347099
 21
-30.534107
  0
LINE
  8
0
 10
-174.707504
 20
-36.984116
 11
-167.807510
 21
-36.984116
  0
LINE
  8
0
 10
-174.707504
 20
-24.084122
 11
-167.807510
 21
-24.084120
  0
LINE
  8
0
  6
CENTER
 10
-122.007507
 20
-18.723265
 11
-122.007507
 21
-42.935150
  0
LINE
  8
0
 10
-133.307526
 20
-22.026602
 11
-132.961197
 21
-20.734123
  0
LINE
  8
0
 10
-133.307510
 20
-39.041634
 11
-132.961197
 21
-40.334106
  0
ARC
  8
0
 10
-144.807510
 20
-22.534113
 40
3.499995
 50
351.786774
 51
90.000000
  0
CIRCLE
  8
0
 10
-144.807510
 20
-22.534113
 40
2.100000
  0
ARC
  8
0
 10
-144.807510
 20
-22.534113
 40
4.500001
 50
173.620682
 51
321.057587
  0
ARC
  8
0
 10
-144.807510
 20
-22.534113
 40
5.499993
 50
185.215912
 51
297.035706
  0
ARC
  8
0
 10
-162.807510
 20
-22.534117
 40
3.500002
 50
90.000000
 51
188.213196
  0
CIRCLE
  8
0
 10
-162.807510
 20
-22.534117
 40
2.100000
  0
ARC
  8
0
 10
-162.807510
 20
-22.534117
 40
4.499998
 50
218.942413
 51
6.379320
  0
ARC
  8
0
 10
-162.807510
 20
-22.534117
 40
5.499998
 50
242.964294
 51
354.784088
  0
ARC
  8
0
 10
-161.057510
 20
-1.534117
 40
1.000000
 50
90.000000
 51
180.000000
  0
ARC
  8
0
 10
-146.557510
 20
-1.534113
 40
1.000000
 50
0.000000
 51
90.000000
  0
POINT
  8
0
 10
-45.557739
 20
-30.534109
  0
POINT
  8
0
 10
-36.807755
 20
-30.534109
  0
LINE
  8
0
  6
CENTER
 10
-45.557739
 20
0.316378
 11
-45.557739
 21
-42.826630
  0
LINE
  8
0
  6
CENTER
 10
-58.132271
 20
-30.534109
 11
-32.300613
 21
-30.534109
  0
LINE
  8
0
 10
-54.307739
 20
-38.034119
 11
-49.553635
 21
-38.034119
  0
LINE
  8
0
 10
-40.057755
 20
-38.034119
 11
-40.057755
 21
-41.034119
  0
LINE
  8
0
 10
-51.057739
 20
-38.034119
 11
-51.057739
 21
-41.034119
  0
LINE
  8
0
 10
-51.057739
 20
-41.034119
 11
-40.057739
 21
-41.034119
  0
LINE
  8
0
 10
-41.561844
 20
-38.034119
 11
-36.807739
 21
-38.034119
  0
LINE
  8
0
 10
-54.307739
 20
-19.034109
 11
-36.807739
 21
-19.034109
  0
LINE
  8
0
 10
-41.561844
 20
-23.034109
 11
-36.807755
 21
-23.034109
  0
LINE
  8
0
 10
-40.557755
 20
-15.534117
 11
-40.557755
 21
-19.034117
  0
LINE
  8
0
 10
-50.557739
 20
-15.534117
 11
-50.557739
 21
-19.034117
  0
LINE
  8
0
 10
-49.553635
 20
-23.034109
 11
-54.307739
 21
-23.034109
  0
LINE
  8
0
 10
-37.307739
 20
-15.534109
 11
-53.807739
 21
-15.534109
  0
LINE
  8
0
 10
-37.307755
 20
-11.034117
 11
-37.307755
 21
-15.534117
  0
LINE
  8
0
 10
-43.057755
 20
-1.034117
 11
-43.057755
 21
-9.534117
  0
LINE
  8
0
 10
-37.807739
 20
-10.534109
 11
-53.307739
 21
-10.534109
  0
LINE
  8
0
 10
-53.807739
 20
-11.034109
 11
-53.807739
 21
-15.534109
  0
LINE
  8
0
 10
-48.057739
 20
-1.034117
 11
-48.057739
 21
-9.534117
  0
LINE
  8
0
 10
-43.557739
 20
-0.534109
 11
-47.557739
 21
-0.534109
  0
LINE
  8
0
 10
-36.807755
 20
-19.034117
 11
-36.807755
 21
-38.034119
  0
LINE
  8
0
 10
-54.307739
 20
-19.034109
 11
-54.307739
 21
-38.034119
  0
LINE
  8
0
 10
-54.057739
 20
-25.626640
 11
-45.477612
 21
-20.672901
  0
LINE
  8
0
 10
-45.637863
 20
-40.395329
 11
-37.057739
 21
-35.441593
  0
LINE
  8
0
 10
-54.057747
 20
-35.441582
 11
-45.477612
 21
-40.395325
  0
LINE
  8
0
 10
-45.637856
 20
-20.672905
 11
-37.057732
 21
-25.626638
  0
LINE
  8
0
 10
-54.057739
 20
-25.626631
 11
-54.057739
 21
-35.441589
  0
LINE
  8
0
 10
-37.057739
 20
-25.626631
 11
-37.057739
 21
-35.441589
  0
ARC
  8
0
 10
-37.807739
 20
-11.034109
 40
0.500000
 50
0.000000
 51
90.000000
  0
ARC
  8
0
 10
-43.557739
 20
-1.034109
 40
0.500000
 50
0.000000
 51
90.000000
  0
ARC
  8
0
 10
-42.057739
 20
-9.534109
 40
1.000000
 50
180.000000
 51
270.000000
  0
ARC
  8
0
 10
-53.307739
 20
-11.034109
 40
0.500000
 50
90.000000
 51
180.000000
  0
ARC
  8
0
 10
-47.557739
 20
-1.034109
 40
0.500000
 50
90.000000
 51
180.000000
  0
ARC
  8
0
 10
-49.057739
 20
-9.534109
 40
1.000000
 50
270.000000
 51
0.000000
  0
CIRCLE
  8
0
 10
-45.557739
 20
-30.534109
 40
3.000000
  0
CIRCLE
  8
0
 10
-45.557739
 20
-30.534109
 40
5.000000
  0
CIRCLE
  8
0
 10
-45.557739
 20
-30.534109
 40
8.132500
  0
CIRCLE
  8
0
 10
-45.557739
 20
-30.534109
 40
8.507500
  0
POINT
  8
0
 10
-230.686569
 20
-30.534124
  0
POINT
  8
0
 10
-221.936569
 20
-30.534124
  0
LINE
  8
0
  6
CENTER
 10
-230.686569
 20
0.316362
 11
-230.686569
 21
-42.826660
  0
LINE
  8
0
  6
CENTER
 10
-243.946548
 20
-30.534124
 11
-218.572906
 21
-30.534124
  0
LINE
  8
0
 10
-225.186569
 20
-38.034119
 11
-225.186569
 21
-41.034119
  0
LINE
  8
0
 10
-236.186569
 20
-38.034119
 11
-236.186569
 21
-41.034119
  0
LINE
  8
0
 10
-236.186569
 20
-41.034119
 11
-225.186569
 21
-41.034119
  0
LINE
  8
0
 10
-239.436569
 20
-38.034119
 11
-221.936569
 21
-38.034119
  0
LINE
  8
0
 10
-239.436569
 20
-15.534124
 11
-221.936569
 21
-15.534124
  0
LINE
  8
0
 10
-239.436569
 20
-19.034124
 11
-221.936569
 21
-19.034124
  0
LINE
  8
0
 10
-239.436569
 20
-23.034124
 11
-221.936569
 21
-23.034124
  0
LINE
  8
0
 10
-225.686569
 20
-15.534132
 11
-225.686569
 21
-19.034132
  0
LINE
  8
0
 10
-235.686569
 20
-15.534132
 11
-235.686569
 21
-19.034132
  0
LINE
  8
0
 10
-222.436569
 20
-11.034132
 11
-222.436569
 21
-15.534132
  0
LINE
  8
0
 10
-228.186569
 20
-1.034132
 11
-228.186569
 21
-9.534132
  0
LINE
  8
0
 10
-222.936569
 20
-10.534124
 11
-238.436569
 21
-10.534124
  0
LINE
  8
0
 10
-238.936569
 20
-11.034132
 11
-238.936569
 21
-15.534132
  0
LINE
  8
0
 10
-233.186569
 20
-1.034132
 11
-233.186569
 21
-9.534132
  0
LINE
  8
0
 10
-228.686569
 20
-0.534124
 11
-232.686569
 21
-0.534124
  0
LINE
  8
0
 10
-239.436569
 20
-15.534132
 11
-239.436569
 21
-38.034119
  0
LINE
  8
0
 10
-221.936569
 20
-15.534132
 11
-221.936569
 21
-38.034119
  0
ARC
  8
0
 10
-222.936569
 20
-11.034124
 40
0.500000
 50
0.000000
 51
90.000000
  0
ARC
  8
0
 10
-228.686569
 20
-1.034124
 40
0.500000
 50
0.000000
 51
90.000000
  0
ARC
  8
0
 10
-227.186569
 20
-9.534124
 40
1.000000
 50
180.000000
 51
270.000000
  0
ARC
  8
0
 10
-238.436569
 20
-11.034124
 40
0.500000
 50
90.000000
 51
180.000000
  0
ARC
  8
0
 10
-232.686569
 20
-1.034124
 40
0.500000
 50
90.000000
 51
180.000000
  0
ARC
  8
0
 10
-234.186569
 20
-9.534124
 40
1.000000
 50
270.000000
 51
0.000000
  0
CIRCLE
  8
0
 10
-230.686569
 20
-30.534124
 40
5.900000
  0
CIRCLE
  8
0
 10
-230.686569
 20
-30.534124
 40
3.100000
  0
CIRCLE
  8
0
 10
-230.686569
 20
-30.534124
 40
6.450012
  0
POINT
  8
0
 10
-122.007507
 20
39.465866
  0
POINT
  8
0
 10
-107.007507
 20
39.465870
  0
LINE
  8
0
  6
CENTER
 10
-153.807526
 20
53.912346
 11
-153.807510
 21
22.671221
  0
LINE
  8
0
 10
-167.807526
 20
48.215851
 11
-167.807526
 21
30.715851
  0
LINE
  8
0
 10
-139.807526
 20
48.215855
 11
-139.807510
 21
30.715855
  0
LINE
  8
0
 10
-162.467773
 20
34.465858
 11
-160.681366
 21
34.465858
  0
LINE
  8
0
 10
-162.467773
 20
44.465858
 11
-160.681366
 21
44.465858
  0
LINE
  8
0
 10
-146.933655
 20
44.465862
 11
-145.147247
 21
44.465862
  0
LINE
  8
0
 10
-146.933655
 20
34.465862
 11
-145.147247
 21
34.465862
  0
LINE
  8
0
 10
-161.294998
 20
36.965858
 11
-146.320023
 21
36.965862
  0
LINE
  8
0
 10
-161.294998
 20
41.965858
 11
-146.320023
 21
41.965862
  0
LINE
  8
0
 10
-159.807510
 20
40.315865
 11
-147.807510
 21
40.315868
  0
LINE
  8
0
 10
-159.807510
 20
38.615868
 11
-147.807510
 21
38.615871
  0
LINE
  8
0
 10
-147.807526
 20
40.315861
 11
-147.807526
 21
38.615864
  0
LINE
  8
0
 10
-159.807526
 20
40.315857
 11
-159.807526
 21
38.615860
  0
LINE
  8
0
 10
-133.307526
 20
47.965866
 11
-133.307510
 21
30.965864
  0
LINE
  8
0
 10
-139.807510
 20
46.465862
 11
-133.307510
 21
46.465866
  0
LINE
  8
0
 10
-139.807510
 20
32.465862
 11
-133.307510
 21
32.465866
  0
LINE
  8
0
 10
-127.507515
 20
47.973373
 11
-127.507515
 21
39.465866
  0
LINE
  8
0
 10
-127.507515
 20
30.958359
 11
-127.507515
 21
39.465866
  0
LINE
  8
0
 10
-115.507515
 20
39.465866
 11
-115.507515
 21
46.730850
  0
LINE
  8
0
 10
-127.507515
 20
47.973366
 11
-127.505508
 21
47.965862
  0
LINE
  8
0
 10
-127.507492
 20
30.958355
 11
-127.505486
 21
30.965855
  0
LINE
  8
0
 10
-127.507515
 20
47.973404
 11
-116.347107
 21
47.624641
  0
LINE
  8
0
 10
-127.507515
 20
47.973358
 11
-127.280426
 21
47.125843
  0
LINE
  8
0
 10
-127.280418
 20
47.125908
 11
-115.533745
 21
46.758827
  0
LINE
  8
0
 10
-116.347107
 20
47.624622
 11
-115.507507
 21
46.730858
  0
LINE
  8
0
 10
-115.507515
 20
39.465866
 11
-115.507515
 21
32.200882
  0
LINE
  8
0
 10
-127.507515
 20
30.958378
 11
-116.347115
 21
31.307142
  0
LINE
  8
0
 10
-127.507454
 20
30.958368
 11
-127.280365
 21
31.805868
  0
LINE
  8
0
 10
-127.280418
 20
31.805868
 11
-115.533752
 21
32.172955
  0
LINE
  8
0
 10
-116.347046
 20
31.307079
 11
-115.507454
 21
32.200840
  0
LINE
  8
0
 10
-127.280426
 20
31.805862
 11
-127.280426
 21
47.125912
  0
LINE
  8
0
 10
-116.347115
 20
31.307129
 11
-116.347115
 21
47.624641
  0
LINE
  8
0
 10
-133.307526
 20
47.965866
 11
-127.505493
 21
47.965866
  0
LINE
  8
0
 10
-133.307510
 20
30.965864
 11
-127.507507
 21
30.965866
  0
LINE
  8
0
 10
-167.807510
 20
48.215858
 11
-139.807510
 21
48.215862
  0
LINE
  8
0
 10
-167.807510
 20
30.715858
 11
-139.807510
 21
30.715862
  0
LINE
  8
0
  6
CENTER
 10
-185.862427
 20
39.465855
 11
-112.348755
 21
39.465866
  0
LINE
  8
0
 10
-174.707520
 20
45.915859
 11
-174.707520
 21
33.015858
  0
LINE
  8
0
 10
-174.707504
 20
45.215858
 11
-176.707504
 21
45.215858
  0
LINE
  8
0
 10
-176.707520
 20
45.215858
 11
-176.707520
 21
33.715858
  0
LINE
  8
0
 10
-179.707520
 20
45.365856
 11
-179.707520
 21
33.565853
  0
LINE
  8
0
 10
-177.907501
 20
45.365860
 11
-177.907501
 21
33.565857
  0
LINE
  8
0
 10
-177.907501
 20
45.365860
 11
-179.707504
 21
45.365856
  0
LINE
  8
0
 10
-176.707504
 20
43.515862
 11
-177.907501
 21
43.515862
  0
LINE
  8
0
 10
-174.707504
 20
33.715858
 11
-176.707520
 21
33.715858
  0
LINE
  8
0
 10
-177.907501
 20
33.565857
 11
-179.707520
 21
33.565853
  0
LINE
  8
0
 10
-176.707504
 20
35.415855
 11
-177.907501
 21
35.415855
  0
LINE
  8
0
 10
-174.707520
 20
33.015858
 11
-167.807526
 21
33.015858
  0
LINE
  8
0
 10
-174.707520
 20
45.915859
 11
-167.807526
 21
45.915859
  0
LINE
  8
0
  6
CENTER
 10
-122.007507
 20
53.131325
 11
-122.007507
 21
23.712593
  0
LINE
  8
0
 10
-133.307526
 20
39.465862
 11
-127.505493
 21
39.465866
  0
CIRCLE
  8
0
 10
-153.807510
 20
39.465862
 40
8.500000
  0
ARC
  8
0
 10
-153.807510
 20
39.465862
 40
10.000006
 50
150.000046
 51
209.999954
  0
ARC
  8
0
 10
-153.807510
 20
39.465862
 40
10.000008
 50
330.000031
 51
29.999973
  0
ARC
  8
0
 10
-153.807510
 20
39.465862
 40
8.249997
 50
345.044739
 51
14.955253
  0
ARC
  8
0
 10
-146.320023
 20
37.465862
 40
0.500000
 50
270.000000
 51
345.044739
  0
ARC
  8
0
 10
-146.320023
 20
41.465862
 40
0.499999
 50
14.955267
 51
90.000000
  0
ARC
  8
0
 10
-153.807510
 20
39.465862
 40
8.249995
 50
165.044800
 51
194.955246
  0
ARC
  8
0
 10
-161.294998
 20
41.465858
 40
0.500000
 50
90.000000
 51
165.044739
  0
ARC
  8
0
 10
-161.294998
 20
37.465858
 40
0.499999
 50
194.955261
 51
270.000000
  0
POINT
  8
0
 10
157.095001
 20
-30.534109
  0
POINT
  8
0
 10
172.095001
 20
-30.534107
  0
LINE
  8
0
  6
CENTER
 10
127.594994
 20
4.042883
 11
127.595001
 21
-45.257397
  0
LINE
  8
0
 10
133.095001
 20
-38.034115
 11
133.095001
 21
-41.034111
  0
LINE
  8
0
 10
141.595001
 20
-23.034111
 11
141.595001
 21
-38.034111
  0
LINE
  8
0
 10
117.594994
 20
-15.534116
 11
137.595001
 21
-15.534113
  0
LINE
  8
0
 10
117.594994
 20
-19.034115
 11
137.595001
 21
-19.034113
  0
LINE
  8
0
 10
140.059097
 20
-23.034111
 11
141.595001
 21
-23.034111
  0
LINE
  8
0
 10
137.595001
 20
-15.534113
 11
137.595001
 21
-19.034113
  0
LINE
  8
0
  6
CENTER
 10
133.903992
 20
-22.534113
 11
140.979218
 21
-22.534111
  0
LINE
  8
0
  6
CENTER
 10
136.595001
 20
-19.426203
 11
136.595001
 21
-25.811152
  0
LINE
  8
0
 10
139.095001
 20
-27.433084
 11
139.095001
 21
-35.534111
  0
LINE
  8
0
 10
140.095001
 20
-25.362541
 11
140.095001
 21
-36.534111
  0
LINE
  8
0
  6
CENTER
 10
93.482849
 20
-30.534121
 11
165.395386
 21
-30.534107
  0
LINE
  8
0
 10
134.595001
 20
-15.534113
 11
134.595001
 21
-19.034113
  0
LINE
  8
0
 10
133.095001
 20
-15.534113
 11
133.095001
 21
-19.034113
  0
LINE
  8
0
 10
141.595001
 20
-38.034111
 11
113.595001
 21
-38.034119
  0
LINE
  8
0
 10
133.095001
 20
-41.034111
 11
122.095001
 21
-41.034115
  0
LINE
  8
0
 10
122.095001
 20
-38.034115
 11
122.095001
 21
-41.034115
  0
LINE
  8
0
 10
113.595001
 20
-23.034117
 11
113.595001
 21
-38.034119
  0
LINE
  8
0
 10
115.130898
 20
-23.034117
 11
113.595001
 21
-23.034117
  0
LINE
  8
0
 10
117.594994
 20
-15.534116
 11
117.594994
 21
-19.034115
  0
LINE
  8
0
  6
CENTER
 10
121.286003
 20
-22.534115
 11
114.210785
 21
-22.534117
  0
LINE
  8
0
  6
CENTER
 10
118.594994
 20
-19.426205
 11
118.595001
 21
-25.811153
  0
LINE
  8
0
 10
132.122864
 20
-22.034115
 11
123.067139
 21
-22.034115
  0
LINE
  8
0
 10
131.117767
 20
-23.034115
 11
124.072220
 21
-23.034115
  0
LINE
  8
0
 10
139.095001
 20
-35.534111
 11
116.095001
 21
-35.534115
  0
LINE
  8
0
 10
140.095001
 20
-36.534111
 11
115.095001
 21
-36.534115
  0
LINE
  8
0
 10
116.095001
 20
-27.433088
 11
116.095001
 21
-35.534115
  0
LINE
  8
0
 10
115.095001
 20
-25.362547
 11
115.095001
 21
-36.534115
  0
LINE
  8
0
 10
120.594994
 20
-15.534116
 11
120.594994
 21
-19.034115
  0
LINE
  8
0
 10
122.094994
 20
-15.534115
 11
122.094994
 21
-19.034115
  0
LINE
  8
0
 10
119.344994
 20
-10.534115
 11
135.845001
 21
-10.534113
  0
LINE
  8
0
 10
120.344994
 20
-0.534115
 11
134.844986
 21
-0.534113
  0
LINE
  8
0
 10
135.844986
 20
-1.534113
 11
135.845001
 21
-15.534113
  0
LINE
  8
0
 10
119.344994
 20
-1.534115
 11
119.344994
 21
-15.534116
  0
LINE
  8
0
 10
148.095001
 20
-23.534111
 11
148.095001
 21
-37.534111
  0
LINE
  8
0
 10
141.595001
 20
-23.534111
 11
148.095001
 21
-23.534111
  0
LINE
  8
0
 10
141.595001
 20
-37.534111
 11
148.095001
 21
-37.534111
  0
LINE
  8
0
 10
153.094986
 20
-23.634115
 11
153.095001
 21
-37.534111
  0
LINE
  8
0
 10
148.362946
 20
-22.634117
 11
152.827042
 21
-22.634117
  0
LINE
  8
0
 10
152.827042
 20
-22.634102
 11
153.094986
 21
-23.634104
  0
LINE
  8
0
 10
148.095001
 20
-23.634102
 11
148.362946
 21
-22.634100
  0
LINE
  8
0
 10
148.362946
 20
-38.434113
 11
152.827057
 21
-38.434113
  0
LINE
  8
0
 10
148.095001
 20
-37.434120
 11
148.362946
 21
-38.434116
  0
LINE
  8
0
 10
152.827042
 20
-38.434113
 11
153.094986
 21
-37.434109
  0
LINE
  8
0
 10
148.095001
 20
-34.534111
 11
153.095001
 21
-34.534111
  0
LINE
  8
0
 10
148.095001
 20
-26.534111
 11
153.094986
 21
-26.534109
  0
LINE
  8
0
 10
153.095001
 20
-25.544098
 11
160.595245
 21
-25.778481
  0
LINE
  8
0
 10
153.095001
 20
-25.544102
 11
153.271637
 21
-26.203320
  0
LINE
  8
0
 10
160.595245
 20
-25.778486
 11
161.095001
 21
-26.310488
  0
LINE
  8
0
 10
153.271637
 20
-26.203321
 11
161.095001
 21
-26.310492
  0
LINE
  8
0
 10
161.095001
 20
-34.757725
 11
161.095001
 21
-26.310492
  0
LINE
  8
0
 10
153.095001
 20
-35.524117
 11
160.595245
 21
-35.289734
  0
LINE
  8
0
 10
160.595245
 20
-35.289730
 11
161.095001
 21
-34.757729
  0
LINE
  8
0
 10
153.271637
 20
-34.864899
 11
161.095001
 21
-34.757729
  0
LINE
  8
0
 10
153.094986
 20
-35.524117
 11
153.271622
 21
-34.864906
  0
LINE
  8
0
 10
153.271622
 20
-26.203329
 11
153.271637
 21
-34.864891
  0
LINE
  8
0
 10
160.595230
 20
-25.778494
 11
160.595245
 21
-35.289722
  0
LINE
  8
0
 10
113.595001
 20
-38.034119
 11
104.595001
 21
-38.034119
  0
LINE
  8
0
 10
113.595001
 20
-23.034117
 11
104.595001
 21
-23.034119
  0
LINE
  8
0
 10
104.595001
 20
-23.034119
 11
104.595001
 21
-38.034119
  0
LINE
  8
0
 10
99.695000
 20
-23.634125
 11
99.695000
 21
-37.434113
  0
LINE
  8
0
 10
102.695000
 20
-23.534119
 11
102.695000
 21
-37.534119
  0
LINE
  8
0
 10
101.695000
 20
-23.634125
 11
101.695000
 21
-37.434113
  0
LINE
  8
0
 10
104.595001
 20
-23.534119
 11
102.695000
 21
-23.534119
  0
LINE
  8
0
 10
104.595001
 20
-37.534119
 11
102.695000
 21
-37.534119
  0
LINE
  8
0
 10
102.695000
 20
-25.634125
 11
101.695000
 21
-25.634125
  0
LINE
  8
0
 10
102.695000
 20
-35.434113
 11
101.695000
 21
-35.434113
  0
LINE
  8
0
 10
101.695000
 20
-23.634125
 11
99.695000
 21
-23.634125
  0
LINE
  8
0
 10
101.695000
 20
-37.434113
 11
99.695000
 21
-37.434113
  0
LINE
  8
0
  6
CENTER
 10
157.095001
 20
-23.634115
 11
157.095001
 21
-37.434105
  0
ARC
  8
0
 10
136.595001
 20
-22.534113
 40
3.499994
 50
351.786804
 51
90.000000
  0
CIRCLE
  8
0
 10
136.595001
 20
-22.534113
 40
2.100000
  0
ARC
  8
0
 10
136.595001
 20
-22.534113
 40
4.500001
 50
173.620651
 51
321.057556
  0
ARC
  8
0
 10
136.595001
 20
-22.534113
 40
5.500008
 50
185.215897
 51
297.035706
  0
ARC
  8
0
 10
118.595001
 20
-22.534115
 40
3.500000
 50
90.000122
 51
188.213181
  0
CIRCLE
  8
0
 10
118.595001
 20
-22.534115
 40
2.100000
  0
ARC
  8
0
 10
118.595001
 20
-22.534115
 40
4.500000
 50
218.942429
 51
6.379320
  0
ARC
  8
0
 10
118.595001
 20
-22.534115
 40
5.500003
 50
242.964233
 51
354.784058
  0
ARC
  8
0
 10
120.344994
 20
-1.534115
 40
1.000000
 50
90.000000
 51
180.000000
  0
ARC
  8
0
 10
134.844986
 20
-1.534113
 40
1.000000
 50
0.000000
 51
90.000000
  0
POINT
  8
0
 10
238.468170
 20
-30.534109
  0
POINT
  8
0
 10
247.218170
 20
-30.534109
  0
LINE
  8
0
  6
CENTER
 10
238.468231
 20
4.931177
 11
238.468140
 21
-45.701546
  0
LINE
  8
0
  6
CENTER
 10
221.701904
 20
-30.534065
 11
256.811707
 21
-30.534126
  0
LINE
  8
0
 10
245.468170
 20
-26.492649
 11
245.468170
 21
-34.575565
  0
LINE
  8
0
 10
245.468170
 20
-34.575569
 11
238.468155
 21
-38.434109
  0
LINE
  8
0
 10
245.468170
 20
-26.492653
 11
238.468170
 21
-22.634092
  0
LINE
  8
0
 10
231.468170
 20
-26.492622
 11
238.468185
 21
-22.634085
  0
LINE
  8
0
 10
231.468170
 20
-26.492622
 11
231.468170
 21
-34.575539
  0
LINE
  8
0
 10
231.468170
 20
-34.575539
 11
238.468155
 21
-38.434101
  0
LINE
  8
0
 10
229.718155
 20
-38.034081
 11
237.742493
 21
-38.034092
  0
LINE
  8
0
 10
243.968155
 20
-38.034103
 11
243.968155
 21
-41.034103
  0
LINE
  8
0
 10
232.968155
 20
-38.034084
 11
232.968155
 21
-41.034084
  0
LINE
  8
0
 10
239.193817
 20
-38.034096
 11
247.218155
 21
-38.034111
  0
LINE
  8
0
 10
239.193848
 20
-23.034096
 11
247.218185
 21
-23.034109
  0
LINE
  8
0
 10
243.468201
 20
-15.534102
 11
243.468185
 21
-19.034103
  0
LINE
  8
0
 10
233.468201
 20
-15.534085
 11
233.468185
 21
-19.034084
  0
LINE
  8
0
 10
237.742523
 20
-23.034092
 11
229.718185
 21
-23.034079
  0
LINE
  8
0
 10
247.218201
 20
-15.534109
 11
229.718201
 21
-15.534079
  0
LINE
  8
0
 10
247.218185
 20
-19.034109
 11
229.718185
 21
-19.034079
  0
LINE
  8
0
 10
246.718201
 20
-11.034109
 11
246.718201
 21
-15.534108
  0
LINE
  8
0
 10
240.968216
 20
-1.034098
 11
240.968201
 21
-9.534098
  0
LINE
  8
0
 10
246.218201
 20
-10.534107
 11
230.718201
 21
-10.534081
  0
LINE
  8
0
 10
230.218201
 20
-11.034079
 11
230.218201
 21
-15.534080
  0
LINE
  8
0
 10
235.968216
 20
-1.034090
 11
235.968201
 21
-9.534090
  0
LINE
  8
0
 10
240.468216
 20
-0.534098
 11
236.468216
 21
-0.534090
  0
LINE
  8
0
 10
229.718201
 20
-15.534079
 11
229.718155
 21
-38.034081
  0
LINE
  8
0
 10
247.218201
 20
-15.534109
 11
247.218155
 21
-38.034111
  0
LINE
  8
0
 10
232.968155
 20
-41.034084
 11
243.968155
 21
-41.034103
  0
CIRCLE
  8
0
 10
238.468170
 20
-30.534094
 40
4.740000
  0
CIRCLE
  8
0
 10
238.468170
 20
-30.534094
 40
4.990000
  0
CIRCLE
  8
0
 10
238.468170
 20
-30.534094
 40
3.000000
  0
ARC
  8
0
 10
246.218201
 20
-11.034107
 40
0.500000
 50
359.999786
 51
90.000000
  0
ARC
  8
0
 10
240.468216
 20
-1.034098
 40
0.500000
 50
0.000000
 51
90.000000
  0
ARC
  8
0
 10
241.968201
 20
-9.534100
 40
1.000000
 50
179.999893
 51
270.000000
  0
ARC
  8
0
 10
230.718201
 20
-11.034081
 40
0.500000
 50
90.000000
 51
179.999786
  0
ARC
  8
0
 10
236.468216
 20
-1.034090
 40
0.500000
 50
90.000000
 51
180.000000
  0
ARC
  8
0
 10
234.968201
 20
-9.534088
 40
1.000000
 50
270.000000
 51
359.999878
  0
POINT
  8
0
 10
44.525208
 20
-30.534109
  0
POINT
  8
0
 10
53.275208
 20
-30.534109
  0
LINE
  8
0
  6
CENTER
 10
44.525208
 20
4.487040
 11
44.525208
 21
-45.701546
  0
LINE
  8
0
  6
CENTER
 10
27.218819
 20
-30.534109
 11
63.980839
 21
-30.534109
  0
LINE
  8
0
 10
50.025208
 20
-38.034111
 11
50.025208
 21
-41.034111
  0
LINE
  8
0
 10
39.025208
 20
-38.034111
 11
39.025208
 21
-41.034111
  0
LINE
  8
0
 10
39.025208
 20
-41.034111
 11
50.025208
 21
-41.034111
  0
LINE
  8
0
 10
35.775208
 20
-38.034111
 11
53.275208
 21
-38.034111
  0
LINE
  8
0
 10
35.775208
 20
-15.534109
 11
53.275208
 21
-15.534109
  0
LINE
  8
0
 10
35.775208
 20
-19.034109
 11
53.275208
 21
-19.034109
  0
LINE
  8
0
 10
35.775208
 20
-23.034109
 11
53.275208
 21
-23.034109
  0
LINE
  8
0
 10
49.525208
 20
-15.534109
 11
49.525208
 21
-19.034109
  0
LINE
  8
0
 10
39.525208
 20
-15.534109
 11
39.525208
 21
-19.034109
  0
LINE
  8
0
 10
52.775208
 20
-11.034109
 11
52.775208
 21
-15.534109
  0
LINE
  8
0
 10
47.025208
 20
-1.034109
 11
47.025208
 21
-9.534109
  0
LINE
  8
0
 10
52.275208
 20
-10.534109
 11
36.775208
 21
-10.534109
  0
LINE
  8
0
 10
36.275208
 20
-11.034109
 11
36.275208
 21
-15.534109
  0
LINE
  8
0
 10
42.025208
 20
-1.034109
 11
42.025208
 21
-9.534109
  0
LINE
  8
0
 10
46.525208
 20
-0.534109
 11
42.525208
 21
-0.534109
  0
LINE
  8
0
 10
53.275208
 20
-15.534109
 11
53.275208
 21
-38.034111
  0
LINE
  8
0
 10
35.775208
 20
-15.534109
 11
35.775208
 21
-38.034111
  0
ARC
  8
0
 10
52.275208
 20
-11.034109
 40
0.500000
 50
0.000000
 51
90.000000
  0
ARC
  8
0
 10
46.525208
 20
-1.034109
 40
0.500000
 50
0.000000
 51
90.000000
  0
ARC
  8
0
 10
48.025208
 20
-9.534109
 40
1.000000
 50
180.000000
 51
270.000000
  0
ARC
  8
0
 10
36.775208
 20
-11.034109
 40
0.500000
 50
90.000000
 51
180.000000
  0
ARC
  8
0
 10
42.525208
 20
-1.034109
 40
0.500000
 50
90.000000
 51
180.000000
  0
ARC
  8
0
 10
41.025208
 20
-9.534109
 40
1.000000
 50
270.000000
 51
0.000000
  0
CIRCLE
  8
0
 10
44.525208
 20
-30.534109
 40
7.500000
  0
CIRCLE
  8
0
 10
44.525208
 20
-30.534109
 40
6.900000
  0
CIRCLE
  8
0
 10
44.525208
 20
-30.534109
 40
7.000000
  0
CIRCLE
  8
0
 10
44.525208
 20
-30.534109
 40
4.100000
  0
POINT
  8
0
 10
157.095001
 20
34.465889
  0
POINT
  8
0
 10
172.095001
 20
34.465893
  0
POINT
  8
0
 10
153.095001
 20
27.565960
  0
POINT
  8
0
 10
153.068192
 20
27.465889
  0
LINE
  8
0
  6
CENTER
 10
127.595001
 20
48.901707
 11
127.595001
 21
20.254246
  0
LINE
  8
0
 10
113.595001
 20
43.215881
 11
113.595001
 21
25.715881
  0
LINE
  8
0
 10
141.595001
 20
43.215885
 11
141.595001
 21
25.715885
  0
LINE
  8
0
 10
118.934746
 20
29.465881
 11
120.721138
 21
29.465883
  0
LINE
  8
0
 10
118.934746
 20
39.465881
 11
120.721138
 21
39.465881
  0
LINE
  8
0
 10
134.468872
 20
39.465885
 11
136.255249
 21
39.465885
  0
LINE
  8
0
 10
134.468872
 20
29.465885
 11
136.255249
 21
29.465885
  0
LINE
  8
0
 10
120.107513
 20
31.965883
 11
135.082489
 21
31.965885
  0
LINE
  8
0
 10
120.107513
 20
36.965881
 11
135.082489
 21
36.965885
  0
LINE
  8
0
 10
121.595001
 20
35.315887
 11
133.595001
 21
35.315891
  0
LINE
  8
0
 10
121.595001
 20
33.615875
 11
133.595001
 21
33.615879
  0
LINE
  8
0
 10
133.595001
 20
35.315891
 11
133.595001
 21
33.615879
  0
LINE
  8
0
 10
121.595001
 20
35.315887
 11
121.595001
 21
33.615875
  0
LINE
  8
0
 10
148.095001
 20
41.465889
 11
148.095001
 21
27.465887
  0
LINE
  8
0
 10
141.595001
 20
41.465885
 11
148.095001
 21
41.465889
  0
LINE
  8
0
 10
141.595001
 20
27.465885
 11
148.095001
 21
27.465887
  0
LINE
  8
0
 10
153.095001
 20
41.365883
 11
153.095001
 21
27.565960
  0
LINE
  8
0
 10
153.068192
 20
41.465904
 11
153.094986
 21
41.365902
  0
LINE
  8
0
 10
148.095001
 20
41.365913
 11
148.121796
 21
41.465900
  0
LINE
  8
0
 10
148.095001
 20
27.565887
 11
148.121796
 21
27.465883
  0
LINE
  8
0
 10
153.068192
 20
27.465889
 11
153.095001
 21
27.565960
  0
LINE
  8
0
 10
153.095001
 20
39.455883
 11
160.595245
 21
39.221500
  0
LINE
  8
0
 10
153.095001
 20
39.455883
 11
153.271637
 21
38.796673
  0
LINE
  8
0
 10
160.595245
 20
39.221493
 11
161.095001
 21
38.689491
  0
LINE
  8
0
 10
153.271637
 20
38.796696
 11
161.095001
 21
38.689526
  0
LINE
  8
0
 10
161.095001
 20
30.242271
 11
161.095001
 21
38.689491
  0
LINE
  8
0
 10
153.095001
 20
29.475895
 11
160.595261
 21
29.710279
  0
LINE
  8
0
 10
160.595245
 20
29.710281
 11
161.095001
 21
30.242283
  0
LINE
  8
0
 10
153.271637
 20
30.135088
 11
161.095016
 21
30.242260
  0
LINE
  8
0
 10
153.095001
 20
29.475897
 11
153.271637
 21
30.135107
  0
LINE
  8
0
 10
153.271637
 20
38.796684
 11
153.271637
 21
30.135109
  0
LINE
  8
0
 10
160.595245
 20
39.221504
 11
160.595245
 21
29.710274
  0
LINE
  8
0
 10
148.095001
 20
41.465889
 11
153.068207
 21
41.465889
  0
LINE
  8
0
 10
148.121796
 20
27.465887
 11
153.068192
 21
27.465889
  0
LINE
  8
0
 10
113.595001
 20
26.965881
 11
104.595001
 21
26.965879
  0
LINE
  8
0
 10
113.595001
 20
41.965881
 11
104.595001
 21
41.965881
  0
LINE
  8
0
 10
104.595001
 20
41.965881
 11
104.595001
 21
26.965879
  0
LINE
  8
0
 10
99.695000
 20
41.365871
 11
99.695000
 21
27.565870
  0
LINE
  8
0
 10
102.695000
 20
41.465881
 11
102.695000
 21
27.465879
  0
LINE
  8
0
 10
101.695000
 20
41.365875
 11
101.695000
 21
27.565870
  0
LINE
  8
0
 10
104.595001
 20
41.465881
 11
102.695000
 21
41.465881
  0
LINE
  8
0
 10
104.595001
 20
27.465879
 11
102.695000
 21
27.465879
  0
LINE
  8
0
 10
102.695000
 20
39.365875
 11
101.695000
 21
39.365875
  0
LINE
  8
0
 10
102.695000
 20
29.565870
 11
101.695000
 21
29.565870
  0
LINE
  8
0
 10
101.695000
 20
41.365875
 11
99.695000
 21
41.365871
  0
LINE
  8
0
 10
101.695000
 20
27.565870
 11
99.695000
 21
27.565870
  0
LINE
  8
0
 10
113.595001
 20
25.715881
 11
141.595001
 21
25.715885
  0
LINE
  8
0
 10
113.595001
 20
43.215881
 11
141.595001
 21
43.215885
  0
LINE
  8
0
  6
CENTER
 10
157.095001
 20
41.365883
 11
157.095001
 21
27.565880
  0
LINE
  8
0
 10
148.095001
 20
34.465889
 11
153.095001
 21
34.465889
  0
CIRCLE
  8
0
 10
127.595001
 20
34.465885
 40
8.500000
  0
ARC
  8
0
 10
127.595001
 20
34.465885
 40
9.999997
 50
150.000046
 51
209.999954
  0
ARC
  8
0
 10
127.595001
 20
34.465885
 40
9.999994
 50
329.999969
 51
30.000017
  0
ARC
  8
0
 10
127.595001
 20
34.465885
 40
8.249997
 50
345.044739
 51
14.955253
  0
ARC
  8
0
 10
135.082489
 20
32.465885
 40
0.500000
 50
270.000000
 51
345.044739
  0
ARC
  8
0
 10
135.082489
 20
36.465885
 40
0.499999
 50
14.955267
 51
90.000000
  0
ARC
  8
0
 10
127.595001
 20
34.465885
 40
8.249996
 50
165.044769
 51
194.955231
  0
ARC
  8
0
 10
120.107513
 20
36.465881
 40
0.500000
 50
90.000000
 51
165.044739
  0
ARC
  8
0
 10
120.107513
 20
32.465881
 40
0.499999
 50
194.955261
 51
270.000000
  0
POINT
  8
0
 10
-117.116745
 20
-157.888306
  0
POINT
  8
0
 10
-102.116745
 20
-157.888306
  0
LINE
  8
0
  6
CENTER
 10
-147.616745
 20
-123.398079
 11
-147.616745
 21
-172.543320
  0
LINE
  8
0
 10
-142.116745
 20
-165.388306
 11
-142.116745
 21
-168.388306
  0
LINE
  8
0
 10
-133.616745
 20
-150.388306
 11
-133.616745
 21
-165.388306
  0
LINE
  8
0
 10
-135.152649
 20
-150.388306
 11
-133.616745
 21
-150.388306
  0
LINE
  8
0
 10
-137.616745
 20
-142.888306
 11
-137.616745
 21
-146.388306
  0
LINE
  8
0
  6
CENTER
 10
-141.307755
 20
-149.888306
 11
-134.232529
 21
-149.888306
  0
LINE
  8
0
  6
CENTER
 10
-138.616745
 20
-146.780396
 11
-138.616745
 21
-153.165344
  0
LINE
  8
0
 10
-136.116745
 20
-154.787292
 11
-136.116745
 21
-162.888306
  0
LINE
  8
0
 10
-135.116745
 20
-152.716736
 11
-135.116745
 21
-163.888306
  0
LINE
  8
0
  6
CENTER
 10
-181.960693
 20
-157.888321
 11
-109.654846
 21
-157.888306
  0
LINE
  8
0
 10
-140.616745
 20
-142.888306
 11
-140.616745
 21
-146.388306
  0
LINE
  8
0
 10
-142.116745
 20
-142.888306
 11
-142.116745
 21
-146.388306
  0
LINE
  8
0
 10
-133.616745
 20
-165.388306
 11
-161.616745
 21
-165.388306
  0
LINE
  8
0
 10
-142.116745
 20
-168.388306
 11
-153.116745
 21
-168.388306
  0
LINE
  8
0
 10
-153.116745
 20
-165.388306
 11
-153.116745
 21
-168.388306
  0
LINE
  8
0
 10
-161.616745
 20
-150.388306
 11
-161.616745
 21
-165.388306
  0
LINE
  8
0
 10
-137.616745
 20
-142.888306
 11
-157.616745
 21
-142.888306
  0
LINE
  8
0
 10
-137.616745
 20
-146.388306
 11
-157.616745
 21
-146.388306
  0
LINE
  8
0
 10
-160.080841
 20
-150.388306
 11
-161.616745
 21
-150.388306
  0
LINE
  8
0
 10
-157.616745
 20
-142.888306
 11
-157.616745
 21
-146.388306
  0
LINE
  8
0
  6
CENTER
 10
-153.925735
 20
-149.888306
 11
-161.000961
 21
-149.888306
  0
LINE
  8
0
  6
CENTER
 10
-156.616745
 20
-146.780396
 11
-156.616745
 21
-153.165359
  0
LINE
  8
0
 10
-143.088882
 20
-149.388306
 11
-152.144608
 21
-149.388306
  0
LINE
  8
0
 10
-144.093979
 20
-150.388306
 11
-151.139526
 21
-150.388306
  0
LINE
  8
0
 10
-136.116745
 20
-162.888306
 11
-159.116745
 21
-162.888306
  0
LINE
  8
0
 10
-135.116745
 20
-163.888306
 11
-160.116745
 21
-163.888306
  0
LINE
  8
0
 10
-159.116745
 20
-154.787292
 11
-159.116745
 21
-162.888306
  0
LINE
  8
0
 10
-160.116745
 20
-152.716736
 11
-160.116745
 21
-163.888306
  0
LINE
  8
0
 10
-154.616745
 20
-142.888306
 11
-154.616745
 21
-146.388306
  0
LINE
  8
0
 10
-153.116745
 20
-142.888306
 11
-153.116745
 21
-146.388306
  0
LINE
  8
0
 10
-139.366745
 20
-128.888306
 11
-139.366745
 21
-142.888306
  0
LINE
  8
0
 10
-139.366745
 20
-137.888306
 11
-155.866745
 21
-137.888306
  0
LINE
  8
0
 10
-140.366745
 20
-127.888306
 11
-154.866745
 21
-127.888313
  0
LINE
  8
0
 10
-155.866745
 20
-128.888306
 11
-155.866745
 21
-142.888306
  0
LINE
  8
0
 10
-127.116745
 20
-150.888306
 11
-127.116745
 21
-164.888306
  0
LINE
  8
0
 10
-133.616745
 20
-164.888306
 11
-127.116745
 21
-164.888306
  0
LINE
  8
0
 10
-133.616745
 20
-150.888306
 11
-127.116745
 21
-150.888306
  0
LINE
  8
0
 10
-122.116745
 20
-150.988312
 11
-122.116745
 21
-164.888306
  0
LINE
  8
0
 10
-126.821999
 20
-149.888306
 11
-122.411491
 21
-149.888306
  0
LINE
  8
0
 10
-127.116745
 20
-150.988312
 11
-126.822006
 21
-149.888306
  0
LINE
  8
0
 10
-122.411499
 20
-149.888306
 11
-122.116753
 21
-150.988312
  0
LINE
  8
0
 10
-127.116768
 20
-164.788315
 11
-126.822021
 21
-165.888306
  0
LINE
  8
0
 10
-126.821999
 20
-165.888306
 11
-122.411491
 21
-165.888306
  0
LINE
  8
0
 10
-122.411522
 20
-165.888290
 11
-122.116776
 21
-164.788300
  0
LINE
  8
0
 10
-127.116745
 20
-153.888306
 11
-122.116745
 21
-153.888306
  0
LINE
  8
0
 10
-127.116745
 20
-161.888306
 11
-122.116745
 21
-161.888306
  0
LINE
  8
0
 10
-122.116753
 20
-151.158310
 11
-121.884277
 21
-152.025909
  0
LINE
  8
0
 10
-122.116753
 20
-151.158295
 11
-111.616508
 21
-151.482849
  0
LINE
  8
0
 10
-121.884270
 20
-152.025894
 11
-111.143318
 21
-152.357880
  0
LINE
  8
0
 10
-111.616531
 20
-151.482880
 11
-111.116768
 21
-152.358734
  0
LINE
  8
0
 10
-111.116745
 20
-163.417892
 11
-111.116745
 21
-152.358734
  0
LINE
  8
0
 10
-122.116737
 20
-164.618301
 11
-111.616501
 21
-164.293747
  0
LINE
  8
0
 10
-121.884270
 20
-163.750702
 11
-111.143311
 21
-163.418716
  0
LINE
  8
0
 10
-111.616508
 20
-164.293762
 11
-111.116745
 21
-163.417908
  0
LINE
  8
0
 10
-122.116737
 20
-164.618317
 11
-121.884262
 21
-163.750717
  0
LINE
  8
0
 10
-121.884270
 20
-152.025909
 11
-121.884270
 21
-163.750702
  0
LINE
  8
0
 10
-161.616745
 20
-165.388321
 11
-170.616745
 21
-165.388321
  0
LINE
  8
0
 10
-161.616745
 20
-150.388306
 11
-170.616745
 21
-150.388321
  0
LINE
  8
0
 10
-170.616745
 20
-150.388321
 11
-170.616745
 21
-165.388321
  0
LINE
  8
0
 10
-175.516754
 20
-150.988312
 11
-175.516754
 21
-164.788315
  0
LINE
  8
0
 10
-172.516754
 20
-150.888321
 11
-172.516754
 21
-164.888321
  0
LINE
  8
0
 10
-173.516754
 20
-150.988312
 11
-173.516754
 21
-164.788315
  0
LINE
  8
0
 10
-170.616745
 20
-150.888321
 11
-172.516754
 21
-150.888321
  0
LINE
  8
0
 10
-170.616745
 20
-164.888321
 11
-172.516754
 21
-164.888321
  0
LINE
  8
0
 10
-172.516754
 20
-152.988312
 11
-173.516754
 21
-152.988312
  0
LINE
  8
0
 10
-172.516754
 20
-162.788315
 11
-173.516754
 21
-162.788315
  0
LINE
  8
0
 10
-173.516754
 20
-150.988312
 11
-175.516754
 21
-150.988312
  0
LINE
  8
0
 10
-173.516754
 20
-164.788315
 11
-175.516754
 21
-164.788315
  0
LINE
  8
0
  6
CENTER
 10
-117.116745
 20
-147.258438
 11
-117.116745
 21
-168.804001
  0
LINE
  8
0
 10
-111.616508
 20
-151.482849
 11
-111.616508
 21
-164.293747
  0
ARC
  8
0
 10
-138.616745
 20
-149.888306
 40
3.499995
 50
351.786774
 51
90.000000
  0
CIRCLE
  8
0
 10
-138.616745
 20
-149.888306
 40
2.100000
  0
ARC
  8
0
 10
-138.616745
 20
-149.888306
 40
4.500001
 50
173.620636
 51
321.057526
  0
ARC
  8
0
 10
-138.616745
 20
-149.888306
 40
5.500008
 50
185.215897
 51
297.035645
  0
ARC
  8
0
 10
-156.616745
 20
-149.888306
 40
3.500000
 50
90.000000
 51
188.213226
  0
CIRCLE
  8
0
 10
-156.616745
 20
-149.888306
 40
2.100000
  0
ARC
  8
0
 10
-156.616745
 20
-149.888306
 40
4.500002
 50
218.942474
 51
6.379175
  0
ARC
  8
0
 10
-156.616745
 20
-149.888306
 40
5.500007
 50
242.964340
 51
354.784088
  0
ARC
  8
0
 10
-154.866745
 20
-128.888306
 40
0.999992
 50
90.000000
 51
180.000000
  0
ARC
  8
0
 10
-140.366745
 20
-128.888306
 40
1.000000
 50
0.000000
 51
90.000000
  0
POINT
  8
0
 10
-46.743591
 20
-157.888290
  0
POINT
  8
0
 10
-37.993591
 20
-157.888290
  0
LINE
  8
0
  6
CENTER
 10
-46.743591
 20
-123.932251
 11
-46.743591
 21
-170.180817
  0
LINE
  8
0
  6
CENTER
 10
-59.290260
 20
-157.888290
 11
-34.539581
 21
-157.888290
  0
LINE
  8
0
 10
-39.743591
 20
-153.846832
 11
-39.743591
 21
-161.929749
  0
LINE
  8
0
 10
-39.743603
 20
-161.929749
 11
-46.743599
 21
-165.788284
  0
LINE
  8
0
 10
-39.743591
 20
-153.846848
 11
-46.743595
 21
-149.988297
  0
LINE
  8
0
 10
-53.743603
 20
-153.846848
 11
-46.743599
 21
-149.988297
  0
LINE
  8
0
 10
-53.743591
 20
-153.846832
 11
-53.743591
 21
-161.929749
  0
LINE
  8
0
 10
-53.743587
 20
-161.929749
 11
-46.743591
 21
-165.788300
  0
LINE
  8
0
 10
-55.493591
 20
-165.388290
 11
-47.469254
 21
-165.388290
  0
LINE
  8
0
 10
-41.243591
 20
-165.388290
 11
-41.243591
 21
-168.388290
  0
LINE
  8
0
 10
-52.243591
 20
-165.388290
 11
-52.243591
 21
-168.388290
  0
LINE
  8
0
 10
-52.243591
 20
-168.388290
 11
-41.243591
 21
-168.388290
  0
LINE
  8
0
 10
-46.017929
 20
-165.388290
 11
-37.993591
 21
-165.388290
  0
LINE
  8
0
 10
-46.017929
 20
-150.388290
 11
-37.993591
 21
-150.388290
  0
LINE
  8
0
 10
-41.743591
 20
-142.888290
 11
-41.743591
 21
-146.388290
  0
LINE
  8
0
 10
-51.743591
 20
-142.888290
 11
-51.743591
 21
-146.388290
  0
LINE
  8
0
 10
-47.469254
 20
-150.388290
 11
-55.493591
 21
-150.388290
  0
LINE
  8
0
 10
-37.993591
 20
-142.888290
 11
-55.493591
 21
-142.888290
  0
LINE
  8
0
 10
-37.993591
 20
-146.388290
 11
-55.493591
 21
-146.388290
  0
LINE
  8
0
 10
-38.493591
 20
-138.388290
 11
-38.493591
 21
-142.888290
  0
LINE
  8
0
 10
-44.243591
 20
-128.388290
 11
-44.243591
 21
-136.888290
  0
LINE
  8
0
 10
-38.993591
 20
-137.888290
 11
-54.493591
 21
-137.888290
  0
LINE
  8
0
 10
-54.993591
 20
-138.388290
 11
-54.993591
 21
-142.888290
  0
LINE
  8
0
 10
-49.243591
 20
-128.388290
 11
-49.243591
 21
-136.888290
  0
LINE
  8
0
 10
-44.743591
 20
-127.888290
 11
-48.743591
 21
-127.888290
  0
LINE
  8
0
 10
-37.993591
 20
-142.888290
 11
-37.993591
 21
-165.388290
  0
LINE
  8
0
 10
-55.493591
 20
-142.888290
 11
-55.493591
 21
-165.388290
  0
CIRCLE
  8
0
 10
-46.743591
 20
-157.888290
 40
4.740000
  0
CIRCLE
  8
0
 10
-46.743591
 20
-157.888290
 40
4.990000
  0
CIRCLE
  8
0
 10
-46.743591
 20
-157.888290
 40
3.000000
  0
ARC
  8
0
 10
-38.993591
 20
-138.388290
 40
0.500000
 50
0.000000
 51
90.000000
  0
ARC
  8
0
 10
-44.743591
 20
-128.388290
 40
0.500000
 50
0.000000
 51
90.000000
  0
ARC
  8
0
 10
-43.243591
 20
-136.888290
 40
1.000000
 50
180.000000
 51
270.000000
  0
ARC
  8
0
 10
-54.493591
 20
-138.388290
 40
0.500000
 50
90.000000
 51
180.000000
  0
ARC
  8
0
 10
-48.743591
 20
-128.388290
 40
0.500000
 50
90.000000
 51
180.000000
  0
ARC
  8
0
 10
-50.243591
 20
-136.888290
 40
1.000000
 50
270.000000
 51
0.000000
  0
POINT
  8
0
 10
-230.686554
 20
-157.888306
  0
POINT
  8
0
 10
-221.936554
 20
-157.888306
  0
LINE
  8
0
  6
CENTER
 10
-230.686554
 20
-123.754196
 11
-230.686554
 21
-170.180832
  0
LINE
  8
0
  6
CENTER
 10
-243.225250
 20
-157.888306
 11
-217.673279
 21
-157.888306
  0
LINE
  8
0
 10
-239.436554
 20
-165.388306
 11
-221.936554
 21
-165.388306
  0
LINE
  8
0
 10
-225.186554
 20
-165.388306
 11
-225.186554
 21
-168.388306
  0
LINE
  8
0
 10
-236.186554
 20
-165.388306
 11
-236.186554
 21
-168.388306
  0
LINE
  8
0
 10
-236.186554
 20
-168.388306
 11
-225.186554
 21
-168.388306
  0
LINE
  8
0
 10
-225.686554
 20
-142.888306
 11
-225.686554
 21
-146.388306
  0
LINE
  8
0
 10
-235.686554
 20
-142.888306
 11
-235.686554
 21
-146.388306
  0
LINE
  8
0
 10
-221.936554
 20
-150.388306
 11
-239.436554
 21
-150.388306
  0
LINE
  8
0
 10
-221.936554
 20
-142.888306
 11
-239.436554
 21
-142.888306
  0
LINE
  8
0
 10
-221.936554
 20
-146.388306
 11
-239.436554
 21
-146.388306
  0
LINE
  8
0
 10
-222.436554
 20
-138.388306
 11
-222.436554
 21
-142.888306
  0
LINE
  8
0
 10
-228.186554
 20
-128.388306
 11
-228.186554
 21
-136.888306
  0
LINE
  8
0
 10
-222.936554
 20
-137.888306
 11
-238.436554
 21
-137.888306
  0
LINE
  8
0
 10
-238.936554
 20
-138.388306
 11
-238.936554
 21
-142.888306
  0
LINE
  8
0
 10
-233.186554
 20
-128.388306
 11
-233.186554
 21
-136.888306
  0
LINE
  8
0
 10
-228.686554
 20
-127.888306
 11
-232.686554
 21
-127.888306
  0
LINE
  8
0
 10
-221.936554
 20
-142.888306
 11
-221.936554
 21
-165.388306
  0
LINE
  8
0
 10
-239.436554
 20
-142.888306
 11
-239.436554
 21
-165.388306
  0
ARC
  8
0
 10
-222.936554
 20
-138.388306
 40
0.500000
 50
0.000000
 51
90.000000
  0
ARC
  8
0
 10
-228.686554
 20
-128.388306
 40
0.500000
 50
0.000000
 51
90.000000
  0
ARC
  8
0
 10
-227.186554
 20
-136.888306
 40
1.000000
 50
180.000000
 51
270.000000
  0
ARC
  8
0
 10
-238.436554
 20
-138.388306
 40
0.500000
 50
90.000000
 51
180.000000
  0
ARC
  8
0
 10
-232.686554
 20
-128.388306
 40
0.500000
 50
90.000000
 51
180.000000
  0
ARC
  8
0
 10
-234.186554
 20
-136.888306
 40
1.000000
 50
270.000000
 51
0.000000
  0
CIRCLE
  8
0
 10
-230.686554
 20
-157.888306
 40
7.500000
  0
CIRCLE
  8
0
 10
-230.686554
 20
-157.888306
 40
6.900000
  0
CIRCLE
  8
0
 10
-230.686554
 20
-157.888306
 40
7.000000
  0
CIRCLE
  8
0
 10
-230.686554
 20
-157.888306
 40
4.100000
  0
POINT
  8
0
 10
-117.116745
 20
-92.888306
  0
POINT
  8
0
 10
-102.116745
 20
-92.888306
  0
LINE
  8
0
  6
CENTER
 10
-179.732620
 20
-92.888313
 11
-110.163803
 21
-92.888306
  0
LINE
  8
0
  6
CENTER
 10
-147.616745
 20
-80.306969
 11
-147.616745
 21
-105.057648
  0
LINE
  8
0
 10
-161.616745
 20
-84.138313
 11
-161.616745
 21
-101.638313
  0
LINE
  8
0
 10
-133.616760
 20
-84.138306
 11
-133.616745
 21
-101.638306
  0
LINE
  8
0
 10
-156.277008
 20
-97.888313
 11
-154.490616
 21
-97.888313
  0
LINE
  8
0
 10
-156.277008
 20
-87.888313
 11
-154.490616
 21
-87.888313
  0
LINE
  8
0
 10
-140.742889
 20
-87.888313
 11
-138.956497
 21
-87.888306
  0
LINE
  8
0
 10
-140.742889
 20
-97.888313
 11
-138.956497
 21
-97.888306
  0
LINE
  8
0
 10
-155.104248
 20
-95.388313
 11
-140.129257
 21
-95.388313
  0
LINE
  8
0
 10
-155.104248
 20
-90.388313
 11
-140.129257
 21
-90.388313
  0
LINE
  8
0
 10
-153.616745
 20
-92.038315
 11
-141.616745
 21
-92.038315
  0
LINE
  8
0
 10
-153.616745
 20
-93.738312
 11
-141.616745
 21
-93.738312
  0
LINE
  8
0
 10
-141.616745
 20
-92.038315
 11
-141.616745
 21
-93.738312
  0
LINE
  8
0
 10
-153.616745
 20
-92.038315
 11
-153.616745
 21
-93.738312
  0
LINE
  8
0
 10
-127.116753
 20
-85.888306
 11
-127.116753
 21
-99.888306
  0
LINE
  8
0
 10
-133.616760
 20
-85.888306
 11
-122.116753
 21
-85.888306
  0
LINE
  8
0
 10
-133.616745
 20
-99.888306
 11
-122.116753
 21
-99.888306
  0
LINE
  8
0
 10
-161.616745
 20
-100.388313
 11
-170.616745
 21
-100.388313
  0
LINE
  8
0
 10
-161.616745
 20
-85.388313
 11
-170.616745
 21
-85.388313
  0
LINE
  8
0
 10
-170.616745
 20
-85.388313
 11
-170.616745
 21
-100.388313
  0
LINE
  8
0
 10
-175.516754
 20
-85.988312
 11
-175.516754
 21
-99.788315
  0
LINE
  8
0
 10
-172.516754
 20
-85.888313
 11
-172.516754
 21
-99.888313
  0
LINE
  8
0
 10
-173.516754
 20
-85.988312
 11
-173.516754
 21
-99.788315
  0
LINE
  8
0
 10
-170.616745
 20
-85.888313
 11
-172.516754
 21
-85.888313
  0
LINE
  8
0
 10
-170.616745
 20
-99.888313
 11
-172.516754
 21
-99.888313
  0
LINE
  8
0
 10
-172.516754
 20
-87.988312
 11
-173.516754
 21
-87.988312
  0
LINE
  8
0
 10
-172.516754
 20
-97.788315
 11
-173.516754
 21
-97.788315
  0
LINE
  8
0
 10
-173.516754
 20
-85.988312
 11
-175.516754
 21
-85.988312
  0
LINE
  8
0
 10
-173.516754
 20
-99.788315
 11
-175.516754
 21
-99.788315
  0
LINE
  8
0
 10
-122.116753
 20
-85.888306
 11
-122.116753
 21
-99.888306
  0
LINE
  8
0
 10
-122.116753
 20
-86.158310
 11
-121.884285
 21
-87.025902
  0
LINE
  8
0
 10
-122.116760
 20
-86.158287
 11
-111.616516
 21
-86.482834
  0
LINE
  8
0
 10
-121.884277
 20
-87.025879
 11
-111.143326
 21
-87.357872
  0
LINE
  8
0
 10
-111.616531
 20
-86.482872
 11
-111.116768
 21
-87.358734
  0
LINE
  8
0
 10
-111.116753
 20
-98.417892
 11
-111.116753
 21
-87.358727
  0
LINE
  8
0
 10
-122.116745
 20
-99.618294
 11
-111.616516
 21
-99.293739
  0
LINE
  8
0
 10
-121.884277
 20
-98.750710
 11
-111.143318
 21
-98.418716
  0
LINE
  8
0
 10
-111.616508
 20
-99.293762
 11
-111.116745
 21
-98.417900
  0
LINE
  8
0
 10
-122.116737
 20
-99.618301
 11
-121.884270
 21
-98.750702
  0
LINE
  8
0
 10
-121.884277
 20
-87.025902
 11
-121.884277
 21
-98.750702
  0
LINE
  8
0
  6
CENTER
 10
-117.116745
 20
-82.799835
 11
-117.116745
 21
-102.920891
  0
LINE
  8
0
 10
-161.616745
 20
-101.638313
 11
-133.616745
 21
-101.638306
  0
LINE
  8
0
 10
-161.616745
 20
-84.138313
 11
-133.616760
 21
-84.138306
  0
LINE
  8
0
 10
-111.616516
 20
-86.482834
 11
-111.616516
 21
-99.293739
  0
LINE
  8
0
 10
-127.116753
 20
-92.888306
 11
-122.116753
 21
-92.888306
  0
CIRCLE
  8
0
 10
-147.616745
 20
-92.888313
 40
8.500000
  0
ARC
  8
0
 10
-147.616745
 20
-92.888313
 40
10.000008
 50
150.000031
 51
209.999939
  0
ARC
  8
0
 10
-147.616745
 20
-92.888313
 40
9.999990
 50
330.000031
 51
30.000017
  0
ARC
  8
0
 10
-147.616745
 20
-92.888313
 40
8.249996
 50
345.044769
 51
14.955278
  0
ARC
  8
0
 10
-140.129257
 20
-94.888313
 40
0.500000
 50
270.000000
 51
345.045166
  0
ARC
  8
0
 10
-140.129257
 20
-90.888313
 40
0.500000
 50
14.955689
 51
90.000000
  0
ARC
  8
0
 10
-147.616745
 20
-92.888313
 40
8.250010
 50
165.044800
 51
194.955200
  0
ARC
  8
0
 10
-155.104248
 20
-90.888313
 40
0.500000
 50
90.000000
 51
165.044312
  0
ARC
  8
0
 10
-155.104248
 20
-94.888313
 40
0.499998
 50
194.954849
 51
270.000000
  0
POINT
  8
0
 10
159.395020
 20
-151.888306
  0
POINT
  8
0
 10
174.395020
 20
-151.888306
  0
LINE
  8
0
  6
CENTER
 10
127.595001
 20
-112.815536
 11
127.595016
 21
-168.677963
  0
LINE
  8
0
 10
133.095016
 20
-159.388306
 11
133.095016
 21
-162.388306
  0
LINE
  8
0
 10
141.595016
 20
-144.388306
 11
141.595016
 21
-159.388306
  0
LINE
  8
0
 10
140.059113
 20
-144.388306
 11
141.595016
 21
-144.388306
  0
LINE
  8
0
 10
137.595016
 20
-136.888306
 11
137.595016
 21
-140.388306
  0
LINE
  8
0
  6
CENTER
 10
133.904007
 20
-143.888306
 11
140.979233
 21
-143.888306
  0
LINE
  8
0
  6
CENTER
 10
136.595016
 20
-140.780396
 11
136.595016
 21
-147.165344
  0
LINE
  8
0
 10
139.095016
 20
-148.787292
 11
139.095016
 21
-156.888306
  0
LINE
  8
0
 10
140.095016
 20
-146.716736
 11
140.095016
 21
-157.888306
  0
LINE
  8
0
  6
CENTER
 10
127.595016
 20
-151.888306
 11
169.390732
 21
-151.888306
  0
LINE
  8
0
 10
134.595016
 20
-136.888306
 11
134.595016
 21
-140.388306
  0
LINE
  8
0
 10
133.095016
 20
-136.888306
 11
133.095016
 21
-140.388306
  0
LINE
  8
0
 10
141.595016
 20
-159.388306
 11
113.595016
 21
-159.388321
  0
LINE
  8
0
 10
133.095016
 20
-162.388306
 11
122.095016
 21
-162.388306
  0
LINE
  8
0
 10
122.095016
 20
-159.388306
 11
122.095016
 21
-162.388306
  0
LINE
  8
0
 10
113.595016
 20
-144.388321
 11
113.595016
 21
-159.388321
  0
LINE
  8
0
 10
137.595016
 20
-136.888306
 11
117.595009
 21
-136.888306
  0
LINE
  8
0
 10
137.595016
 20
-140.388306
 11
117.595009
 21
-140.388306
  0
LINE
  8
0
 10
115.130913
 20
-144.388306
 11
113.595016
 21
-144.388321
  0
LINE
  8
0
 10
117.595009
 20
-136.888306
 11
117.595009
 21
-140.388306
  0
LINE
  8
0
  6
CENTER
 10
121.286018
 20
-143.888306
 11
114.210800
 21
-143.888321
  0
LINE
  8
0
  6
CENTER
 10
118.595009
 20
-140.780396
 11
118.595016
 21
-147.165344
  0
LINE
  8
0
 10
132.122879
 20
-143.388306
 11
123.067154
 21
-143.388306
  0
LINE
  8
0
 10
131.117783
 20
-144.388306
 11
124.072235
 21
-144.388306
  0
LINE
  8
0
 10
139.095016
 20
-156.888306
 11
116.095016
 21
-156.888306
  0
LINE
  8
0
 10
140.095016
 20
-157.888306
 11
115.095016
 21
-157.888306
  0
LINE
  8
0
 10
116.095016
 20
-148.787292
 11
116.095016
 21
-156.888306
  0
LINE
  8
0
 10
115.095016
 20
-146.716736
 11
115.095016
 21
-157.888306
  0
LINE
  8
0
  6
CENTER
 10
127.595016
 20
-151.888306
 11
93.728226
 21
-151.888321
  0
LINE
  8
0
 10
120.595009
 20
-136.888306
 11
120.595009
 21
-140.388306
  0
LINE
  8
0
 10
122.095009
 20
-136.888306
 11
122.095009
 21
-140.388306
  0
LINE
  8
0
 10
135.845001
 20
-122.888306
 11
135.845016
 21
-136.888306
  0
LINE
  8
0
 10
135.845001
 20
-131.888306
 11
119.345009
 21
-131.888306
  0
LINE
  8
0
 10
119.345009
 20
-122.888313
 11
119.345009
 21
-136.888306
  0
LINE
  8
0
 10
148.095016
 20
-143.380829
 11
148.095016
 21
-160.395813
  0
LINE
  8
0
 10
141.595016
 20
-144.888306
 11
148.095016
 21
-144.888306
  0
LINE
  8
0
 10
141.595016
 20
-158.888306
 11
148.095016
 21
-158.888306
  0
LINE
  8
0
 10
148.441345
 20
-142.088303
 11
153.548691
 21
-142.088303
  0
LINE
  8
0
 10
148.095016
 20
-146.888306
 11
153.895020
 21
-146.888306
  0
LINE
  8
0
 10
148.095016
 20
-156.888306
 11
153.895020
 21
-156.888306
  0
LINE
  8
0
 10
153.895020
 20
-160.395813
 11
153.895020
 21
-143.380829
  0
LINE
  8
0
 10
148.441330
 20
-161.688309
 11
153.548691
 21
-161.688309
  0
LINE
  8
0
 10
153.548691
 20
-142.088303
 11
153.895020
 21
-143.380798
  0
LINE
  8
0
 10
153.548706
 20
-161.688309
 11
153.895035
 21
-160.395813
  0
LINE
  8
0
 10
153.895020
 20
-143.380783
 11
165.055420
 21
-143.729553
  0
LINE
  8
0
 10
153.895020
 20
-143.380798
 11
154.122101
 21
-144.228317
  0
LINE
  8
0
 10
154.122116
 20
-144.228302
 11
165.868774
 21
-144.595383
  0
LINE
  8
0
 10
165.055435
 20
-143.729568
 11
165.895020
 21
-144.623322
  0
LINE
  8
0
 10
165.895020
 20
-144.623322
 11
165.895020
 21
-159.153275
  0
LINE
  8
0
 10
153.895020
 20
-160.395813
 11
165.055420
 21
-160.047043
  0
LINE
  8
0
 10
153.895050
 20
-160.395813
 11
154.122131
 21
-159.548294
  0
LINE
  8
0
 10
154.122116
 20
-159.548309
 11
165.868774
 21
-159.181213
  0
LINE
  8
0
 10
165.055450
 20
-160.047073
 11
165.895050
 21
-159.153305
  0
LINE
  8
0
 10
154.122101
 20
-159.548309
 11
154.122101
 21
-144.228333
  0
LINE
  8
0
 10
165.055420
 20
-160.047043
 11
165.055420
 21
-143.729568
  0
LINE
  8
0
 10
113.595016
 20
-159.388321
 11
104.595016
 21
-159.388321
  0
LINE
  8
0
 10
113.595016
 20
-144.388321
 11
104.595016
 21
-144.388321
  0
LINE
  8
0
 10
104.595016
 20
-144.388321
 11
104.595016
 21
-159.388321
  0
LINE
  8
0
 10
99.695015
 20
-144.988327
 11
99.695015
 21
-158.788315
  0
LINE
  8
0
 10
102.695015
 20
-144.888321
 11
102.695015
 21
-158.888321
  0
LINE
  8
0
 10
101.695015
 20
-144.988327
 11
101.695015
 21
-158.788315
  0
LINE
  8
0
 10
104.595016
 20
-144.888321
 11
102.695015
 21
-144.888321
  0
LINE
  8
0
 10
104.595016
 20
-158.888321
 11
102.695015
 21
-158.888321
  0
LINE
  8
0
 10
102.695015
 20
-146.988327
 11
101.695015
 21
-146.988327
  0
LINE
  8
0
 10
102.695015
 20
-156.788315
 11
101.695015
 21
-156.788315
  0
LINE
  8
0
 10
101.695015
 20
-144.988327
 11
99.695015
 21
-144.988327
  0
LINE
  8
0
 10
101.695015
 20
-158.788315
 11
99.695015
 21
-158.788315
  0
LINE
  8
0
 10
120.345009
 20
-121.888313
 11
134.845001
 21
-121.888306
  0
LINE
  8
0
  6
CENTER
 10
159.395020
 20
-140.226959
 11
159.395020
 21
-164.380783
  0
LINE
  8
0
 10
148.095016
 20
-143.380829
 11
148.441345
 21
-142.088303
  0
LINE
  8
0
 10
148.095016
 20
-160.395813
 11
148.441345
 21
-161.688309
  0
ARC
  8
0
 10
136.595016
 20
-143.888306
 40
3.499995
 50
351.786774
 51
90.000000
  0
CIRCLE
  8
0
 10
136.595016
 20
-143.888306
 40
2.100000
  0
ARC
  8
0
 10
136.595016
 20
-143.888306
 40
4.500001
 50
173.620636
 51
321.057526
  0
ARC
  8
0
 10
136.595016
 20
-143.888306
 40
5.500008
 50
185.215897
 51
297.035645
  0
ARC
  8
0
 10
118.595016
 20
-143.888306
 40
3.500000
 50
90.000122
 51
188.213181
  0
CIRCLE
  8
0
 10
118.595016
 20
-143.888306
 40
2.100000
  0
ARC
  8
0
 10
118.595016
 20
-143.888306
 40
4.500002
 50
218.942474
 51
6.379175
  0
ARC
  8
0
 10
118.595016
 20
-143.888306
 40
5.500010
 50
242.964279
 51
354.783936
  0
ARC
  8
0
 10
120.345009
 20
-122.888313
 40
1.000000
 50
90.000000
 51
180.000000
  0
ARC
  8
0
 10
134.845001
 20
-122.888306
 40
1.000000
 50
0.000000
 51
90.000000
  0
POINT
  8
0
 10
238.468170
 20
-151.888306
  0
POINT
  8
0
 10
247.218170
 20
-151.888306
  0
LINE
  8
0
  6
CENTER
 10
238.468170
 20
-111.568619
 11
238.468170
 21
-167.431046
  0
LINE
  8
0
  6
CENTER
 10
226.374222
 20
-151.888306
 11
251.245941
 21
-151.888306
  0
LINE
  8
0
 10
229.718170
 20
-159.388306
 11
234.472275
 21
-159.388306
  0
LINE
  8
0
 10
243.968170
 20
-159.388306
 11
243.968170
 21
-162.388306
  0
LINE
  8
0
 10
232.968170
 20
-159.388306
 11
232.968170
 21
-162.388306
  0
LINE
  8
0
 10
232.968170
 20
-162.388306
 11
243.968170
 21
-162.388306
  0
LINE
  8
0
 10
242.464066
 20
-159.388306
 11
247.218170
 21
-159.388306
  0
LINE
  8
0
 10
242.464066
 20
-144.388306
 11
247.218170
 21
-144.388306
  0
LINE
  8
0
 10
243.468170
 20
-136.888306
 11
243.468170
 21
-140.388306
  0
LINE
  8
0
 10
233.468170
 20
-136.888306
 11
233.468170
 21
-140.388306
  0
LINE
  8
0
 10
234.472275
 20
-144.388306
 11
229.718170
 21
-144.388306
  0
LINE
  8
0
 10
247.218170
 20
-136.888306
 11
229.718170
 21
-136.888306
  0
LINE
  8
0
 10
247.218170
 20
-140.388306
 11
229.718170
 21
-140.388306
  0
LINE
  8
0
 10
246.718170
 20
-132.388306
 11
246.718170
 21
-136.888306
  0
LINE
  8
0
 10
240.968170
 20
-122.388306
 11
240.968170
 21
-130.888306
  0
LINE
  8
0
 10
246.218170
 20
-131.888306
 11
230.718170
 21
-131.888306
  0
LINE
  8
0
 10
230.218170
 20
-132.388306
 11
230.218170
 21
-136.888306
  0
LINE
  8
0
 10
235.968170
 20
-122.388306
 11
235.968170
 21
-130.888306
  0
LINE
  8
0
 10
240.468170
 20
-121.888306
 11
236.468170
 21
-121.888306
  0
LINE
  8
0
 10
229.718170
 20
-136.888306
 11
229.718170
 21
-159.388306
  0
LINE
  8
0
 10
247.218170
 20
-136.888306
 11
247.218170
 21
-159.388306
  0
LINE
  8
0
 10
238.468170
 20
-142.073349
 11
247.048294
 21
-147.027084
  0
LINE
  8
0
 10
229.888046
 20
-156.749527
 11
238.468185
 21
-161.703262
  0
LINE
  8
0
 10
229.888046
 20
-147.027084
 11
238.468170
 21
-142.073349
  0
LINE
  8
0
 10
238.468170
 20
-161.703293
 11
247.048309
 21
-156.749542
  0
LINE
  8
0
 10
247.048309
 20
-156.749527
 11
247.048309
 21
-147.027100
  0
LINE
  8
0
 10
229.888046
 20
-156.749527
 11
229.888046
 21
-147.027084
  0
ARC
  8
0
 10
246.218170
 20
-132.388306
 40
0.500000
 50
0.000000
 51
90.000000
  0
ARC
  8
0
 10
240.468170
 20
-122.388306
 40
0.500000
 50
0.000000
 51
90.000000
  0
ARC
  8
0
 10
241.968170
 20
-130.888306
 40
1.000000
 50
180.000000
 51
270.000000
  0
ARC
  8
0
 10
230.718170
 20
-132.388306
 40
0.500000
 50
90.000000
 51
180.000000
  0
ARC
  8
0
 10
236.468170
 20
-122.388306
 40
0.500000
 50
90.000000
 51
180.000000
  0
ARC
  8
0
 10
234.968170
 20
-130.888306
 40
1.000000
 50
270.000000
 51
0.000000
  0
CIRCLE
  8
0
 10
238.468170
 20
-151.888306
 40
3.000000
  0
CIRCLE
  8
0
 10
238.468170
 20
-151.888306
 40
5.000000
  0
CIRCLE
  8
0
 10
238.468170
 20
-151.888306
 40
8.132500
  0
CIRCLE
  8
0
 10
238.468170
 20
-151.888306
 40
8.507500
  0
POINT
  8
0
 10
44.525208
 20
-151.888306
  0
POINT
  8
0
 10
53.275208
 20
-151.888306
  0
LINE
  8
0
  6
CENTER
 10
44.525208
 20
-113.813095
 11
44.525208
 21
-168.677979
  0
LINE
  8
0
  6
CENTER
 10
29.873161
 20
-151.888306
 11
59.051304
 21
-151.888306
  0
LINE
  8
0
 10
35.775208
 20
-159.388306
 11
53.275208
 21
-159.388306
  0
LINE
  8
0
 10
50.025208
 20
-159.388306
 11
50.025208
 21
-162.388306
  0
LINE
  8
0
 10
39.025208
 20
-159.388306
 11
39.025208
 21
-162.388306
  0
LINE
  8
0
 10
39.025208
 20
-162.388306
 11
50.025208
 21
-162.388306
  0
LINE
  8
0
 10
49.525208
 20
-136.888306
 11
49.525208
 21
-140.388306
  0
LINE
  8
0
 10
39.525208
 20
-136.888306
 11
39.525208
 21
-140.388306
  0
LINE
  8
0
 10
53.275208
 20
-144.388306
 11
35.775208
 21
-144.388306
  0
LINE
  8
0
 10
53.275208
 20
-136.888306
 11
35.775208
 21
-136.888306
  0
LINE
  8
0
 10
53.275208
 20
-140.388306
 11
35.775208
 21
-140.388306
  0
LINE
  8
0
 10
52.775208
 20
-132.388306
 11
52.775208
 21
-136.888306
  0
LINE
  8
0
 10
47.025208
 20
-122.388306
 11
47.025208
 21
-130.888306
  0
LINE
  8
0
 10
52.275208
 20
-131.888306
 11
36.775208
 21
-131.888306
  0
LINE
  8
0
 10
36.275208
 20
-132.388306
 11
36.275208
 21
-136.888306
  0
LINE
  8
0
 10
42.025208
 20
-122.388306
 11
42.025208
 21
-130.888306
  0
LINE
  8
0
 10
46.525208
 20
-121.888306
 11
42.525208
 21
-121.888306
  0
LINE
  8
0
 10
53.275208
 20
-136.888306
 11
53.275208
 21
-159.388306
  0
LINE
  8
0
 10
35.775208
 20
-136.888306
 11
35.775208
 21
-159.388306
  0
ARC
  8
0
 10
52.275208
 20
-132.388306
 40
0.500000
 50
0.000000
 51
90.000000
  0
ARC
  8
0
 10
46.525208
 20
-122.388306
 40
0.500000
 50
0.000000
 51
90.000000
  0
ARC
  8
0
 10
48.025208
 20
-130.888306
 40
1.000000
 50
180.000000
 51
270.000000
  0
ARC
  8
0
 10
36.775208
 20
-132.388306
 40
0.500000
 50
90.000000
 51
180.000000
  0
ARC
  8
0
 10
42.525208
 20
-122.388306
 40
0.500000
 50
90.000000
 51
180.000000
  0
ARC
  8
0
 10
41.025208
 20
-130.888306
 40
1.000000
 50
270.000000
 51
0.000000
  0
CIRCLE
  8
0
 10
44.525208
 20
-151.888306
 40
7.500000
  0
CIRCLE
  8
0
 10
44.525208
 20
-151.888306
 40
6.900000
  0
CIRCLE
  8
0
 10
44.525208
 20
-151.888306
 40
7.000000
  0
CIRCLE
  8
0
 10
44.525208
 20
-151.888306
 40
4.100000
  0
POINT
  8
0
 10
159.395004
 20
-91.888306
  0
POINT
  8
0
 10
174.395004
 20
-91.888306
  0
LINE
  8
0
  6
CENTER
 10
93.229446
 20
-91.888321
 11
169.676910
 21
-91.888306
  0
LINE
  8
0
  6
CENTER
 10
127.595001
 20
-78.701599
 11
127.595009
 21
-106.130524
  0
LINE
  8
0
 10
113.595001
 20
-83.138313
 11
113.595001
 21
-100.638313
  0
LINE
  8
0
 10
141.595001
 20
-83.138306
 11
141.595001
 21
-100.638306
  0
LINE
  8
0
 10
118.934753
 20
-96.888313
 11
120.721146
 21
-96.888313
  0
LINE
  8
0
 10
118.934753
 20
-86.888313
 11
120.721146
 21
-86.888313
  0
LINE
  8
0
 10
134.468872
 20
-86.888313
 11
136.255264
 21
-86.888306
  0
LINE
  8
0
 10
134.468872
 20
-96.888313
 11
136.255264
 21
-96.888306
  0
LINE
  8
0
 10
120.107513
 20
-94.388313
 11
135.082489
 21
-94.388313
  0
LINE
  8
0
 10
120.107513
 20
-89.388313
 11
135.082489
 21
-89.388313
  0
LINE
  8
0
 10
121.595001
 20
-91.038307
 11
133.595001
 21
-91.038307
  0
LINE
  8
0
 10
121.595001
 20
-92.738312
 11
133.595001
 21
-92.738312
  0
LINE
  8
0
 10
133.595001
 20
-91.038307
 11
133.595001
 21
-92.738312
  0
LINE
  8
0
 10
121.595001
 20
-91.038307
 11
121.595001
 21
-92.738312
  0
LINE
  8
0
 10
148.095001
 20
-83.388306
 11
148.095001
 21
-100.388306
  0
LINE
  8
0
 10
141.595001
 20
-84.888306
 11
148.095001
 21
-84.888306
  0
LINE
  8
0
 10
141.595001
 20
-98.888306
 11
148.095001
 21
-98.888306
  0
LINE
  8
0
 10
153.895004
 20
-100.395813
 11
153.895004
 21
-83.380836
  0
LINE
  8
0
 10
153.895004
 20
-83.380806
 11
153.897018
 21
-83.388306
  0
LINE
  8
0
 10
153.895004
 20
-83.380798
 11
165.055405
 21
-83.729553
  0
LINE
  8
0
 10
153.895004
 20
-83.380814
 11
154.122086
 21
-84.228317
  0
LINE
  8
0
 10
154.122101
 20
-84.228294
 11
165.868774
 21
-84.595383
  0
LINE
  8
0
 10
165.055420
 20
-83.729568
 11
165.895020
 21
-84.623329
  0
LINE
  8
0
 10
165.895004
 20
-84.623322
 11
165.895004
 21
-99.153282
  0
LINE
  8
0
 10
153.895004
 20
-100.395798
 11
165.055420
 21
-100.047035
  0
LINE
  8
0
 10
153.895035
 20
-100.395805
 11
154.122131
 21
-99.548302
  0
LINE
  8
0
 10
154.122101
 20
-99.548302
 11
165.868774
 21
-99.181213
  0
LINE
  8
0
 10
165.055435
 20
-100.047066
 11
165.895035
 21
-99.153305
  0
LINE
  8
0
 10
154.122101
 20
-99.548302
 11
154.122101
 21
-84.228310
  0
LINE
  8
0
 10
165.055420
 20
-100.047043
 11
165.055405
 21
-83.729561
  0
LINE
  8
0
 10
148.095001
 20
-83.388306
 11
153.895004
 21
-83.388306
  0
LINE
  8
0
 10
148.095001
 20
-100.388306
 11
153.895004
 21
-100.388306
  0
LINE
  8
0
 10
113.595001
 20
-99.388313
 11
104.595001
 21
-99.388313
  0
LINE
  8
0
 10
113.595001
 20
-84.388313
 11
104.595001
 21
-84.388313
  0
LINE
  8
0
 10
104.595001
 20
-84.388313
 11
104.595001
 21
-99.388313
  0
LINE
  8
0
 10
99.695007
 20
-84.988312
 11
99.695007
 21
-98.788315
  0
LINE
  8
0
 10
102.695007
 20
-84.888313
 11
102.695007
 21
-98.888313
  0
LINE
  8
0
 10
101.695007
 20
-84.988312
 11
101.695007
 21
-98.788315
  0
LINE
  8
0
 10
104.595001
 20
-84.888313
 11
102.695007
 21
-84.888313
  0
LINE
  8
0
 10
104.595001
 20
-98.888313
 11
102.695007
 21
-98.888313
  0
LINE
  8
0
 10
102.695007
 20
-86.988312
 11
101.695007
 21
-86.988312
  0
LINE
  8
0
 10
102.695007
 20
-96.788315
 11
101.695007
 21
-96.788315
  0
LINE
  8
0
 10
101.695007
 20
-84.988312
 11
99.695007
 21
-84.988312
  0
LINE
  8
0
 10
101.695007
 20
-98.788315
 11
99.695007
 21
-98.788315
  0
LINE
  8
0
 10
113.595001
 20
-100.638313
 11
141.595001
 21
-100.638306
  0
LINE
  8
0
 10
113.595001
 20
-83.138313
 11
141.595001
 21
-83.138306
  0
LINE
  8
0
  6
CENTER
 10
159.395004
 20
-79.110977
 11
159.395004
 21
-104.492966
  0
LINE
  8
0
 10
148.095001
 20
-91.888306
 11
153.897018
 21
-91.888306
  0
CIRCLE
  8
0
 10
127.595001
 20
-91.888313
 40
8.500000
  0
ARC
  8
0
 10
127.595001
 20
-91.888313
 40
9.999994
 50
149.999985
 51
209.999954
  0
ARC
  8
0
 10
127.595001
 20
-91.888313
 40
10.000004
 50
330.000061
 51
29.999973
  0
ARC
  8
0
 10
127.595001
 20
-91.888313
 40
8.249996
 50
345.044769
 51
14.955278
  0
ARC
  8
0
 10
135.082489
 20
-93.888313
 40
0.500000
 50
270.000000
 51
345.045593
  0
ARC
  8
0
 10
135.082489
 20
-89.888313
 40
0.500015
 50
14.955238
 51
90.000000
  0
ARC
  8
0
 10
127.595001
 20
-91.888313
 40
8.249996
 50
165.044769
 51
194.955231
  0
ARC
  8
0
 10
120.107513
 20
-89.888313
 40
0.500000
 50
90.000000
 51
165.044312
  0
ARC
  8
0
 10
120.107513
 20
-93.888313
 40
0.499998
 50
194.954849
 51
270.000000
  0
ENDSEC
  0
EOF
