  0
SECTION
  2
HEADER
  9
$ACADVER
  1
AC1012
  9
$DWGCODEPAGE
  3
dos932
  9
$INSBASE
 10
0.0
 20
0.0
 30
0.0
  9
$EXTMIN
 10
-138.39999389648437
 20
-94.800003051757812
 30
0.0
  9
$EXTMAX
 10
138.35000610351562
 20
94.5
 30
0.0
  9
$LIMMIN
 10
-148.5
 20
-105.00000000000001
  9
$LIMMAX
 10
148.5
 20
105.00000000000001
  9
$ORTHOMODE
 70
               0
  9
$REGENMODE
 70
               1
  9
$FILLMODE
 70
               1
  9
$QTEXTMODE
 70
               0
  9
$MIRRTEXT
 70
               1
  9
$DRAGMODE
 70
               2
  9
$LTSCALE
 40
1.0
  9
$OSMODE
 70
               0
  9
$ATTMODE
 70
               1
  9
$TEXTSIZE
 40
3.2000000476837158
  9
$TRACEWID
 40
0.05
  9
$TEXTSTYLE
  7
MX_NOTE_STANDARD
  9
$CLAYER
  8
0
  9
$CELTYPE
  6
CONTINUOUS
  9
$CECOLOR
 62
             256
  9
$CELTSCALE
 40
1.0
  9
$DELOBJ
 70
               1
  9
$DISPSILH
 70
               0
  9
$DIMSCALE
 40
1.0
  9
$DIMASZ
 40
2.5
  9
$DIMEXO
 40
1.5
  9
$DIMDLI
 40
3.75
  9
$DIMRND
 40
0.0
  9
$DIMDLE
 40
0.0
  9
$DIMEXE
 40
1.5
  9
$DIMTP
 40
0.0
  9
$DIMTM
 40
0.0
  9
$DIMTXT
 40
3.2000000476837158
  9
$DIMCEN
 40
2.5
  9
$DIMTSZ
 40
0.0
  9
$DIMTOL
 70
               0
  9
$DIMLIM
 70
               0
  9
$DIMTIH
 70
               0
  9
$DIMTOH
 70
               0
  9
$DIMSE1
 70
               0
  9
$DIMSE2
 70
               0
  9
$DIMTAD
 70
               1
  9
$DIMZIN
 70
               8
  9
$DIMBLK
  1

  9
$DIMASO
 70
               1
  9
$DIMSHO
 70
               1
  9
$DIMPOST
  1

  9
$DIMAPOST
  1

  9
$DIMALT
 70
               0
  9
$DIMALTD
 70
               4
  9
$DIMALTF
 40
0.03937007874016
  9
$DIMLFAC
 40
1.0
  9
$DIMTOFL
 70
               1
  9
$DIMTVP
 40
0.0
  9
$DIMTIX
 70
               0
  9
$DIMSOXD
 70
               0
  9
$DIMSAH
 70
               1
  9
$DIMBLK1
  1
_OPEN30
  9
$DIMBLK2
  1
_OPEN30
  9
$DIMSTYLE
  2
MXDIMSTYLE
  9
$DIMCLRD
 70
               0
  9
$DIMCLRE
 70
               0
  9
$DIMCLRT
 70
               0
  9
$DIMTFAC
 40
1.0
  9
$DIMGAP
 40
1.0
  9
$DIMJUST
 70
               0
  9
$DIMSD1
 70
               0
  9
$DIMSD2
 70
               0
  9
$DIMTOLJ
 70
               0
  9
$DIMTZIN
 70
               0
  9
$DIMALTZ
 70
               0
  9
$DIMALTTZ
 70
               0
  9
$DIMFIT
 70
               3
  9
$DIMUPT
 70
               1
  9
$DIMUNIT
 70
               2
  9
$DIMDEC
 70
               2
  9
$DIMTDEC
 70
               2
  9
$DIMALTU
 70
               2
  9
$DIMALTTD
 70
               4
  9
$DIMTXSTY
  7
MX_NOTE_STANDARD
  9
$DIMAUNIT
 70
               0
  9
$LUNITS
 70
               2
  9
$LUPREC
 70
               4
  9
$SKETCHINC
 40
0.1
  9
$FILLETRAD
 40
0.0
  9
$AUNITS
 70
               0
  9
$AUPREC
 70
               0
  9
$MENU
  1
acad
  9
$ELEVATION
 40
0.0
  9
$PELEVATION
 40
0.0
  9
$THICKNESS
 40
0.0
  9
$LIMCHECK
 70
               0
  9
$BLIPMODE
 70
               1
  9
$CHAMFERA
 40
0.0
  9
$CHAMFERB
 40
0.0
  9
$CHAMFERC
 40
0.0
  9
$CHAMFERD
 40
0.0
  9
$SKPOLY
 70
               0
  9
$TDCREATE
 40
2453984.744710648
  9
$TDUPDATE
 40
2453984.744710648
  9
$TDINDWG
 40
0.0000000000
  9
$TDUSRTIMER
 40
0.0000000000
  9
$USRTIMER
 70
               1
  9
$ANGBASE
 50
0.0
  9
$ANGDIR
 70
               0
  9
$PDMODE
 70
               0
  9
$PDSIZE
 40
0.0
  9
$PLINEWID
 40
0.0
  9
$COORDS
 70
               1
  9
$SPLFRAME
 70
               0
  9
$SPLINETYPE
 70
               6
  9
$SPLINESEGS
 70
               8
  9
$ATTDIA
 70
               0
  9
$ATTREQ
 70
               1
  9
$HANDLING
 70
               1
  9
$HANDSEED
  5
3C9
  9
$SURFTAB1
 70
               6
  9
$SURFTAB2
 70
               6
  9
$SURFTYPE
 70
               6
  9
$SURFU
 70
               6
  9
$SURFV
 70
               6
  9
$UCSNAME
  2

  9
$UCSORG
 10
0.0
 20
0.0
 30
0.0
  9
$UCSXDIR
 10
1.0
 20
0.0
 30
0.0
  9
$UCSYDIR
 10
0.0
 20
1.0
 30
0.0
  9
$PUCSNAME
  2

  9
$PUCSORG
 10
0.0
 20
0.0
 30
0.0
  9
$PUCSXDIR
 10
1.0
 20
0.0
 30
0.0
  9
$PUCSYDIR
 10
0.0
 20
1.0
 30
0.0
  9
$USERI1
 70
               0
  9
$USERI2
 70
               0
  9
$USERI3
 70
               0
  9
$USERI4
 70
               0
  9
$USERI5
 70
               0
  9
$USERR1
 40
0.0
  9
$USERR2
 40
0.0
  9
$USERR3
 40
0.0
  9
$USERR4
 40
0.0
  9
$USERR5
 40
0.0
  9
$WORLDVIEW
 70
               1
  9
$SHADEDGE
 70
               3
  9
$SHADEDIF
 70
              70
  9
$TILEMODE
 70
               1
  9
$MAXACTVP
 70
              16
  9
$PINSBASE
 10
0.0
 20
0.0
 30
0.0
  9
$PLIMCHECK
 70
               0
  9
$PEXTMIN
 10
1.0000000000000000E+20
 20
1.0000000000000000E+20
 30
1.0000000000000000E+20
  9
$PEXTMAX
 10
-1.0000000000000000E+20
 20
-1.0000000000000000E+20
 30
-1.0000000000000000E+20
  9
$PLIMMIN
 10
0.0
 20
0.0
  9
$PLIMMAX
 10
12.0
 20
9.0
  9
$UNITMODE
 70
               0
  9
$VISRETAIN
 70
               0
  9
$PLINEGEN
 70
               1
  9
$PSLTSCALE
 70
               0
  9
$TREEDEPTH
 70
            3020
  9
$PICKSTYLE
 70
               1
  9
$CMLSTYLE
  2
Standard
  9
$CMLJUST
 70
               0
  9
$CMLSCALE
 40
1.0
  9
$SAVEIMAGES
 70
               0
  0
ENDSEC
  0
SECTION
  2
CLASSES
  0
CLASS
  1
LWPOLYLINE
  2
AcDbPolyline
  3
"AutoCAD"
 90
    32768
280
               0
281
               1
  0
CLASS
  1
IMAGE
  2
AcDbRasterImage
  3
ISM
 90
    32895
280
               0
281
               1
  0
CLASS
  1
OLE2FRAME
  2
AcDbOle2Frame
  3
""
 90
    32768
280
               0
281
               1
  0
CLASS
  1
HATCH
  2
AcDbHatch
  3
"ACAD_SEDONA"
 90
    32768
280
               0
281
               1
  0
CLASS
  1
DICTIONARYVAR
  2
AcDbDictionaryVar
  3
"AutoCAD"
 90
    32768
280
               0
281
               0
  0
CLASS
  1
RASTERVARIABLES
  2
AcDbRasterVariables
  3
ISM
 90
    32768
280
               0
281
               0
  0
CLASS
  1
IMAGEDEF
  2
AcDbRasterImageDef
  3
ISM
 90
    32768
280
               0
281
               0
  0
CLASS
  1
IMAGEDEF_REACTOR
  2
AcDbRasterImageDefReactor
  3
ISM
 90
    32769
280
               0
281
               0
  0
CLASS
  1
IDBUFFER
  2
AcDbIdBuffer
  3
"Acad"
 90
    32768
280
               0
281
               0
  0
CLASS
  1
SPATIAL_FILTER
  2
AcDbSpatialFilter
  3
"Acad"
 90
    32768
280
               0
281
               0
  0
CLASS
  1
XRECORD
  2
AcDbXrecord
  3
"<Built In>"
 90
    32768
280
               0
281
               0
  0
CLASS
  1
SORTENTSTABLE
  2
AcDbSortentsTable
  3
"AutoCAD"
 90
    32768
280
               0
281
               0
  0
CLASS
  1
LAYER_INDEX
  2
AcDbLayerIndex
  3
"Acad"
 90
    32768
280
               0
281
               0
  0
CLASS
  1
SPATIAL_INDEX
  2
AcDbSpatialIndex
  3
"Acad"
 90
    32768
280
               0
281
               0
  0
CLASS
  1
OBJECT_PTR
  2
CAseDLPNTableRecord
  3
"ASE-LPNTableRecord"
 90
    32769
280
               0
281
               0
  0
CLASS
  1
LAYOUT
  2
AcDbLayout
  3
"AutoCAD 2000"
 90
    32768
280
               0
281
               0
  0
CLASS
  1
PLOTSETTINGS
  2
AcDbPlotSettings
  3
"AutoCAD 2000"
 90
    32768
280
               0
281
               0
  0
CLASS
  1
ACDBDICTIONARYWDFLT
  2
AcDbDictionaryWithDefault
  3
"AutoCAD 2000"
 90
    32768
280
               0
281
               0
  0
CLASS
  1
ACDBPLACEHOLDER
  2
AcDbPlaceHolder
  3
"AutoCAD 2000"
 90
    32768
280
               0
281
               0
  0
ENDSEC
  0
SECTION
  2
TABLES
  0
TABLE
  2
VPORT
  5
7
100
AcDbSymbolTable
 70
               1
  0
VPORT
  5
15
100
AcDbSymbolTableRecord
100
AcDbViewportTableRecord
  2
*ACTIVE
 70
               0
 10
0.0
 20
0.0
 11
1.0
 21
1.0
 12
0.0
 22
0.0
 13
0.0
 23
0.0
 14
1.0
 24
1.0
 15
0.0
 25
0.0
 16
0.0
 26
0.0
 36
1.0
 17
0.0
 27
0.0
 37
0.0
 40
212.10000000000002
 41
1.7320508075688772
 42
50.0
 43
0.0
 44
0.0
 50
0.0
 51
0.0
 71
               0
 72
             100
 73
               1
 74
               1
 75
               0
 76
               0
 77
               0
 78
               0
  0
ENDTAB
  0
TABLE
  2
LTYPE
  5
4
100
AcDbSymbolTable
 70
               5
  0
LTYPE
  5
11
100
AcDbSymbolTableRecord
100
AcDbLinetypeTableRecord
  2
BYBLOCK
 70
              64
  3

 72
              65
 73
               0
 40
0.0
  0
LTYPE
  5
12
100
AcDbSymbolTableRecord
100
AcDbLinetypeTableRecord
  2
BYLAYER
 70
              64
  3

 72
              65
 73
               0
 40
0.0
  0
LTYPE
  5
13
100
AcDbSymbolTableRecord
100
AcDbLinetypeTableRecord
  2
CONTINUOUS
 70
              64
  3
Solid line
 72
              65
 73
               0
 40
0.0
  0
LTYPE
  5
2D
100
AcDbSymbolTableRecord
100
AcDbLinetypeTableRecord
  2
PHANTOM
 70
              64
  3
Phantom ______  __  __  ______  __  __  ______
 72
              65
 73
               6
 40
63.500000000000007
 49
31.75
 74
               0
 49
-6.3499999999999996
 74
               0
 49
6.3499999999999996
 74
               0
 49
-6.3499999999999996
 74
               0
 49
6.3499999999999996
 74
               0
 49
-6.3499999999999996
 74
               0
  0
LTYPE
  5
22A
100
AcDbSymbolTableRecord
100
AcDbLinetypeTableRecord
  2
CENTER
 70
              64
  3
Center ____ _ ____ _ ____ _ ____ _ ____ _ ____
 72
              65
 73
               4
 40
50.800000000000004
 49
31.75
 74
               0
 49
-6.3499999999999996
 74
               0
 49
6.3499999999999996
 74
               0
 49
-6.3499999999999996
 74
               0
  0
ENDTAB
  0
TABLE
  2
LAYER
  5
2
100
AcDbSymbolTable
 70
               2
  0
LAYER
  5
14
100
AcDbSymbolTableRecord
100
AcDbLayerTableRecord
  2
0
 70
               0
 62
               7
  6
CONTINUOUS
  0
LAYER
  5
1D
100
AcDbSymbolTableRecord
100
AcDbLayerTableRecord
  2
DEFPOINTS
 70
               0
 62
               7
  6
CONTINUOUS
  0
ENDTAB
  0
TABLE
  2
STYLE
  5
3
100
AcDbSymbolTable
 70
               1
  0
STYLE
  5
17
100
AcDbSymbolTableRecord
100
AcDbTextStyleTableRecord
  2
MX_NOTE_STANDARD
 70
               0
 40
0.0
 41
1.0
 50
0.0
 71
               0
 42
3.2000000476837158
  3
txt.shx
  4
extfont.shx
  0
ENDTAB
  0
TABLE
  2
VIEW
  5
5
100
AcDbSymbolTable
 70
               0
  0
ENDTAB
  0
TABLE
  2
UCS
  5
6
100
AcDbSymbolTable
 70
               0
  0
ENDTAB
  0
TABLE
  2
APPID
  5
8
100
AcDbSymbolTable
 70
               1
  0
APPID
  5
16
100
AcDbSymbolTableRecord
100
AcDbRegAppTableRecord
  2
ACAD
 70
               0
  0
ENDTAB
  0
TABLE
  2
DIMSTYLE
  5
9
100
AcDbSymbolTable
 70
               1
  0
DIMSTYLE
105
18
100
AcDbSymbolTableRecord
100
AcDbDimStyleTableRecord
  2
MXDIMSTYLE
 70
               0
  3

  4

  5

  6
_OPEN30
  7
_OPEN30
 40
1.0
 41
2.5
 42
1.5
 43
3.75
 44
1.5
 45
0.0
 46
0.0
 47
0.0
 48
0.0
 71
               0
 72
               0
 73
               0
 74
               0
 75
               0
 76
               0
 77
               1
 78
               8
140
3.2000000476837158
141
2.5
142
0.0
143
0.03937007874016
144
1.0
145
0.0
146
1.0
147
1.0
170
               0
171
               4
172
               1
173
               1
174
               0
175
               0
176
               0
177
               0
178
               0
270
               2
271
               2
272
               2
273
               2
274
               4
275
               0
280
               0
281
               0
282
               0
283
               0
284
               0
285
               0
286
               0
287
               3
288
               1
340
17
  0
ENDTAB
  0
TABLE
  2
BLOCK_RECORD
  5
1
100
AcDbSymbolTable
 70
               4
  0
BLOCK_RECORD
  5
A
100
AcDbSymbolTableRecord
100
AcDbBlockTableRecord
  2
*MODEL_SPACE
  0
BLOCK_RECORD
  5
B
100
AcDbSymbolTableRecord
100
AcDbBlockTableRecord
  2
*PAPER_SPACE
  0
BLOCK_RECORD
  5
1E
100
AcDbSymbolTableRecord
100
AcDbBlockTableRecord
  2
MS_1
  0
BLOCK_RECORD
  5
1F
100
AcDbSymbolTableRecord
100
AcDbBlockTableRecord
  2
MS_2
  0
BLOCK_RECORD
  5
20
100
AcDbSymbolTableRecord
100
AcDbBlockTableRecord
  2
MS_3
  0
BLOCK_RECORD
  5
21
100
AcDbSymbolTableRecord
100
AcDbBlockTableRecord
  2
_OPEN30
  0
ENDTAB
  0
ENDSEC
  0
SECTION
  2
BLOCKS
  0
BLOCK
  5
D
100
AcDbEntity
  8
0
100
AcDbBlockBegin
  2
*MODEL_SPACE
 70
               0
 10
0.0
 20
0.0
 30
0.0
  3
*MODEL_SPACE
  1

  0
ENDBLK
  5
E
100
AcDbEntity
  8
0
100
AcDbBlockEnd
  0
BLOCK
  5
F
100
AcDbEntity
 67
               1
  8
0
100
AcDbBlockBegin
  2
*PAPER_SPACE
 70
               0
 10
0.0
 20
0.0
 30
0.0
  3
*PAPER_SPACE
  1

  0
ENDBLK
  5
10
100
AcDbEntity
 67
               1
  8
0
100
AcDbBlockEnd
  0
BLOCK
  5
27
100
AcDbEntity
  8
0
100
AcDbBlockBegin
  2
MS_1
 70
               0
 10
0.0
 20
0.0
 30
0.0
  3
MS_1
  1

  0
LINE
  5
28
100
AcDbEntity
  8
0
  6
CONTINUOUS
 62
               2
100
AcDbLine
 10
-9.6999999999999602
 20
-1.4999999999995453
 30
0.0
 11
-5.6999999999999886
 21
-1.4999999999995453
 31
0.0
  0
LINE
  5
29
100
AcDbEntity
  8
0
  6
CONTINUOUS
 62
               2
100
AcDbLine
 10
-9.6999999999999602
 20
-2.9999999999995453
 30
0.0
 11
-5.6999999999999886
 21
-2.9999999999995453
 31
0.0
  0
LINE
  5
2A
100
AcDbEntity
  8
0
  6
CONTINUOUS
 62
               2
100
AcDbLine
 10
-9.6999999999999602
 20
-1.4999999999995453
 30
0.0
 11
-9.6999999999999602
 21
-2.9999999999995453
 31
0.0
  0
LINE
  5
2B
100
AcDbEntity
  8
0
  6
CONTINUOUS
 62
               2
100
AcDbLine
 10
-5.6999999999999886
 20
-1.4999999999995453
 30
0.0
 11
-5.6999999999999886
 21
-2.9999999999995453
 31
0.0
  0
LINE
  5
2C
100
AcDbEntity
  8
0
  6
CONTINUOUS
 62
               7
100
AcDbLine
 10
15.750000000000028
 20
17.250000000000462
 30
0.0
 11
-15.749999999999972
 21
17.250000000000348
 31
0.0
  0
LINE
  5
2E
100
AcDbEntity
  8
0
  6
PHANTOM
 62
               2
100
AcDbLine
 10
15.250000000000085
 20
16.750000000000462
 30
0.0
 11
-15.249999999999972
 21
16.750000000000462
 31
0.0
  0
ARC
  5
2F
100
AcDbEntity
  8
0
  6
PHANTOM
 62
               2
100
AcDbCircle
 10
15.250000000000085
 20
15.250000000000462
 30
0.0
 40
1.5
100
AcDbArc
 50
0.0
 51
90.0
  0
ARC
  5
30
100
AcDbEntity
  8
0
  6
CONTINUOUS
 62
               7
100
AcDbCircle
 10
15.750000000000028
 20
15.750000000000462
 30
0.0
 40
1.5
100
AcDbArc
 50
0.0
 51
90.0
  0
LINE
  5
31
100
AcDbEntity
  8
0
  6
CONTINUOUS
 62
               7
100
AcDbLine
 10
17.250000000000036
 20
-9.9999999999995453
 30
0.0
 11
17.250000000000036
 21
15.750000000000462
 31
0.0
  0
LINE
  5
32
100
AcDbEntity
  8
0
  6
PHANTOM
 62
               2
100
AcDbLine
 10
16.750000000000085
 20
10.500000000000462
 30
0.0
 11
16.750000000000085
 21
15.250000000000462
 31
0.0
  0
LINE
  5
33
100
AcDbEntity
  8
0
  6
PHANTOM
 62
               2
100
AcDbLine
 10
17.250000000000121
 20
10.000000000000462
 30
0.0
 11
18.650416619810905
 21
10.000000000000689
 31
0.0
  0
ARC
  5
34
100
AcDbEntity
  8
0
  6
PHANTOM
 62
               2
100
AcDbCircle
 10
17.250000000000092
 20
10.500000000000462
 30
0.0
 40
0.5
100
AcDbArc
 50
180.0
 51
270.00000000000318
  0
ARC
  5
35
100
AcDbEntity
  8
0
  6
PHANTOM
 62
               2
100
AcDbCircle
 10
18.650416619811018
 20
9.0000000000006892
 30
0.0
 40
1.0
100
AcDbArc
 50
0.0
 51
90.000000000006509
  0
LINE
  5
36
100
AcDbEntity
  8
0
  6
PHANTOM
 62
               2
100
AcDbLine
 10
19.650416619811018
 20
9.0000000000006892
 30
0.0
 11
19.650416619811075
 21
-8.9999999999995453
 31
0.0
  0
ARC
  5
37
100
AcDbEntity
  8
0
  6
PHANTOM
 62
               2
100
AcDbCircle
 10
18.650416619811075
 20
-8.9999999999995453
 30
0.0
 40
1.0
100
AcDbArc
 50
270.0
 51
0.0
  0
LINE
  5
38
100
AcDbEntity
  8
0
  6
PHANTOM
 62
               2
100
AcDbLine
 10
18.650416619811075
 20
-9.9999999999995453
 30
0.0
 11
17.249999999999979
 21
-9.9999999999995453
 31
0.0
  0
LINE
  5
39
100
AcDbEntity
  8
0
  6
PHANTOM
 62
               2
100
AcDbLine
 10
16.750000000000028
 20
-15.249999999999545
 30
0.0
 11
16.749999999999972
 21
-10.499999999999545
 31
0.0
  0
ARC
  5
3A
100
AcDbEntity
  8
0
  6
PHANTOM
 62
               2
100
AcDbCircle
 10
17.249999999999979
 20
-10.499999999999545
 30
0.0
 40
0.5
100
AcDbArc
 50
90.0
 51
180.0
  0
LINE
  5
3B
100
AcDbEntity
  8
0
  6
CONTINUOUS
 62
               7
100
AcDbLine
 10
17.250000000000036
 20
-15.749999999999659
 30
0.0
 11
17.250000000000036
 21
-9.9999999999995453
 31
0.0
  0
LINE
  5
3C
100
AcDbEntity
  8
0
  6
CONTINUOUS
 62
               7
100
AcDbLine
 10
-15.749999999999972
 20
-17.249999999999545
 30
0.0
 11
15.750000000000028
 21
-17.249999999999659
 31
0.0
  0
LINE
  5
3D
100
AcDbEntity
  8
0
  6
PHANTOM
 62
               2
100
AcDbLine
 10
-15.249999999999972
 20
-16.749999999999318
 30
0.0
 11
15.250000000000028
 21
-16.749999999999545
 31
0.0
  0
ARC
  5
3E
100
AcDbEntity
  8
0
  6
CONTINUOUS
 62
               7
100
AcDbCircle
 10
15.750000000000028
 20
-15.749999999999659
 30
0.0
 40
1.5
100
AcDbArc
 50
270.0
 51
0.0
  0
ARC
  5
3F
100
AcDbEntity
  8
0
  6
PHANTOM
 62
               2
100
AcDbCircle
 10
15.250000000000028
 20
-15.249999999999545
 30
0.0
 40
1.5
100
AcDbArc
 50
270.0
 51
0.0
  0
ARC
  5
40
100
AcDbEntity
  8
0
  6
PHANTOM
 62
               2
100
AcDbCircle
 10
-15.249999999999972
 20
-15.249999999999545
 30
0.0
 40
1.5
100
AcDbArc
 50
180.0
 51
270.0
  0
ARC
  5
41
100
AcDbEntity
  8
0
  6
CONTINUOUS
 62
               7
100
AcDbCircle
 10
-15.749999999999972
 20
-15.749999999999545
 30
0.0
 40
1.5
100
AcDbArc
 50
180.0
 51
270.0
  0
LINE
  5
42
100
AcDbEntity
  8
0
  6
PHANTOM
 62
               2
100
AcDbLine
 10
-19.649583380188858
 20
9.0000000000006892
 30
0.0
 11
-19.649583380188943
 21
-8.9999999999995453
 31
0.0
  0
ARC
  5
43
100
AcDbEntity
  8
0
  6
PHANTOM
 62
               2
100
AcDbCircle
 10
-18.649583380188943
 20
-8.9999999999995453
 30
0.0
 40
1.0
100
AcDbArc
 50
180.0
 51
270.0
  0
LINE
  5
44
100
AcDbEntity
  8
0
  6
CONTINUOUS
 62
               7
100
AcDbLine
 10
-17.249999999999972
 20
-15.749999999999545
 30
0.0
 11
-17.249999999999972
 21
-9.9999999999995453
 31
0.0
  0
LINE
  5
45
100
AcDbEntity
  8
0
  6
PHANTOM
 62
               2
100
AcDbLine
 10
-16.749999999999972
 20
-15.249999999999545
 30
0.0
 11
-16.749999999999915
 21
-10.499999999999545
 31
0.0
  0
ARC
  5
46
100
AcDbEntity
  8
0
  6
PHANTOM
 62
               2
100
AcDbCircle
 10
-17.249999999999915
 20
-10.499999999999545
 30
0.0
 40
0.5
100
AcDbArc
 50
0.0
 51
90.0
  0
LINE
  5
47
100
AcDbEntity
  8
0
  6
PHANTOM
 62
               2
100
AcDbLine
 10
-18.649583380188943
 20
-9.9999999999995453
 30
0.0
 11
-17.249999999999915
 21
-9.9999999999995453
 31
0.0
  0
ARC
  5
48
100
AcDbEntity
  8
0
  6
PHANTOM
 62
               2
100
AcDbCircle
 10
-18.649583380188858
 20
9.0000000000006892
 30
0.0
 40
1.0
100
AcDbArc
 50
89.999999999995111
 51
180.0
  0
LINE
  5
49
100
AcDbEntity
  8
0
  6
PHANTOM
 62
               2
100
AcDbLine
 10
-16.750000000000028
 20
10.500000000000462
 30
0.0
 11
-16.750000000000028
 21
15.250000000000462
 31
0.0
  0
ARC
  5
4A
100
AcDbEntity
  8
0
  6
PHANTOM
 62
               2
100
AcDbCircle
 10
-15.250000000000028
 20
15.250000000000462
 30
0.0
 40
1.5
100
AcDbArc
 50
90.0
 51
180.0
  0
LINE
  5
4B
100
AcDbEntity
  8
0
  6
CONTINUOUS
 62
               7
100
AcDbLine
 10
-17.249999999999972
 20
-9.9999999999995453
 30
0.0
 11
-17.249999999999972
 21
15.750000000000348
 31
0.0
  0
ARC
  5
4C
100
AcDbEntity
  8
0
  6
CONTINUOUS
 62
               7
100
AcDbCircle
 10
-15.749999999999972
 20
15.750000000000348
 30
0.0
 40
1.5
100
AcDbArc
 50
90.0
 51
180.0
  0
ARC
  5
4D
100
AcDbEntity
  8
0
  6
PHANTOM
 62
               2
100
AcDbCircle
 10
-17.250000000000028
 20
10.500000000000462
 30
0.0
 40
0.5
100
AcDbArc
 50
269.9999999999967
 51
0.0
  0
LINE
  5
4E
100
AcDbEntity
  8
0
  6
PHANTOM
 62
               2
100
AcDbLine
 10
-17.250000000000057
 20
10.000000000000462
 30
0.0
 11
-18.649583380188773
 21
10.000000000000689
 31
0.0
  0
ARC
  5
4F
100
AcDbEntity
  8
0
  6
CONTINUOUS
 62
               7
100
AcDbCircle
 10
12.0
 20
11.700000000000394
 30
0.0
 40
0.8
100
AcDbArc
 50
0.0
 51
90.0
  0
ARC
  5
50
100
AcDbEntity
  8
0
  6
CONTINUOUS
 62
               7
100
AcDbCircle
 10
11.500031000000035
 20
-11.752024654444085
 30
0.0
 40
0.8
100
AcDbArc
 50
290.31767387037991
 51
0.0
  0
ARC
  5
51
100
AcDbEntity
  8
0
  6
CONTINUOUS
 62
               7
100
AcDbCircle
 10
12.0
 20
-6.8999999999994088
 30
0.0
 40
0.8
100
AcDbArc
 50
270.0
 51
0.0
  0
LINE
  5
52
100
AcDbEntity
  8
0
  6
CONTINUOUS
 62
               7
100
AcDbLine
 10
-13.5
 20
-15.0
 30
0.0
 11
13.5
 21
-15.000000000000341
 31
0.0
  0
LINE
  5
53
100
AcDbEntity
  8
0
  6
CONTINUOUS
 62
               7
100
AcDbLine
 10
13.5
 20
15.000000000000007
 30
0.0
 11
-13.5
 21
15.000000000000007
 31
0.0
  0
LINE
  5
54
100
AcDbEntity
  8
0
  6
CONTINUOUS
 62
               2
100
AcDbLine
 10
-1.6977223703705704
 20
8.4000000000003254
 30
0.0
 11
-0.899542992014176
 21
9.1981793783568335
 31
0.0
  0
ARC
  5
55
100
AcDbEntity
  8
0
  6
CONTINUOUS
 62
               2
100
AcDbCircle
 10
-1.9018645728752972
 20
0.8000000000004093
 30
0.0
 40
0.5
100
AcDbArc
 50
270.0
 51
299.9796088757509
  0
LINE
  5
56
100
AcDbEntity
  8
0
  6
CONTINUOUS
 62
               2
100
AcDbLine
 10
-1.652018694572007
 20
0.3668983524684109
 30
0.0
 11
-2.485120342103869
 21
1.2000000000003865
 31
0.0
  0
LINE
  5
57
100
AcDbEntity
  8
0
  6
CONTINUOUS
 62
               2
100
AcDbLine
 10
-2.2630777235250434
 20
1.2608000938961368
 30
0.0
 11
-1.5020416593710024
 21
0.4997640297420958
 31
0.0
  0
LINE
  5
58
100
AcDbEntity
  8
0
  6
CONTINUOUS
 62
               2
100
AcDbLine
 10
-1.4585786437627348
 20
4.9414213562378109
 30
0.0
 11
-1.9022489648957617
 21
5.3850916773709514
 31
0.0
  0
LINE
  5
59
100
AcDbEntity
  8
0
  6
CONTINUOUS
 62
               2
100
AcDbLine
 10
-2.0144423960284996
 20
4.1027148914974987
 30
0.0
 11
-1.4585786437627348
 21
4.6585786437630077
 31
0.0
  0
LINE
  5
5A
100
AcDbEntity
  8
0
  6
CONTINUOUS
 62
               2
100
AcDbLine
 10
-2.0499999999999545
 20
4.3500000000005912
 30
0.0
 11
-1.6000000000000227
 21
4.8000000000004093
 31
0.0
  0
LINE
  5
5B
100
AcDbEntity
  8
0
  6
CONTINUOUS
 62
               2
100
AcDbLine
 10
-1.6000000000000227
 20
4.8000000000004093
 30
0.0
 11
-2.0499999999999545
 21
5.2500000000003411
 31
0.0
  0
LINE
  5
5C
100
AcDbEntity
  8
0
  6
CONTINUOUS
 62
               2
100
AcDbLine
 10
-1.6599166215611092
 20
8.1549630363351824
 30
0.0
 11
-1.9022489648957617
 21
5.3850916773709514
 31
0.0
  0
LINE
  5
5D
100
AcDbEntity
  8
0
  6
CONTINUOUS
 62
               2
100
AcDbLine
 10
-2.0214901821271383
 20
-4.0500000000004093
 30
0.0
 11
-1.3496180162452447
 21
-4.0500000000004093
 31
0.0
  0
LINE
  5
5E
100
AcDbEntity
  8
0
  6
CONTINUOUS
 62
               2
100
AcDbLine
 10
-2.556972733898931
 20
-2.0000000000002274
 30
0.0
 11
-1.2398154463731714
 21
-2.0000000000002274
 31
0.0
  0
LINE
  5
5F
100
AcDbEntity
  8
0
  6
CONTINUOUS
 62
               2
100
AcDbLine
 10
-1.0349174905635437
 20
-1.5
 30
0.0
 11
-2.8318616205289118
 21
-1.5
 31
0.0
  0
LINE
  5
60
100
AcDbEntity
  8
0
  6
CONTINUOUS
 62
               2
100
AcDbLine
 10
-1.3496180162454721
 20
-3.5500000000004093
 30
0.0
 11
-1.9777458503641583
 21
-3.5500000000004093
 31
0.0
  0
LINE
  5
61
100
AcDbEntity
  8
0
  6
CONTINUOUS
 62
               7
100
AcDbLine
 10
-2.7000309999999672
 20
-12.800000000000182
 30
0.0
 11
2.7000000000000455
 21
-12.800000000000182
 31
0.0
  0
ARC
  5
62
100
AcDbEntity
  8
0
  6
CONTINUOUS
 62
               7
100
AcDbCircle
 10
-0.000015499999904
 20
-17.400077499998815
 30
0.0
 40
8.0000775000144273
100
AcDbArc
 50
69.682589183651217
 51
110.3174108163487
  0
ARC
  5
63
100
AcDbEntity
  8
0
  6
CONTINUOUS
 62
               7
100
AcDbCircle
 10
-0.000015499999904
 20
-17.400077499999043
 30
0.0
 40
7.8000775000144253
100
AcDbArc
 50
69.972919751227039
 51
110.02708024877739
  0
LINE
  5
64
100
AcDbEntity
  8
0
  6
CONTINUOUS
 62
               7
100
AcDbLine
 10
-2.8000309999999899
 20
-13.0
 30
0.0
 11
2.8000000000000682
 21
-13.0
 31
0.0
  0
LINE
  5
65
100
AcDbEntity
  8
0
  6
CONTINUOUS
 62
               2
100
AcDbLine
 10
-1.642263298592411
 20
-5.6000000000001364
 30
0.0
 11
-2.9594205861178011
 21
-5.6000000000001364
 31
0.0
  0
LINE
  5
66
100
AcDbEntity
  8
0
  6
CONTINUOUS
 62
               2
100
AcDbLine
 10
-11.600000000000023
 20
9.7000000000003936
 30
0.0
 11
11.600000000000023
 21
9.7000000000003936
 31
0.0
  0
LINE
  5
67
100
AcDbEntity
  8
0
  6
CONTINUOUS
 62
               7
100
AcDbLine
 10
12.0
 20
-7.6999999999993634
 30
0.0
 11
-12.0
 21
-7.6999999999993634
 31
0.0
  0
LINE
  5
68
100
AcDbEntity
  8
0
  6
CONTINUOUS
 62
               7
100
AcDbLine
 10
-12.0
 20
12.500000000000462
 30
0.0
 11
12.0
 21
12.500000000000462
 31
0.0
  0
LINE
  5
69
100
AcDbEntity
  8
0
  6
CONTINUOUS
 62
               2
100
AcDbLine
 10
-4.1000000000000227
 20
-1.2000000000000455
 30
0.0
 11
11.600000000000023
 21
-1.2000000000000455
 31
0.0
  0
LINE
  5
6A
100
AcDbEntity
  8
0
  6
CONTINUOUS
 62
               2
100
AcDbLine
 10
11.600000000000023
 20
-6.5
 30
0.0
 11
-4.1000000000000227
 21
-6.5
 31
0.0
  0
LINE
  5
6B
100
AcDbEntity
  8
0
  6
CONTINUOUS
 62
               2
100
AcDbLine
 10
-3.1643185419273436
 20
-6.1000000000000227
 30
0.0
 11
-1.367374411962146
 21
-6.1000000000000227
 31
0.0
  0
LINE
  5
6C
100
AcDbEntity
  8
0
  6
CONTINUOUS
 62
               2
100
AcDbLine
 10
-1.2019552646679585
 20
9.3000000000006438
 30
0.0
 11
-4.4981354271246801
 21
9.3000000000004164
 31
0.0
  0
LINE
  5
6D
100
AcDbEntity
  8
0
  6
CONTINUOUS
 62
               2
100
AcDbLine
 10
-2.0144423960284996
 20
4.1027148914974987
 30
0.0
 11
-2.2630777235250434
 21
1.2608000938961368
 31
0.0
  0
LINE
  5
6E
100
AcDbEntity
  8
0
  6
CONTINUOUS
 62
               2
100
AcDbLine
 10
-4.740083378438726
 20
1.4450369636659843
 30
0.0
 11
-4.4977510351042156
 21
4.2149083226302082
 31
0.0
  0
LINE
  5
6F
100
AcDbEntity
  8
0
  6
CONTINUOUS
 62
               2
100
AcDbLine
 10
-7.6144423960284371
 20
4.1027148914974987
 30
0.0
 11
-7.8630777235250662
 21
1.2608000938961368
 31
0.0
  0
LINE
  5
70
100
AcDbEntity
  8
0
  6
CONTINUOUS
 62
               2
100
AcDbLine
 10
-7.0037672238294135
 20
0.7564221286264683
 30
0.0
 11
-6.6942476014261842
 21
4.2942476014267186
 31
0.0
  0
LINE
  5
71
100
AcDbEntity
  8
0
  6
CONTINUOUS
 62
               2
100
AcDbLine
 10
-5.4027322379633631
 20
4.1972677620373133
 30
0.0
 11
-5.6961420843779251
 21
0.8435778713742366
 31
0.0
  0
LINE
  5
72
100
AcDbEntity
  8
0
  6
CONTINUOUS
 62
               2
100
AcDbLine
 10
-10.340083378438692
 20
1.4450369636659843
 30
0.0
 11
-10.09775103510421
 21
4.2149083226302082
 31
0.0
  0
LINE
  5
73
100
AcDbEntity
  8
0
  6
CONTINUOUS
 62
               2
100
AcDbLine
 10
-11.002732237963357
 20
4.1972677620373133
 30
0.0
 11
-11.296142084377863
 21
0.8435778713742366
 31
0.0
  0
LINE
  5
74
100
AcDbEntity
  8
0
  6
CONTINUOUS
 62
               2
100
AcDbLine
 10
-11.600000000000023
 20
9.7000000000003936
 30
0.0
 11
-11.600000000000023
 21
0.0000000000004547
 31
0.0
  0
LINE
  5
75
100
AcDbEntity
  8
0
  6
CONTINUOUS
 62
               7
100
AcDbLine
 10
-12.799999999999955
 20
-6.8999999999994088
 30
0.0
 11
-12.799999999999955
 21
11.700000000000394
 31
0.0
  0
LINE
  5
76
100
AcDbEntity
  8
0
  6
CONTINUOUS
 62
               7
100
AcDbLine
 10
-15.0
 20
-13.5
 30
0.0
 11
-15.0
 21
13.500000000000007
 31
0.0
  0
LINE
  5
77
100
AcDbEntity
  8
0
  6
CONTINUOUS
 62
               2
100
AcDbLine
 10
-8.0851203421038349
 20
1.2000000000003865
 30
0.0
 11
-10.302277629629486
 21
1.2000000000003865
 31
0.0
  0
LINE
  5
78
100
AcDbEntity
  8
0
  6
CONTINUOUS
 62
               2
100
AcDbLine
 10
-10.798044735331985
 20
0.3000000000006367
 30
0.0
 11
-7.5018645728753199
 21
0.3000000000004093
 31
0.0
  0
LINE
  5
79
100
AcDbEntity
  8
0
  6
CONTINUOUS
 62
               7
100
AcDbLine
 10
-11.700030999999967
 20
-12.800000000000182
 30
0.0
 11
-6.2999999999999545
 21
-12.800000000000182
 31
0.0
  0
LINE
  5
7A
100
AcDbEntity
  8
0
  6
CONTINUOUS
 62
               7
100
AcDbLine
 10
-11.999999999999773
 20
-7.8000000000001819
 30
0.0
 11
-4.9000000000003183
 21
-7.8000000000004093
 31
0.0
  0
LINE
  5
7B
100
AcDbEntity
  8
0
  6
CONTINUOUS
 62
               7
100
AcDbLine
 10
-11.799999999999955
 20
-13.0
 30
0.0
 11
-6.1999690000000101
 21
-13.0
 31
0.0
  0
LINE
  5
7C
100
AcDbEntity
  8
0
  6
CONTINUOUS
 62
               7
100
AcDbLine
 10
-6.1999690000000101
 20
-9.4000000000000909
 30
0.0
 11
-11.80000000000004
 21
-9.4000000000000909
 31
0.0
  0
LINE
  5
7D
100
AcDbEntity
  8
0
  6
CONTINUOUS
 62
               7
100
AcDbLine
 10
-6.2999999999999545
 20
-9.6000000000001364
 30
0.0
 11
-11.700030999999967
 21
-9.6000000000003638
 31
0.0
  0
LINE
  5
7E
100
AcDbEntity
  8
0
  6
CONTINUOUS
 62
               7
100
AcDbLine
 10
-12.859767410409063
 20
-8.5
 30
0.0
 11
-5.8999999999997499
 21
-8.5
 31
0.0
  0
LINE
  5
7F
100
AcDbEntity
  8
0
  6
CONTINUOUS
 62
               7
100
AcDbLine
 10
-11.999999999999773
 20
-8.8000000000001819
 30
0.0
 11
-5.9000000000003183
 21
-8.8000000000001819
 31
0.0
  0
ARC
  5
80
100
AcDbEntity
  8
0
  6
CONTINUOUS
 62
               7
100
AcDbCircle
 10
-11.799999999999955
 20
-9.9000000000000909
 30
0.0
 40
0.5
100
AcDbArc
 50
90.000000000003226
 51
180.0
  0
ARC
  5
81
100
AcDbEntity
  8
0
  6
CONTINUOUS
 62
               7
100
AcDbCircle
 10
-11.799999999999955
 20
-12.5
 30
0.0
 40
0.5
100
AcDbArc
 50
180.0
 51
270.0
  0
LINE
  5
82
100
AcDbEntity
  8
0
  6
CONTINUOUS
 62
               7
100
AcDbLine
 10
-12.299999999999955
 20
-12.5
 30
0.0
 11
-12.299999999999955
 21
-9.9000000000000909
 31
0.0
  0
ARC
  5
83
100
AcDbEntity
  8
0
  6
CONTINUOUS
 62
               7
100
AcDbCircle
 10
-13.5
 20
-13.5
 30
0.0
 40
1.5
100
AcDbArc
 50
179.99999100000031
 51
270.00000099999812
  0
LINE
  5
84
100
AcDbEntity
  8
0
  6
CONTINUOUS
 62
               7
100
AcDbLine
 10
-12.000030999999922
 20
-12.500000000000227
 30
0.0
 11
-12.000030999999922
 21
-9.9000000000003183
 31
0.0
  0
ARC
  5
85
100
AcDbEntity
  8
0
  6
CONTINUOUS
 62
               7
100
AcDbCircle
 10
-11.700030999999967
 20
-9.9000000000003183
 30
0.0
 40
0.3
100
AcDbArc
 50
90.0
 51
180.0
  0
ARC
  5
86
100
AcDbEntity
  8
0
  6
CONTINUOUS
 62
               7
100
AcDbCircle
 10
-11.700030999999967
 20
-12.500000000000227
 30
0.0
 40
0.3
100
AcDbArc
 50
180.0
 51
270.0
  0
ARC
  5
87
100
AcDbEntity
  8
0
  6
CONTINUOUS
 62
               7
100
AcDbCircle
 10
-12.0
 20
-6.8999999999994088
 30
0.0
 40
0.8
100
AcDbArc
 50
180.0
 51
270.0
  0
ARC
  5
88
100
AcDbEntity
  8
0
  6
CONTINUOUS
 62
               2
100
AcDbCircle
 10
-10.798044735331985
 20
0.8000000000006367
 30
0.0
 40
0.5
100
AcDbArc
 50
175.00000000000011
 51
209.65890166442139
  0
ARC
  5
89
100
AcDbEntity
  8
0
  6
CONTINUOUS
 62
               2
100
AcDbCircle
 10
-10.798044735331985
 20
0.8000000000006367
 30
0.0
 40
0.5
100
AcDbArc
 50
232.78378265448592
 51
270.0
  0
LINE
  5
8A
100
AcDbEntity
  8
0
  6
CONTINUOUS
 62
               2
100
AcDbLine
 10
-11.232538077370322
 20
0.5525822647339282
 30
0.0
 11
-10.340083378438692
 21
1.4450369636659843
 31
0.0
  0
LINE
  5
8B
100
AcDbEntity
  8
0
  6
CONTINUOUS
 62
               2
100
AcDbLine
 10
-10.302277629629486
 20
1.2000000000003865
 30
0.0
 11
-11.100457007985739
 21
0.4018206216439921
 31
0.0
  0
ARC
  5
8C
100
AcDbEntity
  8
0
  6
CONTINUOUS
 62
               7
100
AcDbCircle
 10
-5.9000000000003183
 20
-9.5
 30
0.0
 40
0.7
100
AcDbArc
 50
0.0
 51
90.0
  0
ARC
  5
8D
100
AcDbEntity
  8
0
  6
CONTINUOUS
 62
               7
100
AcDbCircle
 10
-5.8999999999997499
 20
-9.5
 30
0.0
 40
1.0
100
AcDbArc
 50
0.0
 51
90.000000000001606
  0
ARC
  5
8E
100
AcDbEntity
  8
0
  6
CONTINUOUS
 62
               7
100
AcDbCircle
 10
-4.9000000000003183
 20
-9.8000000000004093
 30
0.0
 40
2.0
100
AcDbArc
 50
0.0
 51
90.0
  0
LINE
  5
8F
100
AcDbEntity
  8
0
  6
CONTINUOUS
 62
               7
100
AcDbLine
 10
-5.2000000000003297
 20
-9.5
 30
0.0
 11
-5.2000000000002728
 21
-13.534856756823501
 31
0.0
  0
ARC
  5
90
100
AcDbEntity
  8
0
  6
CONTINUOUS
 62
               7
100
AcDbCircle
 10
-6.1999690000000101
 20
-9.9000000000000909
 30
0.0
 40
0.5
100
AcDbArc
 50
0.0
 51
90.000000000003226
  0
ARC
  5
91
100
AcDbEntity
  8
0
  6
CONTINUOUS
 62
               7
100
AcDbCircle
 10
-6.2999999999999545
 20
-9.9000000000000909
 30
0.0
 40
0.3
100
AcDbArc
 50
0.0
 51
90.000000000003226
  0
LINE
  5
92
100
AcDbEntity
  8
0
  6
CONTINUOUS
 62
               7
100
AcDbLine
 10
-5.6999690000000101
 20
-12.5
 30
0.0
 11
-5.6999690000000101
 21
-9.9000000000000909
 31
0.0
  0
LINE
  5
93
100
AcDbEntity
  8
0
  6
CONTINUOUS
 62
               7
100
AcDbLine
 10
-6.0
 20
-12.500000000000227
 30
0.0
 11
-6.0
 21
-9.9000000000000909
 31
0.0
  0
ARC
  5
94
100
AcDbEntity
  8
0
  6
CONTINUOUS
 62
               7
100
AcDbCircle
 10
-6.1999690000000101
 20
-12.5
 30
0.0
 40
0.5
100
AcDbArc
 50
270.0
 51
0.0
  0
ARC
  5
95
100
AcDbEntity
  8
0
  6
CONTINUOUS
 62
               7
100
AcDbCircle
 10
-6.2999999999999545
 20
-12.500000000000227
 30
0.0
 40
0.3
100
AcDbArc
 50
270.0
 51
0.0
  0
LINE
  5
96
100
AcDbEntity
  8
0
  6
CONTINUOUS
 62
               7
100
AcDbLine
 10
-2.9000000000003183
 20
-9.8000000000004093
 30
0.0
 11
-2.9000000000003183
 21
-9.9441181448258931
 31
0.0
  0
LINE
  5
97
100
AcDbEntity
  8
0
  6
CONTINUOUS
 62
               7
100
AcDbLine
 10
-3.3000309999999615
 20
-12.5
 30
0.0
 11
-3.3000309999999615
 21
-10.64796386751641
 31
0.0
  0
LINE
  5
98
100
AcDbEntity
  8
0
  6
CONTINUOUS
 62
               7
100
AcDbLine
 10
-3.0000309999999217
 20
-12.500000000000227
 30
0.0
 11
-3.0000309999999217
 21
-10.541429382041088
 31
0.0
  0
LINE
  5
99
100
AcDbEntity
  8
0
  6
CONTINUOUS
 62
               7
100
AcDbLine
 10
-4.7000000000002728
 20
-14.248999599677859
 30
0.0
 11
-4.4000000000003183
 21
-14.248999599677859
 31
0.0
  0
LINE
  5
9A
100
AcDbEntity
  8
0
  6
CONTINUOUS
 62
               7
100
AcDbLine
 10
-4.8999999999997499
 20
-9.5
 30
0.0
 11
-4.8999999999997499
 21
-14.189379483701941
 31
0.0
  0
ARC
  5
9B
100
AcDbEntity
  8
0
  6
CONTINUOUS
 62
               7
100
AcDbCircle
 10
-2.8000309999999899
 20
-12.5
 30
0.0
 40
0.5
100
AcDbArc
 50
180.0
 51
270.0
  0
ARC
  5
9C
100
AcDbEntity
  8
0
  6
CONTINUOUS
 62
               7
100
AcDbCircle
 10
-2.7000309999999672
 20
-12.500000000000227
 30
0.0
 40
0.3
100
AcDbArc
 50
180.0
 51
270.0
  0
ARC
  5
9D
100
AcDbEntity
  8
0
  6
CONTINUOUS
 62
               7
100
AcDbCircle
 10
-2.5000309999999217
 20
-10.64796386751641
 30
0.0
 40
0.8
100
AcDbArc
 50
110.3174108163487
 51
180.0
  0
ARC
  5
9E
100
AcDbEntity
  8
0
  6
CONTINUOUS
 62
               7
100
AcDbCircle
 10
-2.5000309999999786
 20
-10.541429382041088
 30
0.0
 40
0.5
100
AcDbArc
 50
110.0270802487729
 51
180.0
  0
ARC
  5
9F
100
AcDbEntity
  8
0
  6
CONTINUOUS
 62
               7
100
AcDbCircle
 10
-4.4000000000003183
 20
-12.748999599677973
 30
0.0
 40
1.5
100
AcDbArc
 50
270.0
 51
350.92110620262667
  0
LINE
  5
A0
100
AcDbEntity
  8
0
  6
CONTINUOUS
 62
               2
100
AcDbLine
 10
-5.6325380773703273
 20
0.5525822647339282
 30
0.0
 11
-4.740083378438726
 21
1.4450369636659843
 31
0.0
  0
LINE
  5
A1
100
AcDbEntity
  8
0
  6
CONTINUOUS
 62
               2
100
AcDbLine
 10
-4.7022776296294921
 20
1.2000000000003865
 30
0.0
 11
-5.5004570079858013
 21
0.4018206216439921
 31
0.0
  0
LINE
  5
A2
100
AcDbEntity
  8
0
  6
CONTINUOUS
 62
               2
100
AcDbLine
 10
-5.1980447353319903
 20
0.3000000000006367
 30
0.0
 11
-1.9018645728752972
 21
0.3000000000004093
 31
0.0
  0
ARC
  5
A3
100
AcDbEntity
  8
0
  6
CONTINUOUS
 62
               2
100
AcDbCircle
 10
-7.5018645728753199
 20
0.8000000000004093
 30
0.0
 40
0.5
100
AcDbArc
 50
323.09629462179902
 51
355.00000000000028
  0
ARC
  5
A4
100
AcDbEntity
  8
0
  6
CONTINUOUS
 62
               2
100
AcDbCircle
 10
-5.1980447353319903
 20
0.8000000000006367
 30
0.0
 40
0.5
100
AcDbArc
 50
175.00000000000011
 51
209.65890166442139
  0
CIRCLE
  5
A5
100
AcDbEntity
  8
0
  6
CONTINUOUS
 62
               2
100
AcDbCircle
 10
-6.3499999999998806
 20
0.6000000000001364
 30
0.0
 40
0.4
  0
ARC
  5
A6
100
AcDbEntity
  8
0
  6
CONTINUOUS
 62
               2
100
AcDbCircle
 10
-7.5018645728753199
 20
0.8000000000004093
 30
0.0
 40
0.5
100
AcDbArc
 50
270.0
 51
299.9796088757509
  0
LINE
  5
A7
100
AcDbEntity
  8
0
  6
CONTINUOUS
 62
               2
100
AcDbLine
 10
-7.8630777235250662
 20
1.2608000938961368
 30
0.0
 11
-7.1020416593709683
 21
0.4997640297420958
 31
0.0
  0
ARC
  5
A8
100
AcDbEntity
  8
0
  6
CONTINUOUS
 62
               2
100
AcDbCircle
 10
-5.1980447353319903
 20
0.8000000000006367
 30
0.0
 40
0.5
100
AcDbArc
 50
232.78378265448592
 51
270.0
  0
LINE
  5
A9
100
AcDbEntity
  8
0
  6
CONTINUOUS
 62
               2
100
AcDbLine
 10
-7.2520186945719729
 20
0.3668983524684109
 30
0.0
 11
-8.0851203421038349
 21
1.2000000000003865
 31
0.0
  0
LINE
  5
AA
100
AcDbEntity
  8
0
  6
CONTINUOUS
 62
               2
100
AcDbLine
 10
-2.1785098178728504
 20
-3.5500000000004093
 30
0.0
 11
-2.2222541496357735
 21
-4.0500000000004093
 31
0.0
  0
LINE
  5
AB
100
AcDbEntity
  8
0
  6
CONTINUOUS
 62
               2
100
AcDbLine
 10
-1.9777458503641583
 20
-3.5500000000004093
 30
0.0
 11
-2.0214901821271383
 21
-4.0500000000004093
 31
0.0
  0
LINE
  5
AC
100
AcDbEntity
  8
0
  6
CONTINUOUS
 62
               2
100
AcDbLine
 10
-2.2222541496357735
 20
-4.0500000000004093
 30
0.0
 11
-2.8496180162456994
 21
-4.0500000000004093
 31
0.0
  0
LINE
  5
AD
100
AcDbEntity
  8
0
  6
CONTINUOUS
 62
               2
100
AcDbLine
 10
-2.8496180162455289
 20
-3.5500000000004093
 30
0.0
 11
-2.1785098178728504
 21
-3.5500000000004093
 31
0.0
  0
LINE
  5
AE
100
AcDbEntity
  8
0
  6
CONTINUOUS
 62
               2
100
AcDbLine
 10
-2.8512315681932421
 20
-3.2687708394732908
 30
0.0
 11
-2.7482402910762858
 21
-2.0915751552973916
 31
0.0
  0
ARC
  5
AF
100
AcDbEntity
  8
0
  6
CONTINUOUS
 62
               2
100
AcDbCircle
 10
-2.8318616205289118
 20
-1.9000000000000909
 30
0.0
 40
0.4
100
AcDbArc
 50
146.0016465938152
 51
175.00000000000674
  0
LINE
  5
B0
100
AcDbEntity
  8
0
  6
CONTINUOUS
 62
               2
100
AcDbLine
 10
-3.4348198807105632
 20
-4.2023591519908905
 30
0.0
 11
-3.2074607287200934
 21
-3.9750000000005912
 31
0.0
  0
LINE
  5
B1
100
AcDbEntity
  8
0
  6
CONTINUOUS
 62
               2
100
AcDbLine
 10
-3.2074607287200934
 20
-3.9750000000005912
 30
0.0
 11
-2.9367065360514744
 21
-4.2457541926689828
 31
0.0
  0
LINE
  5
B2
100
AcDbEntity
  8
0
  6
CONTINUOUS
 62
               2
100
AcDbLine
 10
-3.5217754000606192
 20
-5.8795121014682081
 30
0.0
 11
-3.0372514819778473
 21
-5.3949881833856352
 31
0.0
  0
LINE
  5
B3
100
AcDbEntity
  8
0
  6
CONTINUOUS
 62
               2
100
AcDbLine
 10
-3.4348198807105632
 20
-4.2023591519908905
 30
0.0
 11
-3.5627964211640233
 21
-5.6651377029012338
 31
0.0
  0
ARC
  5
B4
100
AcDbEntity
  8
0
  6
CONTINUOUS
 62
               2
100
AcDbCircle
 10
-3.1643185419274005
 20
-5.7000000000002728
 30
0.0
 40
0.4
100
AcDbArc
 50
175.00000000000674
 51
206.66545318758119
  0
LINE
  5
B5
100
AcDbEntity
  8
0
  6
CONTINUOUS
 62
               2
100
AcDbLine
 10
-3.0372514819778473
 20
-5.3949881833856352
 30
0.0
 11
-2.9367065360514744
 21
-4.2457541926689828
 31
0.0
  0
ARC
  5
B6
100
AcDbEntity
  8
0
  6
CONTINUOUS
 62
               2
100
AcDbCircle
 10
-3.1643185419274005
 20
-5.7000000000002728
 30
0.0
 40
0.4
100
AcDbArc
 50
235.68650304162912
 51
270.0
  0
LINE
  5
B7
100
AcDbEntity
  8
0
  6
CONTINUOUS
 62
               2
100
AcDbLine
 10
-2.9594205861178011
 20
-5.6000000000001364
 30
0.0
 11
-3.3898067956356499
 21
-6.0303862095179284
 31
0.0
  0
LINE
  5
B8
100
AcDbEntity
  8
0
  6
CONTINUOUS
 62
               2
100
AcDbLine
 10
-3.2074607287203207
 20
-3.6250000000002274
 30
0.0
 11
-3.3700801447561162
 21
-3.4623805839644319
 31
0.0
  0
LINE
  5
B9
100
AcDbEntity
  8
0
  6
CONTINUOUS
 62
               2
100
AcDbLine
 10
-4.1000000000000227
 20
-1.2000000000000455
 30
0.0
 11
-4.1000000000000227
 21
-6.5
 31
0.0
  0
LINE
  5
BA
100
AcDbEntity
  8
0
  6
CONTINUOUS
 62
               2
100
AcDbLine
 10
-3.2303394997655914
 20
-1.8651377029010519
 30
0.0
 11
-3.3700801447561162
 21
-3.4623805839644319
 31
0.0
  0
ARC
  5
BB
100
AcDbEntity
  8
0
  6
CONTINUOUS
 62
               2
100
AcDbCircle
 10
-2.8318616205289118
 20
-1.9000000000000909
 30
0.0
 40
0.4
100
AcDbArc
 50
89.999999999996732
 51
116.99121616429331
  0
LINE
  5
BC
100
AcDbEntity
  8
0
  6
CONTINUOUS
 62
               2
100
AcDbLine
 10
-3.0134031793280656
 20
-1.543569554571036
 30
0.0
 11
-2.556972733898931
 21
-2.0000000000002274
 31
0.0
  0
LINE
  5
BD
100
AcDbEntity
  8
0
  6
CONTINUOUS
 62
               2
100
AcDbLine
 10
-2.7482402910762858
 20
-2.0915751552973916
 30
0.0
 11
-3.1634830775564069
 21
-1.6763323688172704
 31
0.0
  0
LINE
  5
BE
100
AcDbEntity
  8
0
  6
CONTINUOUS
 62
               2
100
AcDbLine
 10
-2.485120342103869
 20
1.2000000000003865
 30
0.0
 11
-4.7022776296294921
 21
1.2000000000003865
 31
0.0
  0
LINE
  5
BF
100
AcDbEntity
  8
0
  6
CONTINUOUS
 62
               2
100
AcDbLine
 10
-3.0996180162455857
 20
-3.8000000000004093
 30
0.0
 11
-2.8496180162456994
 21
-4.0500000000004093
 31
0.0
  0
LINE
  5
C0
100
AcDbEntity
  8
0
  6
CONTINUOUS
 62
               2
100
AcDbLine
 10
-2.8512315681932421
 20
-3.2687708394732908
 30
0.0
 11
-3.2074607287203207
 21
-3.6250000000002274
 31
0.0
  0
LINE
  5
C1
100
AcDbEntity
  8
0
  6
CONTINUOUS
 62
               2
100
AcDbLine
 10
-2.8496180162455289
 20
-3.5500000000004093
 30
0.0
 11
-3.0996180162455857
 21
-3.8000000000004093
 31
0.0
  0
LINE
  5
C2
100
AcDbEntity
  8
0
  6
CONTINUOUS
 62
               2
100
AcDbLine
 10
-8.6602481176589095
 20
5.2500000000003411
 30
0.0
 11
-8.7389879148321938
 21
4.3500000000005912
 31
0.0
  0
LINE
  5
C3
100
AcDbEntity
  8
0
  6
CONTINUOUS
 62
               2
100
AcDbLine
 10
-6.8019552646679813
 20
9.3000000000006438
 30
0.0
 11
-10.098135427124646
 21
9.3000000000004164
 31
0.0
  0
LINE
  5
C4
100
AcDbEntity
  8
0
  6
CONTINUOUS
 62
               2
100
AcDbLine
 10
-8.7389879148321938
 20
4.3500000000005912
 30
0.0
 11
-7.6499999999999773
 21
4.3500000000005912
 31
0.0
  0
LINE
  5
C5
100
AcDbEntity
  8
0
  6
CONTINUOUS
 62
               2
100
AcDbLine
 10
-9.5148796578960173
 20
8.4000000000003254
 30
0.0
 11
-7.2977223703705363
 21
8.4000000000003254
 31
0.0
  0
ARC
  5
C6
100
AcDbEntity
  8
0
  6
CONTINUOUS
 62
               7
100
AcDbCircle
 10
-12.0
 20
11.700000000000394
 30
0.0
 40
0.8
100
AcDbArc
 50
90.0
 51
180.0
  0
ARC
  5
C7
100
AcDbEntity
  8
0
  6
CONTINUOUS
 62
               2
100
AcDbCircle
 10
-10.098135427124646
 20
8.8000000000004164
 30
0.0
 40
0.5
100
AcDbArc
 50
90.0
 51
119.97960887575078
  0
LINE
  5
C8
100
AcDbEntity
  8
0
  6
CONTINUOUS
 62
               2
100
AcDbLine
 10
-10.347981305427936
 20
9.2331016475323011
 30
0.0
 11
-9.5148796578960173
 21
8.4000000000003254
 31
0.0
  0
ARC
  5
C9
100
AcDbEntity
  8
0
  6
CONTINUOUS
 62
               2
100
AcDbCircle
 10
-10.098135427124646
 20
8.8000000000004164
 30
0.0
 40
0.5
100
AcDbArc
 50
143.096294621807
 51
175.00000000000011
  0
LINE
  5
CA
100
AcDbEntity
  8
0
  6
CONTINUOUS
 62
               2
100
AcDbLine
 10
-9.7369222764748429
 20
8.3391999061045752
 30
0.0
 11
-10.497958340628998
 21
9.1002359702586162
 31
0.0
  0
LINE
  5
CB
100
AcDbEntity
  8
0
  6
CONTINUOUS
 62
               2
100
AcDbLine
 10
-9.2723244955875828
 20
5.4500000000006139
 30
0.0
 11
-9.2722948982802791
 21
5.4500000000006139
 31
0.0
  0
LINE
  5
CC
100
AcDbEntity
  8
0
  6
CONTINUOUS
 62
               2
100
AcDbLine
 10
-8.9397518823408575
 20
4.3500000000005912
 30
0.0
 11
-8.8610120851676299
 21
5.2500000000003411
 31
0.0
  0
LINE
  5
CD
100
AcDbEntity
  8
0
  6
CONTINUOUS
 62
               2
100
AcDbLine
 10
-9.9499999999999318
 20
5.2500000000003411
 30
0.0
 11
-8.8610120851676299
 21
5.2500000000003411
 31
0.0
  0
LINE
  5
CE
100
AcDbEntity
  8
0
  6
CONTINUOUS
 62
               2
100
AcDbLine
 10
-8.9397518823408575
 20
4.3500000000005912
 30
0.0
 11
-9.9499999999999886
 21
4.3500000000005912
 31
0.0
  0
LINE
  5
CF
100
AcDbEntity
  8
0
  6
CONTINUOUS
 62
               2
100
AcDbLine
 10
-10.39999999999992
 20
4.8000000000004093
 30
0.0
 11
-9.9499999999999318
 21
5.2500000000003411
 31
0.0
  0
LINE
  5
D0
100
AcDbEntity
  8
0
  6
CONTINUOUS
 62
               2
100
AcDbLine
 10
-9.9499999999999886
 20
4.3500000000005912
 30
0.0
 11
-10.39999999999992
 21
4.8000000000004093
 31
0.0
  0
LINE
  5
D1
100
AcDbEntity
  8
0
  6
CONTINUOUS
 62
               2
100
AcDbLine
 10
-10.541421356237265
 20
4.9414213562378109
 30
0.0
 11
-10.905752398573725
 21
5.3057523985742137
 31
0.0
  0
LINE
  5
D2
100
AcDbEntity
  8
0
  6
CONTINUOUS
 62
               2
100
AcDbLine
 10
-11.002732237963357
 20
4.1972677620373133
 30
0.0
 11
-10.541421356237265
 21
4.6585786437630077
 31
0.0
  0
LINE
  5
D3
100
AcDbEntity
  8
0
  6
CONTINUOUS
 62
               2
100
AcDbLine
 10
-10.541421356237265
 20
4.9414213562378109
 30
0.0
 11
-9.9855576039715004
 21
5.4972851085032062
 31
0.0
  0
LINE
  5
D4
100
AcDbEntity
  8
0
  6
CONTINUOUS
 62
               2
100
AcDbLine
 10
-10.09775103510421
 20
4.2149083226302082
 30
0.0
 11
-10.541421356237265
 21
4.6585786437630077
 31
0.0
  0
LINE
  5
D5
100
AcDbEntity
  8
0
  6
CONTINUOUS
 62
               2
100
AcDbLine
 10
-9.9855576039715004
 20
5.4972851085032062
 30
0.0
 11
-9.7369222764748429
 21
8.3391999061045752
 31
0.0
  0
LINE
  5
D6
100
AcDbEntity
  8
0
  6
CONTINUOUS
 62
               2
100
AcDbLine
 10
-10.596232776170496
 20
8.84357787137413
 30
0.0
 11
-10.905752398573725
 21
5.3057523985742137
 31
0.0
  0
ARC
  5
D7
100
AcDbEntity
  8
0
  6
CONTINUOUS
 62
               7
100
AcDbCircle
 10
-13.5
 20
13.500000000000007
 30
0.0
 40
1.5
100
AcDbArc
 50
90.000001999999569
 51
180.0000050000005
  0
LINE
  5
D8
100
AcDbEntity
  8
0
  6
CONTINUOUS
 62
               2
100
AcDbLine
 10
-4.941421356237214
 20
4.9414213562378109
 30
0.0
 11
-5.3057523985737589
 21
5.3057523985742137
 31
0.0
  0
LINE
  5
D9
100
AcDbEntity
  8
0
  6
CONTINUOUS
 62
               2
100
AcDbLine
 10
-5.4027322379633631
 20
4.1972677620373133
 30
0.0
 11
-4.941421356237214
 21
4.6585786437630077
 31
0.0
  0
LINE
  5
DA
100
AcDbEntity
  8
0
  6
CONTINUOUS
 62
               2
100
AcDbLine
 10
-4.9962327761704728
 20
8.84357787137413
 30
0.0
 11
-5.3057523985737589
 21
5.3057523985742137
 31
0.0
  0
ARC
  5
DB
100
AcDbEntity
  8
0
  6
CONTINUOUS
 62
               2
100
AcDbCircle
 10
-6.8019552646679813
 20
8.8000000000004164
 30
0.0
 40
0.5
100
AcDbArc
 50
355.00000000000028
 51
29.658901664421379
  0
ARC
  5
DC
100
AcDbEntity
  8
0
  6
CONTINUOUS
 62
               2
100
AcDbCircle
 10
-6.8019552646679813
 20
8.8000000000004164
 30
0.0
 40
0.5
100
AcDbArc
 50
52.783782654485918
 51
90.0
  0
LINE
  5
DD
100
AcDbEntity
  8
0
  6
CONTINUOUS
 62
               2
100
AcDbLine
 10
-6.3674619226295874
 20
9.0474177352668974
 30
0.0
 11
-7.2599166215611604
 21
8.1549630363351824
 31
0.0
  0
LINE
  5
DE
100
AcDbEntity
  8
0
  6
CONTINUOUS
 62
               2
100
AcDbLine
 10
-7.2977223703705363
 20
8.4000000000003254
 30
0.0
 11
-6.4995429920141419
 21
9.1981793783568335
 31
0.0
  0
LINE
  5
DF
100
AcDbEntity
  8
0
  6
CONTINUOUS
 62
               2
100
AcDbLine
 10
-7.0585786437627007
 20
4.9414213562378109
 30
0.0
 11
-7.5022489648956991
 21
5.3850916773709514
 31
0.0
  0
LINE
  5
E0
100
AcDbEntity
  8
0
  6
CONTINUOUS
 62
               2
100
AcDbLine
 10
-7.1999999999999602
 20
4.8000000000004093
 30
0.0
 11
-7.6499999999999773
 21
5.2500000000003411
 31
0.0
  0
LINE
  5
E1
100
AcDbEntity
  8
0
  6
CONTINUOUS
 62
               2
100
AcDbLine
 10
-7.6499999999999773
 20
4.3500000000005912
 30
0.0
 11
-7.1999999999999602
 21
4.8000000000004093
 31
0.0
  0
LINE
  5
E2
100
AcDbEntity
  8
0
  6
CONTINUOUS
 62
               2
100
AcDbLine
 10
-7.6144423960284371
 20
4.1027148914974987
 30
0.0
 11
-7.0585786437627007
 21
4.6585786437630077
 31
0.0
  0
LINE
  5
E3
100
AcDbEntity
  8
0
  6
CONTINUOUS
 62
               2
100
AcDbLine
 10
-7.0585786437627007
 20
4.9414213562378109
 30
0.0
 11
-6.5972677620365516
 21
5.4027322379638463
 31
0.0
  0
LINE
  5
E4
100
AcDbEntity
  8
0
  6
CONTINUOUS
 62
               2
100
AcDbLine
 10
-6.6942476014261842
 20
4.2942476014267186
 30
0.0
 11
-7.0585786437627007
 21
4.6585786437630077
 31
0.0
  0
LINE
  5
E5
100
AcDbEntity
  8
0
  6
CONTINUOUS
 62
               2
100
AcDbLine
 10
-7.2599166215611604
 20
8.1549630363351824
 30
0.0
 11
-7.5022489648956991
 21
5.3850916773709514
 31
0.0
  0
LINE
  5
E6
100
AcDbEntity
  8
0
  6
CONTINUOUS
 62
               2
100
AcDbLine
 10
-6.5972677620365516
 20
5.4027322379638463
 30
0.0
 11
-6.3038579156220749
 21
8.7564221286268165
 31
0.0
  0
LINE
  5
E7
100
AcDbEntity
  8
0
  6
CONTINUOUS
 62
               2
100
AcDbLine
 10
-7.6499999999999773
 20
5.2500000000003411
 30
0.0
 11
-8.6602481176589095
 21
5.2500000000003411
 31
0.0
  0
ARC
  5
E8
100
AcDbEntity
  8
0
  6
CONTINUOUS
 62
               2
100
AcDbCircle
 10
-4.4981354271246801
 20
8.8000000000004164
 30
0.0
 40
0.5
100
AcDbArc
 50
143.096294621807
 51
175.00000000000011
  0
ARC
  5
E9
100
AcDbEntity
  8
0
  6
CONTINUOUS
 62
               2
100
AcDbCircle
 10
-4.4981354271246801
 20
8.8000000000004164
 30
0.0
 40
0.5
100
AcDbArc
 50
90.0
 51
119.97960887575078
  0
LINE
  5
EA
100
AcDbEntity
  8
0
  6
CONTINUOUS
 62
               2
100
AcDbLine
 10
-4.7479813054279703
 20
9.2331016475323011
 30
0.0
 11
-3.9148796578959946
 21
8.4000000000003254
 31
0.0
  0
LINE
  5
EB
100
AcDbEntity
  8
0
  6
CONTINUOUS
 62
               2
100
AcDbLine
 10
-4.1369222764748201
 20
8.3391999061045752
 30
0.0
 11
-4.8979583406289748
 21
9.1002359702586162
 31
0.0
  0
LINE
  5
EC
100
AcDbEntity
  8
0
  6
CONTINUOUS
 62
               2
100
AcDbLine
 10
-3.3397518823408632
 20
4.3500000000005912
 30
0.0
 11
-3.2610120851675788
 21
5.2500000000003411
 31
0.0
  0
LINE
  5
ED
100
AcDbEntity
  8
0
  6
CONTINUOUS
 62
               2
100
AcDbLine
 10
-3.0602481176589436
 20
5.2500000000003411
 30
0.0
 11
-3.1389879148322279
 21
4.3500000000005912
 31
0.0
  0
LINE
  5
EE
100
AcDbEntity
  8
0
  6
CONTINUOUS
 62
               2
100
AcDbLine
 10
-4.941421356237214
 20
4.9414213562378109
 30
0.0
 11
-4.3855576039715061
 21
5.4972851085032062
 31
0.0
  0
LINE
  5
EF
100
AcDbEntity
  8
0
  6
CONTINUOUS
 62
               2
100
AcDbLine
 10
-4.4977510351042156
 20
4.2149083226302082
 30
0.0
 11
-4.941421356237214
 21
4.6585786437630077
 31
0.0
  0
LINE
  5
F0
100
AcDbEntity
  8
0
  6
CONTINUOUS
 62
               2
100
AcDbLine
 10
-4.7999999999999545
 20
4.8000000000004093
 30
0.0
 11
-4.3499999999998806
 21
5.2500000000003411
 31
0.0
  0
LINE
  5
F1
100
AcDbEntity
  8
0
  6
CONTINUOUS
 62
               2
100
AcDbLine
 10
-3.6723244955876453
 20
5.4500000000006139
 30
0.0
 11
-3.6722948982802563
 21
5.4500000000006139
 31
0.0
  0
LINE
  5
F2
100
AcDbEntity
  8
0
  6
CONTINUOUS
 62
               2
100
AcDbLine
 10
-4.3500000000000227
 20
4.3500000000005912
 30
0.0
 11
-4.7999999999999545
 21
4.8000000000004093
 31
0.0
  0
LINE
  5
F3
100
AcDbEntity
  8
0
  6
CONTINUOUS
 62
               2
100
AcDbLine
 10
-4.3499999999998806
 20
5.2500000000003411
 30
0.0
 11
-3.2610120851675788
 21
5.2500000000003411
 31
0.0
  0
LINE
  5
F4
100
AcDbEntity
  8
0
  6
CONTINUOUS
 62
               2
100
AcDbLine
 10
-3.3397518823408632
 20
4.3500000000005912
 30
0.0
 11
-4.3500000000000227
 21
4.3500000000005912
 31
0.0
  0
LINE
  5
F5
100
AcDbEntity
  8
0
  6
CONTINUOUS
 62
               2
100
AcDbLine
 10
-4.3855576039715061
 20
5.4972851085032062
 30
0.0
 11
-4.1369222764748201
 21
8.3391999061045752
 31
0.0
  0
LINE
  5
F6
100
AcDbEntity
  8
0
  6
CONTINUOUS
 62
               2
100
AcDbLine
 10
-2.0499999999999545
 20
5.2500000000003411
 30
0.0
 11
-3.0602481176589436
 21
5.2500000000003411
 31
0.0
  0
LINE
  5
F7
100
AcDbEntity
  8
0
  6
CONTINUOUS
 62
               2
100
AcDbLine
 10
-3.1389879148322279
 20
4.3500000000005912
 30
0.0
 11
-2.0499999999999545
 21
4.3500000000005912
 31
0.0
  0
LINE
  5
F8
100
AcDbEntity
  8
0
  6
CONTINUOUS
 62
               2
100
AcDbLine
 10
-3.9148796578959946
 20
8.4000000000003254
 30
0.0
 11
-1.6977223703705704
 21
8.4000000000003254
 31
0.0
  0
LINE
  5
F9
100
AcDbEntity
  8
0
  6
CONTINUOUS
 62
               2
100
AcDbLine
 10
9.796232776170541
 20
0.7564221286264683
 30
0.0
 11
10.105752398573713
 21
4.2942476014267186
 31
0.0
  0
LINE
  5
FA
100
AcDbEntity
  8
0
  6
CONTINUOUS
 62
               2
100
AcDbLine
 10
9.1855576039714606
 20
4.1027148914974987
 30
0.0
 11
8.9369222764748883
 21
1.2608000938961368
 31
0.0
  0
LINE
  5
FB
100
AcDbEntity
  8
0
  6
CONTINUOUS
 62
               2
100
AcDbLine
 10
11.600000000000023
 20
9.7000000000003936
 30
0.0
 11
11.600000000000023
 21
0.0000000000004547
 31
0.0
  0
LINE
  5
FC
100
AcDbEntity
  8
0
  6
CONTINUOUS
 62
               2
100
AcDbLine
 10
6.4599166215612058
 20
1.4450369636659843
 30
0.0
 11
6.7022489648957162
 21
4.2149083226302082
 31
0.0
  0
LINE
  5
FD
100
AcDbEntity
  8
0
  6
CONTINUOUS
 62
               2
100
AcDbLine
 10
5.7972677620365687
 20
4.1972677620373133
 30
0.0
 11
5.5038579156220067
 21
0.8435778713742366
 31
0.0
  0
LINE
  5
FE
100
AcDbEntity
  8
0
  6
CONTINUOUS
 62
               2
100
AcDbLine
 10
3.5855576039715515
 20
4.1027148914974987
 30
0.0
 11
3.3369222764749509
 21
1.2608000938961368
 31
0.0
  0
LINE
  5
FF
100
AcDbEntity
  8
0
  6
CONTINUOUS
 62
               2
100
AcDbLine
 10
4.1962327761705751
 20
0.7564221286264683
 30
0.0
 11
4.5057523985738328
 21
4.2942476014267186
 31
0.0
  0
LINE
  5
100
100
AcDbEntity
  8
0
  6
CONTINUOUS
 62
               2
100
AcDbLine
 10
0.1972677620366312
 20
4.1972677620373133
 30
0.0
 11
-0.0961420843779024
 21
0.8435778713742366
 31
0.0
  0
LINE
  5
101
100
AcDbEntity
  8
0
  6
CONTINUOUS
 62
               2
100
AcDbLine
 10
0.8599166215612968
 20
1.4450369636659843
 30
0.0
 11
1.1022489648957503
 21
4.2149083226302082
 31
0.0
  0
LINE
  5
102
100
AcDbEntity
  8
0
  6
CONTINUOUS
 62
               2
100
AcDbLine
 10
-1.4037672238293624
 20
0.7564221286264683
 30
0.0
 11
-1.0942476014262184
 21
4.2942476014267186
 31
0.0
  0
LINE
  5
103
100
AcDbEntity
  8
0
  6
CONTINUOUS
 62
               2
100
AcDbLine
 10
4.8430272661011315
 20
-2.0000000000002274
 30
0.0
 11
6.1601845536268627
 21
-2.0000000000002274
 31
0.0
  0
LINE
  5
104
100
AcDbEntity
  8
0
  6
CONTINUOUS
 62
               2
100
AcDbLine
 10
6.3650825094365189
 20
-1.5
 30
0.0
 11
4.5681383794711223
 21
-1.5
 31
0.0
  0
LINE
  5
105
100
AcDbEntity
  8
0
  6
CONTINUOUS
 62
               2
100
AcDbLine
 10
4.2356814580726905
 20
-6.1000000000000227
 30
0.0
 11
6.0326255880378881
 21
-6.1000000000000227
 31
0.0
  0
LINE
  5
106
100
AcDbEntity
  8
0
  6
CONTINUOUS
 62
               2
100
AcDbLine
 10
5.7577367014076231
 20
-5.6000000000001364
 30
0.0
 11
4.4405794138822614
 21
-5.6000000000001364
 31
0.0
  0
LINE
  5
107
100
AcDbEntity
  8
0
  6
CONTINUOUS
 62
               7
100
AcDbLine
 10
0.0
 20
-9.4000060000003032
 30
0.0
 11
0.0
 21
-12.800000000000409
 31
0.0
  0
ARC
  5
108
100
AcDbEntity
  8
0
  6
CONTINUOUS
 62
               7
100
AcDbCircle
 10
1.3000000000000114
 20
-12.100000000000023
 30
0.0
 40
0.1
100
AcDbArc
 50
270.0
 51
35.837652954269494
  0
ARC
  5
109
100
AcDbEntity
  8
0
  6
CONTINUOUS
 62
               7
100
AcDbCircle
 10
0.0
 20
-10.300000000000409
 30
0.0
 40
0.1
100
AcDbArc
 50
35.83765295428578
 51
144.1623470457142
  0
LINE
  5
10A
100
AcDbEntity
  8
0
  6
CONTINUOUS
 62
               7
100
AcDbLine
 10
0.0810679228400204
 20
-10.241450944615735
 30
0.0
 11
1.3810679228400318
 21
-12.041450944615576
 31
0.0
  0
ARC
  5
10B
100
AcDbEntity
  8
0
  6
CONTINUOUS
 62
               7
100
AcDbCircle
 10
-1.2999999999999545
 20
-12.100000000000023
 30
0.0
 40
0.1
100
AcDbArc
 50
144.1623470457142
 51
270.0
  0
LINE
  5
10C
100
AcDbEntity
  8
0
  6
CONTINUOUS
 62
               7
100
AcDbLine
 10
-0.0810679228399636
 20
-10.241450944615735
 30
0.0
 11
-1.3810679228399749
 21
-12.041450944615576
 31
0.0
  0
LINE
  5
10D
100
AcDbEntity
  8
0
  6
CONTINUOUS
 62
               7
100
AcDbLine
 10
-1.2999999999999545
 20
-12.200000000000387
 30
0.0
 11
1.3000000000000114
 21
-12.200000000000387
 31
0.0
  0
LINE
  5
10E
100
AcDbEntity
  8
0
  6
CONTINUOUS
 62
               7
100
AcDbLine
 10
3.3000000000000682
 20
-12.5
 30
0.0
 11
3.3000000000000682
 21
-10.64796386751641
 31
0.0
  0
LINE
  5
10F
100
AcDbEntity
  8
0
  6
CONTINUOUS
 62
               7
100
AcDbLine
 10
3.0
 20
-12.500000000000227
 30
0.0
 11
3.0
 21
-10.541429382041088
 31
0.0
  0
ARC
  5
110
100
AcDbEntity
  8
0
  6
CONTINUOUS
 62
               7
100
AcDbCircle
 10
2.8000000000000682
 20
-12.5
 30
0.0
 40
0.5
100
AcDbArc
 50
270.0
 51
0.0
  0
ARC
  5
111
100
AcDbEntity
  8
0
  6
CONTINUOUS
 62
               7
100
AcDbCircle
 10
2.7000000000000455
 20
-12.500000000000227
 30
0.0
 40
0.3
100
AcDbArc
 50
270.0
 51
0.0
  0
ARC
  5
112
100
AcDbEntity
  8
0
  6
CONTINUOUS
 62
               7
100
AcDbCircle
 10
2.5000000000000568
 20
-10.64796386751641
 30
0.0
 40
0.8
100
AcDbArc
 50
0.0
 51
69.682589183651217
  0
ARC
  5
113
100
AcDbEntity
  8
0
  6
CONTINUOUS
 62
               7
100
AcDbCircle
 10
2.5
 20
-10.541429382041088
 30
0.0
 40
0.5
100
AcDbArc
 50
0.0
 51
69.972919751227039
  0
LINE
  5
114
100
AcDbEntity
  8
0
  6
CONTINUOUS
 62
               2
100
AcDbLine
 10
3.1148796578961537
 20
1.2000000000003865
 30
0.0
 11
0.8977223703705022
 21
1.2000000000003865
 31
0.0
  0
LINE
  5
115
100
AcDbEntity
  8
0
  6
CONTINUOUS
 62
               2
100
AcDbLine
 10
0.401955264668004
 20
0.3000000000006367
 30
0.0
 11
3.6981354271246687
 21
0.3000000000004093
 31
0.0
  0
LINE
  5
116
100
AcDbEntity
  8
0
  6
CONTINUOUS
 62
               2
100
AcDbLine
 10
2.0577367014075776
 20
-5.6000000000001364
 30
0.0
 11
0.7405794138821591
 21
-5.6000000000001364
 31
0.0
  0
LINE
  5
117
100
AcDbEntity
  8
0
  6
CONTINUOUS
 62
               2
100
AcDbLine
 10
1.1430272661010576
 20
-2.0000000000002274
 30
0.0
 11
2.4601845536267888
 21
-2.0000000000002274
 31
0.0
  0
LINE
  5
118
100
AcDbEntity
  8
0
  6
CONTINUOUS
 62
               2
100
AcDbLine
 10
2.665082509436445
 20
-1.5
 30
0.0
 11
0.8681383794710769
 21
-1.5
 31
0.0
  0
LINE
  5
119
100
AcDbEntity
  8
0
  6
CONTINUOUS
 62
               2
100
AcDbLine
 10
0.535681458072645
 20
-6.1000000000000227
 30
0.0
 11
2.332625588037871
 21
-6.1000000000000227
 31
0.0
  0
LINE
  5
11A
100
AcDbEntity
  8
0
  6
CONTINUOUS
 62
               2
100
AcDbLine
 10
1.6785098178728504
 20
-4.0500000000004093
 30
0.0
 11
2.3503819837547439
 21
-4.0500000000004093
 31
0.0
  0
LINE
  5
11B
100
AcDbEntity
  8
0
  6
CONTINUOUS
 62
               2
100
AcDbLine
 10
2.3503819837545166
 20
-3.5500000000004093
 30
0.0
 11
1.7222541496358588
 21
-3.5500000000004093
 31
0.0
  0
ARC
  5
11C
100
AcDbEntity
  8
0
  6
CONTINUOUS
 62
               2
100
AcDbCircle
 10
0.401955264668004
 20
0.8000000000006367
 30
0.0
 40
0.5
100
AcDbArc
 50
175.00000000000011
 51
209.65890166442139
  0
LINE
  5
11D
100
AcDbEntity
  8
0
  6
CONTINUOUS
 62
               2
100
AcDbLine
 10
-0.0325380773703046
 20
0.5525822647339282
 30
0.0
 11
0.8599166215612968
 21
1.4450369636659843
 31
0.0
  0
LINE
  5
11E
100
AcDbEntity
  8
0
  6
CONTINUOUS
 62
               2
100
AcDbLine
 10
0.8977223703705022
 20
1.2000000000003865
 30
0.0
 11
0.0995429920142499
 21
0.4018206216439921
 31
0.0
  0
ARC
  5
11F
100
AcDbEntity
  8
0
  6
CONTINUOUS
 62
               2
100
AcDbCircle
 10
0.401955264668004
 20
0.8000000000006367
 30
0.0
 40
0.5
100
AcDbArc
 50
232.78378265448592
 51
270.0
  0
ARC
  5
120
100
AcDbEntity
  8
0
  6
CONTINUOUS
 62
               2
100
AcDbCircle
 10
-1.9018645728752972
 20
0.8000000000004093
 30
0.0
 40
0.5
100
AcDbArc
 50
323.09629462179902
 51
355.00000000000028
  0
CIRCLE
  5
121
100
AcDbEntity
  8
0
  6
CONTINUOUS
 62
               2
100
AcDbCircle
 10
-0.7499999999998863
 20
0.6000000000001364
 30
0.0
 40
0.4
  0
ARC
  5
122
100
AcDbEntity
  8
0
  6
CONTINUOUS
 62
               2
100
AcDbCircle
 10
0.8681383794710769
 20
-1.9000000000000909
 30
0.0
 40
0.4
100
AcDbArc
 50
89.999999999996732
 51
116.99121616429331
  0
ARC
  5
123
100
AcDbEntity
  8
0
  6
CONTINUOUS
 62
               2
100
AcDbCircle
 10
0.8681383794710769
 20
-1.9000000000000909
 30
0.0
 40
0.4
100
AcDbArc
 50
146.0016465938152
 51
175.00000000000674
  0
LINE
  5
124
100
AcDbEntity
  8
0
  6
CONTINUOUS
 62
               2
100
AcDbLine
 10
0.6865968206719231
 20
-1.543569554571036
 30
0.0
 11
1.1430272661010576
 21
-2.0000000000002274
 31
0.0
  0
LINE
  5
125
100
AcDbEntity
  8
0
  6
CONTINUOUS
 62
               2
100
AcDbLine
 10
0.9517597089237029
 20
-2.0915751552973916
 30
0.0
 11
0.5365169224436102
 21
-1.6763323688172704
 31
0.0
  0
LINE
  5
126
100
AcDbEntity
  8
0
  6
CONTINUOUS
 62
               2
100
AcDbLine
 10
1.5214901821271951
 20
-3.5500000000004093
 30
0.0
 11
1.4777458503642151
 21
-4.0500000000004093
 31
0.0
  0
LINE
  5
127
100
AcDbEntity
  8
0
  6
CONTINUOUS
 62
               2
100
AcDbLine
 10
1.7222541496358588
 20
-3.5500000000004093
 30
0.0
 11
1.6785098178728504
 21
-4.0500000000004093
 31
0.0
  0
LINE
  5
128
100
AcDbEntity
  8
0
  6
CONTINUOUS
 62
               2
100
AcDbLine
 10
0.6003819837544313
 20
-3.8000000000004093
 30
0.0
 11
0.8503819837543176
 21
-4.0500000000004093
 31
0.0
  0
LINE
  5
129
100
AcDbEntity
  8
0
  6
CONTINUOUS
 62
               2
100
AcDbLine
 10
0.2651801192894254
 20
-4.2023591519908905
 30
0.0
 11
0.4925392712798953
 21
-3.9750000000005912
 31
0.0
  0
LINE
  5
12A
100
AcDbEntity
  8
0
  6
CONTINUOUS
 62
               2
100
AcDbLine
 10
0.4925392712798953
 20
-3.9750000000005912
 30
0.0
 11
0.7632934639485143
 21
-4.2457541926689828
 31
0.0
  0
LINE
  5
12B
100
AcDbEntity
  8
0
  6
CONTINUOUS
 62
               2
100
AcDbLine
 10
0.1782245999393695
 20
-5.8795121014682081
 30
0.0
 11
0.6627485180221129
 21
-5.3949881833856352
 31
0.0
  0
LINE
  5
12C
100
AcDbEntity
  8
0
  6
CONTINUOUS
 62
               2
100
AcDbLine
 10
0.2651801192894254
 20
-4.2023591519908905
 30
0.0
 11
0.1372035788359654
 21
-5.6651377029012338
 31
0.0
  0
ARC
  5
12D
100
AcDbEntity
  8
0
  6
CONTINUOUS
 62
               2
100
AcDbCircle
 10
0.5356814580725882
 20
-5.7000000000002728
 30
0.0
 40
0.4
100
AcDbArc
 50
175.00000000000674
 51
206.66545318758119
  0
LINE
  5
12E
100
AcDbEntity
  8
0
  6
CONTINUOUS
 62
               2
100
AcDbLine
 10
0.6627485180221129
 20
-5.3949881833856352
 30
0.0
 11
0.7632934639485143
 21
-4.2457541926689828
 31
0.0
  0
ARC
  5
12F
100
AcDbEntity
  8
0
  6
CONTINUOUS
 62
               2
100
AcDbCircle
 10
0.5356814580725882
 20
-5.7000000000002728
 30
0.0
 40
0.4
100
AcDbArc
 50
235.68650304162912
 51
270.0
  0
LINE
  5
130
100
AcDbEntity
  8
0
  6
CONTINUOUS
 62
               2
100
AcDbLine
 10
0.7405794138821591
 20
-5.6000000000001364
 30
0.0
 11
0.3101932043643387
 21
-6.0303862095179284
 31
0.0
  0
LINE
  5
131
100
AcDbEntity
  8
0
  6
CONTINUOUS
 62
               2
100
AcDbLine
 10
1.4777458503642151
 20
-4.0500000000004093
 30
0.0
 11
0.8503819837543176
 21
-4.0500000000004093
 31
0.0
  0
LINE
  5
132
100
AcDbEntity
  8
0
  6
CONTINUOUS
 62
               2
100
AcDbLine
 10
0.4925392712796395
 20
-3.6250000000002274
 30
0.0
 11
0.3299198552439009
 21
-3.4623805839644319
 31
0.0
  0
LINE
  5
133
100
AcDbEntity
  8
0
  6
CONTINUOUS
 62
               2
100
AcDbLine
 10
0.8487684318067181
 20
-3.2687708394732908
 30
0.0
 11
0.4925392712796395
 21
-3.6250000000002274
 31
0.0
  0
LINE
  5
134
100
AcDbEntity
  8
0
  6
CONTINUOUS
 62
               2
100
AcDbLine
 10
0.8503819837544597
 20
-3.5500000000004093
 30
0.0
 11
0.6003819837544313
 21
-3.8000000000004093
 31
0.0
  0
LINE
  5
135
100
AcDbEntity
  8
0
  6
CONTINUOUS
 62
               2
100
AcDbLine
 10
0.8503819837544597
 20
-3.5500000000004093
 30
0.0
 11
1.5214901821271951
 21
-3.5500000000004093
 31
0.0
  0
LINE
  5
136
100
AcDbEntity
  8
0
  6
CONTINUOUS
 62
               2
100
AcDbLine
 10
0.4696605002343972
 20
-1.8651377029010519
 30
0.0
 11
0.3299198552439009
 21
-3.4623805839644319
 31
0.0
  0
LINE
  5
137
100
AcDbEntity
  8
0
  6
CONTINUOUS
 62
               2
100
AcDbLine
 10
0.8487684318067181
 20
-3.2687708394732908
 30
0.0
 11
0.9517597089237029
 21
-2.0915751552973916
 31
0.0
  0
ARC
  5
138
100
AcDbEntity
  8
0
  6
CONTINUOUS
 62
               2
100
AcDbCircle
 10
-1.0349174905635437
 20
-1.9000000000000909
 30
0.0
 40
0.4
100
AcDbArc
 50
355.00000000000671
 51
26.665453187573981
  0
ARC
  5
139
100
AcDbEntity
  8
0
  6
CONTINUOUS
 62
               2
100
AcDbCircle
 10
-1.0349174905635437
 20
-1.9000000000000909
 30
0.0
 40
0.4
100
AcDbArc
 50
55.686503041629202
 51
89.999999999996732
  0
LINE
  5
13A
100
AcDbEntity
  8
0
  6
CONTINUOUS
 62
               2
100
AcDbLine
 10
-1.2398154463731714
 20
-2.0000000000002274
 30
0.0
 11
-0.8094292368552942
 21
-1.5696137904822081
 31
0.0
  0
LINE
  5
13B
100
AcDbEntity
  8
0
  6
CONTINUOUS
 62
               2
100
AcDbLine
 10
-0.677460632430325
 20
-1.7204878985319283
 30
0.0
 11
-1.1619845505131252
 21
-2.2050118166149559
 31
0.0
  0
LINE
  5
13C
100
AcDbEntity
  8
0
  6
CONTINUOUS
 62
               2
100
AcDbLine
 10
-1.09961801624533
 20
-3.8000000000004093
 30
0.0
 11
-1.3496180162452447
 21
-4.0500000000004093
 31
0.0
  0
LINE
  5
13D
100
AcDbEntity
  8
0
  6
CONTINUOUS
 62
               2
100
AcDbLine
 10
-0.9581966600080705
 20
-3.9414213562374698
 30
0.0
 11
-1.3480044642976736
 21
-4.331229160527073
 31
0.0
  0
LINE
  5
13E
100
AcDbEntity
  8
0
  6
CONTINUOUS
 62
               2
100
AcDbLine
 10
-0.9581966600080705
 20
-3.9414213562374698
 30
0.0
 11
-0.8237530715688024
 21
-4.0758649446767095
 31
0.0
  0
LINE
  5
13F
100
AcDbEntity
  8
0
  6
CONTINUOUS
 62
               2
100
AcDbLine
 10
-0.9688965327254664
 20
-5.7348622970991983
 30
0.0
 11
-0.8237530715688024
 21
-4.0758649446767095
 31
0.0
  0
LINE
  5
140
100
AcDbEntity
  8
0
  6
CONTINUOUS
 62
               2
100
AcDbLine
 10
-1.3480044642976736
 20
-4.331229160527073
 30
0.0
 11
-1.4509957414147152
 21
-5.5084248447030859
 31
0.0
  0
LINE
  5
141
100
AcDbEntity
  8
0
  6
CONTINUOUS
 62
               2
100
AcDbLine
 10
-1.4509957414147152
 20
-5.5084248447030859
 30
0.0
 11
-1.0357529549347646
 21
-5.9236676311830934
 31
0.0
  0
ARC
  5
142
100
AcDbEntity
  8
0
  6
CONTINUOUS
 62
               2
100
AcDbCircle
 10
-1.367374411962146
 20
-5.7000000000002728
 30
0.0
 40
0.4
100
AcDbArc
 50
270.0
 51
296.99121616424958
  0
ARC
  5
143
100
AcDbEntity
  8
0
  6
CONTINUOUS
 62
               2
100
AcDbCircle
 10
-1.367374411962146
 20
-5.7000000000002728
 30
0.0
 40
0.4
100
AcDbArc
 50
326.00164659378362
 51
355.00000000000671
  0
LINE
  5
144
100
AcDbEntity
  8
0
  6
CONTINUOUS
 62
               2
100
AcDbLine
 10
-1.2625294964394413
 20
-3.3542458073316084
 30
0.0
 11
-0.9581966600080705
 21
-3.658578643762894
 31
0.0
  0
LINE
  5
145
100
AcDbEntity
  8
0
  6
CONTINUOUS
 62
               2
100
AcDbLine
 10
-1.3496180162454721
 20
-3.5500000000004093
 30
0.0
 11
-1.09961801624533
 21
-3.8000000000004093
 31
0.0
  0
LINE
  5
146
100
AcDbEntity
  8
0
  6
CONTINUOUS
 62
               2
100
AcDbLine
 10
-0.7708549773563789
 20
-3.4712369611111171
 30
0.0
 11
-0.9581966600080705
 21
-3.658578643762894
 31
0.0
  0
LINE
  5
147
100
AcDbEntity
  8
0
  6
CONTINUOUS
 62
               2
100
AcDbLine
 10
-0.7708549773563789
 20
-3.4712369611111171
 30
0.0
 11
-0.636439611326864
 21
-1.9348622970990164
 31
0.0
  0
LINE
  5
148
100
AcDbEntity
  8
0
  6
CONTINUOUS
 62
               2
100
AcDbLine
 10
-1.1619845505131252
 20
-2.2050118166149559
 30
0.0
 11
-1.2625294964394413
 21
-3.3542458073316084
 31
0.0
  0
LINE
  5
149
100
AcDbEntity
  8
0
  6
CONTINUOUS
 62
               2
100
AcDbLine
 10
-1.1858328531632196
 20
-6.0564304454292142
 30
0.0
 11
-1.642263298592411
 21
-5.6000000000001364
 31
0.0
  0
CIRCLE
  5
14A
100
AcDbEntity
  8
0
  6
CONTINUOUS
 62
               2
100
AcDbCircle
 10
-0.4299999999999216
 20
-5.9000000000000909
 30
0.0
 40
0.3
  0
ARC
  5
14B
100
AcDbEntity
  8
0
  6
CONTINUOUS
 62
               2
100
AcDbCircle
 10
3.6981354271246687
 20
0.8000000000004093
 30
0.0
 40
0.5
100
AcDbArc
 50
270.0
 51
299.9796088757509
  0
LINE
  5
14C
100
AcDbEntity
  8
0
  6
CONTINUOUS
 62
               2
100
AcDbLine
 10
3.3369222764749509
 20
1.2608000938961368
 30
0.0
 11
4.0979583406290487
 21
0.4997640297420958
 31
0.0
  0
ARC
  5
14D
100
AcDbEntity
  8
0
  6
CONTINUOUS
 62
               2
100
AcDbCircle
 10
3.6981354271246687
 20
0.8000000000004093
 30
0.0
 40
0.5
100
AcDbArc
 50
323.09629462179902
 51
355.00000000000028
  0
LINE
  5
14E
100
AcDbEntity
  8
0
  6
CONTINUOUS
 62
               2
100
AcDbLine
 10
3.9479813054280157
 20
0.3668983524684109
 30
0.0
 11
3.1148796578961537
 21
1.2000000000003865
 31
0.0
  0
CIRCLE
  5
14F
100
AcDbEntity
  8
0
  6
CONTINUOUS
 62
               2
100
AcDbCircle
 10
4.850000000000108
 20
0.6000000000001364
 30
0.0
 40
0.4
  0
LINE
  5
150
100
AcDbEntity
  8
0
  6
CONTINUOUS
 62
               2
100
AcDbLine
 10
5.2214901821272406
 20
-3.5500000000004093
 30
0.0
 11
5.1777458503642038
 21
-4.0500000000004093
 31
0.0
  0
ARC
  5
151
100
AcDbEntity
  8
0
  6
CONTINUOUS
 62
               2
100
AcDbCircle
 10
4.5681383794711223
 20
-1.9000000000000909
 30
0.0
 40
0.4
100
AcDbArc
 50
89.999999999996732
 51
116.99121616429331
  0
ARC
  5
152
100
AcDbEntity
  8
0
  6
CONTINUOUS
 62
               2
100
AcDbCircle
 10
4.5681383794711223
 20
-1.9000000000000909
 30
0.0
 40
0.4
100
AcDbArc
 50
146.0016465938152
 51
175.00000000000674
  0
ARC
  5
153
100
AcDbEntity
  8
0
  6
CONTINUOUS
 62
               2
100
AcDbCircle
 10
2.665082509436445
 20
-1.9000000000000909
 30
0.0
 40
0.4
100
AcDbArc
 50
55.686503041629202
 51
89.999999999996732
  0
LINE
  5
154
100
AcDbEntity
  8
0
  6
CONTINUOUS
 62
               2
100
AcDbLine
 10
2.4601845536267888
 20
-2.0000000000002274
 30
0.0
 11
2.8905707631447228
 21
-1.5696137904822081
 31
0.0
  0
LINE
  5
155
100
AcDbEntity
  8
0
  6
CONTINUOUS
 62
               2
100
AcDbLine
 10
3.0225393675696921
 20
-1.7204878985319283
 30
0.0
 11
2.5380154494868918
 21
-2.2050118166149559
 31
0.0
  0
ARC
  5
156
100
AcDbEntity
  8
0
  6
CONTINUOUS
 62
               2
100
AcDbCircle
 10
2.665082509436445
 20
-1.9000000000000909
 30
0.0
 40
0.4
100
AcDbArc
 50
355.00000000000671
 51
26.665453187573981
  0
LINE
  5
157
100
AcDbEntity
  8
0
  6
CONTINUOUS
 62
               2
100
AcDbLine
 10
4.3003819837544484
 20
-3.8000000000004093
 30
0.0
 11
4.5503819837543631
 21
-4.0500000000004093
 31
0.0
  0
LINE
  5
158
100
AcDbEntity
  8
0
  6
CONTINUOUS
 62
               2
100
AcDbLine
 10
2.6003819837546587
 20
-3.8000000000004093
 30
0.0
 11
2.3503819837547439
 21
-4.0500000000004093
 31
0.0
  0
LINE
  5
159
100
AcDbEntity
  8
0
  6
CONTINUOUS
 62
               2
100
AcDbLine
 10
3.9651801192894993
 20
-4.2023591519908905
 30
0.0
 11
4.1925392712799692
 21
-3.9750000000005912
 31
0.0
  0
LINE
  5
15A
100
AcDbEntity
  8
0
  6
CONTINUOUS
 62
               2
100
AcDbLine
 10
4.1925392712799692
 20
-3.9750000000005912
 30
0.0
 11
4.4632934639485882
 21
-4.2457541926689828
 31
0.0
  0
LINE
  5
15B
100
AcDbEntity
  8
0
  6
CONTINUOUS
 62
               2
100
AcDbLine
 10
3.8782245999394149
 20
-5.8795121014682081
 30
0.0
 11
4.3627485180221584
 21
-5.3949881833856352
 31
0.0
  0
LINE
  5
15C
100
AcDbEntity
  8
0
  6
CONTINUOUS
 62
               2
100
AcDbLine
 10
3.9651801192894993
 20
-4.2023591519908905
 30
0.0
 11
3.8372035788360392
 21
-5.6651377029012338
 31
0.0
  0
ARC
  5
15D
100
AcDbEntity
  8
0
  6
CONTINUOUS
 62
               2
100
AcDbCircle
 10
4.2356814580726336
 20
-5.7000000000002728
 30
0.0
 40
0.4
100
AcDbArc
 50
175.00000000000674
 51
206.66545318758119
  0
LINE
  5
15E
100
AcDbEntity
  8
0
  6
CONTINUOUS
 62
               2
100
AcDbLine
 10
4.3627485180221584
 20
-5.3949881833856352
 30
0.0
 11
4.4632934639485882
 21
-4.2457541926689828
 31
0.0
  0
ARC
  5
15F
100
AcDbEntity
  8
0
  6
CONTINUOUS
 62
               2
100
AcDbCircle
 10
4.2356814580726336
 20
-5.7000000000002728
 30
0.0
 40
0.4
100
AcDbArc
 50
235.68650304162912
 51
270.0
  0
LINE
  5
160
100
AcDbEntity
  8
0
  6
CONTINUOUS
 62
               2
100
AcDbLine
 10
4.4405794138822614
 20
-5.6000000000001364
 30
0.0
 11
4.0101932043644126
 21
-6.0303862095179284
 31
0.0
  0
LINE
  5
161
100
AcDbEntity
  8
0
  6
CONTINUOUS
 62
               2
100
AcDbLine
 10
2.7418033399919466
 20
-3.9414213562374698
 30
0.0
 11
2.3519955357023434
 21
-4.331229160527073
 31
0.0
  0
LINE
  5
162
100
AcDbEntity
  8
0
  6
CONTINUOUS
 62
               2
100
AcDbLine
 10
2.7418033399919466
 20
-3.9414213562374698
 30
0.0
 11
2.8762469284311862
 21
-4.0758649446767095
 31
0.0
  0
LINE
  5
163
100
AcDbEntity
  8
0
  6
CONTINUOUS
 62
               2
100
AcDbLine
 10
2.7311034672745222
 20
-5.7348622970991983
 30
0.0
 11
2.8762469284311862
 21
-4.0758649446767095
 31
0.0
  0
LINE
  5
164
100
AcDbEntity
  8
0
  6
CONTINUOUS
 62
               2
100
AcDbLine
 10
2.3519955357023434
 20
-4.331229160527073
 30
0.0
 11
2.2490042585852734
 21
-5.5084248447030859
 31
0.0
  0
LINE
  5
165
100
AcDbEntity
  8
0
  6
CONTINUOUS
 62
               2
100
AcDbLine
 10
2.2490042585852734
 20
-5.5084248447030859
 30
0.0
 11
2.664247045065224
 21
-5.9236676311830934
 31
0.0
  0
ARC
  5
166
100
AcDbEntity
  8
0
  6
CONTINUOUS
 62
               2
100
AcDbCircle
 10
2.332625588037871
 20
-5.7000000000002728
 30
0.0
 40
0.4
100
AcDbArc
 50
270.0
 51
296.99121616424958
  0
ARC
  5
167
100
AcDbEntity
  8
0
  6
CONTINUOUS
 62
               2
100
AcDbCircle
 10
2.332625588037871
 20
-5.7000000000002728
 30
0.0
 40
0.4
100
AcDbArc
 50
326.00164659378362
 51
355.00000000000671
  0
CIRCLE
  5
168
100
AcDbEntity
  8
0
  6
CONTINUOUS
 62
               2
100
AcDbCircle
 10
3.2700000000000671
 20
-5.9000000000000909
 30
0.0
 40
0.3
  0
LINE
  5
169
100
AcDbEntity
  8
0
  6
CONTINUOUS
 62
               2
100
AcDbLine
 10
4.1925392712797134
 20
-3.6250000000002274
 30
0.0
 11
4.0299198552439179
 21
-3.4623805839644319
 31
0.0
  0
LINE
  5
16A
100
AcDbEntity
  8
0
  6
CONTINUOUS
 62
               2
100
AcDbLine
 10
4.5487684318067636
 20
-3.2687708394732908
 30
0.0
 11
4.1925392712797134
 21
-3.6250000000002274
 31
0.0
  0
LINE
  5
16B
100
AcDbEntity
  8
0
  6
CONTINUOUS
 62
               2
100
AcDbLine
 10
4.5503819837545052
 20
-3.5500000000004093
 30
0.0
 11
4.3003819837544484
 21
-3.8000000000004093
 31
0.0
  0
LINE
  5
16C
100
AcDbEntity
  8
0
  6
CONTINUOUS
 62
               2
100
AcDbLine
 10
2.4374705035605189
 20
-3.3542458073316084
 30
0.0
 11
2.7418033399919466
 21
-3.658578643762894
 31
0.0
  0
LINE
  5
16D
100
AcDbEntity
  8
0
  6
CONTINUOUS
 62
               2
100
AcDbLine
 10
2.3503819837545166
 20
-3.5500000000004093
 30
0.0
 11
2.6003819837546587
 21
-3.8000000000004093
 31
0.0
  0
LINE
  5
16E
100
AcDbEntity
  8
0
  6
CONTINUOUS
 62
               2
100
AcDbLine
 10
2.9291450226435813
 20
-3.4712369611111171
 30
0.0
 11
2.7418033399919466
 21
-3.658578643762894
 31
0.0
  0
LINE
  5
16F
100
AcDbEntity
  8
0
  6
CONTINUOUS
 62
               2
100
AcDbLine
 10
2.9291450226435813
 20
-3.4712369611111171
 30
0.0
 11
3.0635603886731531
 21
-1.9348622970990164
 31
0.0
  0
LINE
  5
170
100
AcDbEntity
  8
0
  6
CONTINUOUS
 62
               2
100
AcDbLine
 10
2.5380154494868918
 20
-2.2050118166149559
 30
0.0
 11
2.4374705035605189
 21
-3.3542458073316084
 31
0.0
  0
LINE
  5
171
100
AcDbEntity
  8
0
  6
CONTINUOUS
 62
               2
100
AcDbLine
 10
4.1696605002344427
 20
-1.8651377029010519
 30
0.0
 11
4.0299198552439179
 21
-3.4623805839644319
 31
0.0
  0
LINE
  5
172
100
AcDbEntity
  8
0
  6
CONTINUOUS
 62
               2
100
AcDbLine
 10
4.3865968206719685
 20
-1.543569554571036
 30
0.0
 11
4.8430272661011315
 21
-2.0000000000002274
 31
0.0
  0
LINE
  5
173
100
AcDbEntity
  8
0
  6
CONTINUOUS
 62
               2
100
AcDbLine
 10
4.6517597089237483
 20
-2.0915751552973916
 30
0.0
 11
4.2365169224436272
 21
-1.6763323688172704
 31
0.0
  0
LINE
  5
174
100
AcDbEntity
  8
0
  6
CONTINUOUS
 62
               2
100
AcDbLine
 10
5.1777458503642038
 20
-4.0500000000004093
 30
0.0
 11
4.5503819837543631
 21
-4.0500000000004093
 31
0.0
  0
LINE
  5
175
100
AcDbEntity
  8
0
  6
CONTINUOUS
 62
               2
100
AcDbLine
 10
4.5503819837545052
 20
-3.5500000000004093
 30
0.0
 11
5.2214901821272406
 21
-3.5500000000004093
 31
0.0
  0
LINE
  5
176
100
AcDbEntity
  8
0
  6
CONTINUOUS
 62
               2
100
AcDbLine
 10
4.5487684318067636
 20
-3.2687708394732908
 30
0.0
 11
4.6517597089237483
 21
-2.0915751552973916
 31
0.0
  0
LINE
  5
177
100
AcDbEntity
  8
0
  6
CONTINUOUS
 62
               2
100
AcDbLine
 10
2.514167146836769
 20
-6.0564304454292142
 30
0.0
 11
2.0577367014075776
 21
-5.6000000000001364
 31
0.0
  0
LINE
  5
178
100
AcDbEntity
  8
0
  6
CONTINUOUS
 62
               7
100
AcDbLine
 10
8.9189320771600364
 20
-12.158549055384583
 30
0.0
 11
7.6189320771600251
 21
-10.358549055384856
 31
0.0
  0
LINE
  5
179
100
AcDbEntity
  8
0
  6
CONTINUOUS
 62
               7
100
AcDbLine
 10
10.30000000000004
 20
-10.200000000000387
 30
0.0
 11
7.7000000000000455
 21
-10.200000000000387
 31
0.0
  0
ARC
  5
17A
100
AcDbEntity
  8
0
  6
CONTINUOUS
 62
               7
100
AcDbCircle
 10
9.0000155000000177
 20
-4.9999225000015031
 30
0.0
 40
7.8000775000144253
100
AcDbArc
 50
249.9729197512269
 51
290.02708024877279
  0
ARC
  5
17B
100
AcDbEntity
  8
0
  6
CONTINUOUS
 62
               7
100
AcDbCircle
 10
8.999984500000096
 20
-4.9999225000012757
 30
0.0
 40
8.0000775000144273
100
AcDbArc
 50
249.68285223723149
 51
290.31767387037991
  0
LINE
  5
17C
100
AcDbEntity
  8
0
  6
CONTINUOUS
 62
               7
100
AcDbLine
 10
11.80003099999999
 20
-9.4000000000000909
 30
0.0
 11
6.1999999999999318
 21
-9.4000000000000909
 31
0.0
  0
LINE
  5
17D
100
AcDbEntity
  8
0
  6
CONTINUOUS
 62
               7
100
AcDbLine
 10
11.700031000000109
 20
-9.6000000000003638
 30
0.0
 11
6.3000000000000682
 21
-9.6000000000003638
 31
0.0
  0
ARC
  5
17E
100
AcDbEntity
  8
0
  6
CONTINUOUS
 62
               7
100
AcDbCircle
 10
7.7000000000000455
 20
-10.300000000000409
 30
0.0
 40
0.1
100
AcDbArc
 50
90.0
 51
215.83765295426949
  0
ARC
  5
17F
100
AcDbEntity
  8
0
  6
CONTINUOUS
 62
               7
100
AcDbCircle
 10
6.2000000000000455
 20
-9.9000000000000909
 30
0.0
 40
0.5
100
AcDbArc
 50
90.000000000003226
 51
180.0
  0
ARC
  5
180
100
AcDbEntity
  8
0
  6
CONTINUOUS
 62
               7
100
AcDbCircle
 10
6.3000000000000682
 20
-9.9000000000003183
 30
0.0
 40
0.3
100
AcDbArc
 50
90.0
 51
180.0
  0
ARC
  5
181
100
AcDbEntity
  8
0
  6
CONTINUOUS
 62
               7
100
AcDbCircle
 10
6.5
 20
-11.752047610361387
 30
0.0
 40
0.8
100
AcDbArc
 50
180.0
 51
249.68285223723149
  0
LINE
  5
182
100
AcDbEntity
  8
0
  6
CONTINUOUS
 62
               7
100
AcDbLine
 10
5.7000000000000455
 20
-11.752047610361387
 30
0.0
 11
5.7000000000000455
 21
-9.9000000000000909
 31
0.0
  0
LINE
  5
183
100
AcDbEntity
  8
0
  6
CONTINUOUS
 62
               7
100
AcDbLine
 10
6.0
 20
-9.9000000000003183
 30
0.0
 11
6.0
 21
-11.858570617959685
 31
0.0
  0
ARC
  5
184
100
AcDbEntity
  8
0
  6
CONTINUOUS
 62
               7
100
AcDbCircle
 10
6.5
 20
-11.858570617959685
 30
0.0
 40
0.5
100
AcDbArc
 50
180.0
 51
249.9729197512269
  0
LINE
  5
185
100
AcDbEntity
  8
0
  6
CONTINUOUS
 62
               7
100
AcDbLine
 10
12.30003099999999
 20
-11.752024654444085
 30
0.0
 11
12.30003099999999
 21
-9.9000000000000909
 31
0.0
  0
ARC
  5
186
100
AcDbEntity
  8
0
  6
CONTINUOUS
 62
               7
100
AcDbCircle
 10
11.700031000000109
 20
-9.9000000000003183
 30
0.0
 40
0.3
100
AcDbArc
 50
0.0
 51
90.0
  0
ARC
  5
187
100
AcDbEntity
  8
0
  6
CONTINUOUS
 62
               7
100
AcDbCircle
 10
11.500031000000035
 20
-11.858570617959685
 30
0.0
 40
0.5
100
AcDbArc
 50
290.02708024877279
 51
0.0
  0
ARC
  5
188
100
AcDbEntity
  8
0
  6
CONTINUOUS
 62
               7
100
AcDbCircle
 10
10.30000000000004
 20
-10.300000000000409
 30
0.0
 40
0.1
100
AcDbArc
 50
324.16234704571423
 51
90.0
  0
LINE
  5
189
100
AcDbEntity
  8
0
  6
CONTINUOUS
 62
               7
100
AcDbLine
 10
12.000031000000035
 20
-9.9000000000003183
 30
0.0
 11
12.000031000000035
 21
-11.858570617959685
 31
0.0
  0
ARC
  5
18A
100
AcDbEntity
  8
0
  6
CONTINUOUS
 62
               7
100
AcDbCircle
 10
9.0
 20
-12.100000000000023
 30
0.0
 40
0.1
100
AcDbArc
 50
215.8376529542856
 51
324.16234704571423
  0
LINE
  5
18B
100
AcDbEntity
  8
0
  6
CONTINUOUS
 62
               7
100
AcDbLine
 10
9.0810679228400488
 20
-12.158549055384583
 30
0.0
 11
10.381067922840032
 21
-10.358549055384856
 31
0.0
  0
ARC
  5
18C
100
AcDbEntity
  8
0
  6
CONTINUOUS
 62
               7
100
AcDbCircle
 10
11.80003099999999
 20
-9.9000000000000909
 30
0.0
 40
0.5
100
AcDbArc
 50
0.0
 51
90.000000000003226
  0
LINE
  5
18D
100
AcDbEntity
  8
0
  6
CONTINUOUS
 62
               2
100
AcDbLine
 10
9.5479813054279248
 20
0.3668983524684109
 30
0.0
 11
8.7148796578960912
 21
1.2000000000003865
 31
0.0
  0
LINE
  5
18E
100
AcDbEntity
  8
0
  6
CONTINUOUS
 62
               2
100
AcDbLine
 10
8.9214901821271724
 20
-3.5500000000004093
 30
0.0
 11
8.8777458503642492
 21
-4.0500000000004093
 31
0.0
  0
LINE
  5
18F
100
AcDbEntity
  8
0
  6
CONTINUOUS
 62
               2
100
AcDbLine
 10
9.4577367014076401
 20
-5.6000000000001364
 30
0.0
 11
8.14057941388225
 21
-5.6000000000001364
 31
0.0
  0
LINE
  5
190
100
AcDbEntity
  8
0
  6
CONTINUOUS
 62
               2
100
AcDbLine
 10
8.2503819837544938
 20
-3.5500000000004093
 30
0.0
 11
8.9214901821271724
 21
-3.5500000000004093
 31
0.0
  0
LINE
  5
191
100
AcDbEntity
  8
0
  6
CONTINUOUS
 62
               2
100
AcDbLine
 10
10.065082509436479
 20
-1.5
 30
0.0
 11
8.2681383794711394
 21
-1.5
 31
0.0
  0
LINE
  5
192
100
AcDbEntity
  8
0
  6
CONTINUOUS
 62
               2
100
AcDbLine
 10
8.5430272661011202
 20
-2.0000000000002274
 30
0.0
 11
9.8601845536268229
 21
-2.0000000000002274
 31
0.0
  0
LINE
  5
193
100
AcDbEntity
  8
0
  6
CONTINUOUS
 62
               2
100
AcDbLine
 10
7.9356814580727075
 20
-6.1000000000000227
 30
0.0
 11
9.7326255880378767
 21
-6.1000000000000227
 31
0.0
  0
LINE
  5
194
100
AcDbEntity
  8
0
  6
CONTINUOUS
 62
               2
100
AcDbLine
 10
6.0019552646679131
 20
0.3000000000006367
 30
0.0
 11
9.2981354271246346
 21
0.3000000000004093
 31
0.0
  0
LINE
  5
195
100
AcDbEntity
  8
0
  6
CONTINUOUS
 62
               2
100
AcDbLine
 10
8.0865968206719856
 20
-1.543569554571036
 30
0.0
 11
8.5430272661011202
 21
-2.0000000000002274
 31
0.0
  0
ARC
  5
196
100
AcDbEntity
  8
0
  6
CONTINUOUS
 62
               2
100
AcDbCircle
 10
8.2681383794711394
 20
-1.9000000000000909
 30
0.0
 40
0.4
100
AcDbArc
 50
89.999999999996732
 51
116.99121616429331
  0
ARC
  5
197
100
AcDbEntity
  8
0
  6
CONTINUOUS
 62
               2
100
AcDbCircle
 10
8.2681383794711394
 20
-1.9000000000000909
 30
0.0
 40
0.4
100
AcDbArc
 50
146.0016465938152
 51
175.00000000000674
  0
LINE
  5
198
100
AcDbEntity
  8
0
  6
CONTINUOUS
 62
               2
100
AcDbLine
 10
8.3517597089237654
 20
-2.0915751552973916
 30
0.0
 11
7.9365169224436158
 21
-1.6763323688172704
 31
0.0
  0
LINE
  5
199
100
AcDbEntity
  8
0
  6
CONTINUOUS
 62
               2
100
AcDbLine
 10
8.000381983754437
 20
-3.8000000000004093
 30
0.0
 11
8.2503819837543233
 21
-4.0500000000004093
 31
0.0
  0
LINE
  5
19A
100
AcDbEntity
  8
0
  6
CONTINUOUS
 62
               2
100
AcDbLine
 10
7.6651801192894879
 20
-4.2023591519908905
 30
0.0
 11
7.8925392712799294
 21
-3.9750000000005912
 31
0.0
  0
LINE
  5
19B
100
AcDbEntity
  8
0
  6
CONTINUOUS
 62
               2
100
AcDbLine
 10
7.8925392712799294
 20
-3.9750000000005912
 30
0.0
 11
8.1632934639485484
 21
-4.2457541926689828
 31
0.0
  0
LINE
  5
19C
100
AcDbEntity
  8
0
  6
CONTINUOUS
 62
               2
100
AcDbLine
 10
7.5782245999394036
 20
-5.8795121014682081
 30
0.0
 11
8.062748518022147
 21
-5.3949881833856352
 31
0.0
  0
LINE
  5
19D
100
AcDbEntity
  8
0
  6
CONTINUOUS
 62
               2
100
AcDbLine
 10
7.6651801192894879
 20
-4.2023591519908905
 30
0.0
 11
7.5372035788359995
 21
-5.6651377029012338
 31
0.0
  0
ARC
  5
19E
100
AcDbEntity
  8
0
  6
CONTINUOUS
 62
               2
100
AcDbCircle
 10
7.9356814580726223
 20
-5.7000000000002728
 30
0.0
 40
0.4
100
AcDbArc
 50
175.00000000000674
 51
206.66545318758119
  0
LINE
  5
19F
100
AcDbEntity
  8
0
  6
CONTINUOUS
 62
               2
100
AcDbLine
 10
8.062748518022147
 20
-5.3949881833856352
 30
0.0
 11
8.1632934639485484
 21
-4.2457541926689828
 31
0.0
  0
ARC
  5
1A0
100
AcDbEntity
  8
0
  6
CONTINUOUS
 62
               2
100
AcDbCircle
 10
7.9356814580726223
 20
-5.7000000000002728
 30
0.0
 40
0.4
100
AcDbArc
 50
235.68650304162912
 51
270.0
  0
LINE
  5
1A1
100
AcDbEntity
  8
0
  6
CONTINUOUS
 62
               2
100
AcDbLine
 10
8.14057941388225
 20
-5.6000000000001364
 30
0.0
 11
7.7101932043644013
 21
-6.0303862095179284
 31
0.0
  0
LINE
  5
1A2
100
AcDbEntity
  8
0
  6
CONTINUOUS
 62
               2
100
AcDbLine
 10
7.8925392712797304
 20
-3.6250000000002274
 30
0.0
 11
7.7299198552439066
 21
-3.4623805839644319
 31
0.0
  0
LINE
  5
1A3
100
AcDbEntity
  8
0
  6
CONTINUOUS
 62
               2
100
AcDbLine
 10
8.2487684318067522
 20
-3.2687708394732908
 30
0.0
 11
7.8925392712797304
 21
-3.6250000000002274
 31
0.0
  0
LINE
  5
1A4
100
AcDbEntity
  8
0
  6
CONTINUOUS
 62
               2
100
AcDbLine
 10
8.2503819837544938
 20
-3.5500000000004093
 30
0.0
 11
8.000381983754437
 21
-3.8000000000004093
 31
0.0
  0
LINE
  5
1A5
100
AcDbEntity
  8
0
  6
CONTINUOUS
 62
               2
100
AcDbLine
 10
8.8777458503642492
 20
-4.0500000000004093
 30
0.0
 11
8.2503819837543233
 21
-4.0500000000004093
 31
0.0
  0
LINE
  5
1A6
100
AcDbEntity
  8
0
  6
CONTINUOUS
 62
               2
100
AcDbLine
 10
7.8696605002344313
 20
-1.8651377029010519
 30
0.0
 11
7.7299198552439066
 21
-3.4623805839644319
 31
0.0
  0
LINE
  5
1A7
100
AcDbEntity
  8
0
  6
CONTINUOUS
 62
               2
100
AcDbLine
 10
8.2487684318067522
 20
-3.2687708394732908
 30
0.0
 11
8.3517597089237654
 21
-2.0915751552973916
 31
0.0
  0
LINE
  5
1A8
100
AcDbEntity
  8
0
  6
CONTINUOUS
 62
               2
100
AcDbLine
 10
5.5674619226296045
 20
0.5525822647339282
 30
0.0
 11
6.4599166215612058
 21
1.4450369636659843
 31
0.0
  0
LINE
  5
1A9
100
AcDbEntity
  8
0
  6
CONTINUOUS
 62
               2
100
AcDbLine
 10
6.4977223703704396
 20
1.2000000000003865
 30
0.0
 11
5.6995429920141589
 21
0.4018206216439921
 31
0.0
  0
ARC
  5
1AA
100
AcDbEntity
  8
0
  6
CONTINUOUS
 62
               2
100
AcDbCircle
 10
6.0019552646679131
 20
0.8000000000006367
 30
0.0
 40
0.5
100
AcDbArc
 50
175.00000000000011
 51
209.65890166442139
  0
ARC
  5
1AB
100
AcDbEntity
  8
0
  6
CONTINUOUS
 62
               2
100
AcDbCircle
 10
6.0019552646679131
 20
0.8000000000006367
 30
0.0
 40
0.5
100
AcDbArc
 50
232.78378265448592
 51
270.0
  0
ARC
  5
1AC
100
AcDbEntity
  8
0
  6
CONTINUOUS
 62
               2
100
AcDbCircle
 10
6.3650825094365189
 20
-1.9000000000000909
 30
0.0
 40
0.4
100
AcDbArc
 50
355.00000000000671
 51
26.665453187573981
  0
ARC
  5
1AD
100
AcDbEntity
  8
0
  6
CONTINUOUS
 62
               2
100
AcDbCircle
 10
6.3650825094365189
 20
-1.9000000000000909
 30
0.0
 40
0.4
100
AcDbArc
 50
55.686503041629202
 51
89.999999999996732
  0
LINE
  5
1AE
100
AcDbEntity
  8
0
  6
CONTINUOUS
 62
               2
100
AcDbLine
 10
6.1601845536268627
 20
-2.0000000000002274
 30
0.0
 11
6.5905707631447683
 21
-1.5696137904822081
 31
0.0
  0
LINE
  5
1AF
100
AcDbEntity
  8
0
  6
CONTINUOUS
 62
               2
100
AcDbLine
 10
6.7225393675697092
 20
-1.7204878985319283
 30
0.0
 11
6.2380154494869089
 21
-2.2050118166149559
 31
0.0
  0
LINE
  5
1B0
100
AcDbEntity
  8
0
  6
CONTINUOUS
 62
               2
100
AcDbLine
 10
5.4222541496358758
 20
-3.5500000000004093
 30
0.0
 11
5.3785098178728958
 21
-4.0500000000004093
 31
0.0
  0
LINE
  5
1B1
100
AcDbEntity
  8
0
  6
CONTINUOUS
 62
               2
100
AcDbLine
 10
6.3003819837546757
 20
-3.8000000000004093
 30
0.0
 11
6.0503819837548178
 21
-4.0500000000004093
 31
0.0
  0
LINE
  5
1B2
100
AcDbEntity
  8
0
  6
CONTINUOUS
 62
               2
100
AcDbLine
 10
6.4418033399919636
 20
-3.9414213562374698
 30
0.0
 11
6.5762469284312033
 21
-4.0758649446767095
 31
0.0
  0
LINE
  5
1B3
100
AcDbEntity
  8
0
  6
CONTINUOUS
 62
               2
100
AcDbLine
 10
6.4311034672745677
 20
-5.7348622970991983
 30
0.0
 11
6.5762469284312033
 21
-4.0758649446767095
 31
0.0
  0
LINE
  5
1B4
100
AcDbEntity
  8
0
  6
CONTINUOUS
 62
               2
100
AcDbLine
 10
6.4418033399919636
 20
-3.9414213562374698
 30
0.0
 11
6.0519955357023605
 21
-4.331229160527073
 31
0.0
  0
ARC
  5
1B5
100
AcDbEntity
  8
0
  6
CONTINUOUS
 62
               2
100
AcDbCircle
 10
6.0326255880378881
 20
-5.7000000000002728
 30
0.0
 40
0.4
100
AcDbArc
 50
326.00164659378362
 51
355.00000000000671
  0
LINE
  5
1B6
100
AcDbEntity
  8
0
  6
CONTINUOUS
 62
               2
100
AcDbLine
 10
6.0519955357023605
 20
-4.331229160527073
 30
0.0
 11
5.9490042585853189
 21
-5.5084248447030859
 31
0.0
  0
LINE
  5
1B7
100
AcDbEntity
  8
0
  6
CONTINUOUS
 62
               2
100
AcDbLine
 10
5.3785098178728958
 20
-4.0500000000004093
 30
0.0
 11
6.0503819837548178
 21
-4.0500000000004093
 31
0.0
  0
LINE
  5
1B8
100
AcDbEntity
  8
0
  6
CONTINUOUS
 62
               2
100
AcDbLine
 10
6.2141671468368429
 20
-6.0564304454292142
 30
0.0
 11
5.7577367014076231
 21
-5.6000000000001364
 31
0.0
  0
LINE
  5
1B9
100
AcDbEntity
  8
0
  6
CONTINUOUS
 62
               2
100
AcDbLine
 10
5.9490042585853189
 20
-5.5084248447030859
 30
0.0
 11
6.3642470450652695
 21
-5.9236676311830934
 31
0.0
  0
ARC
  5
1BA
100
AcDbEntity
  8
0
  6
CONTINUOUS
 62
               2
100
AcDbCircle
 10
6.0326255880378881
 20
-5.7000000000002728
 30
0.0
 40
0.4
100
AcDbArc
 50
270.0
 51
296.99121616424958
  0
LINE
  5
1BB
100
AcDbEntity
  8
0
  6
CONTINUOUS
 62
               2
100
AcDbLine
 10
6.6291450226436268
 20
-3.4712369611111171
 30
0.0
 11
6.4418033399919636
 21
-3.658578643762894
 31
0.0
  0
LINE
  5
1BC
100
AcDbEntity
  8
0
  6
CONTINUOUS
 62
               2
100
AcDbLine
 10
6.1374705035605643
 20
-3.3542458073316084
 30
0.0
 11
6.4418033399919636
 21
-3.658578643762894
 31
0.0
  0
LINE
  5
1BD
100
AcDbEntity
  8
0
  6
CONTINUOUS
 62
               2
100
AcDbLine
 10
6.050381983754562
 20
-3.5500000000004093
 30
0.0
 11
5.4222541496358758
 21
-3.5500000000004093
 31
0.0
  0
LINE
  5
1BE
100
AcDbEntity
  8
0
  6
CONTINUOUS
 62
               2
100
AcDbLine
 10
6.050381983754562
 20
-3.5500000000004093
 30
0.0
 11
6.3003819837546757
 21
-3.8000000000004093
 31
0.0
  0
LINE
  5
1BF
100
AcDbEntity
  8
0
  6
CONTINUOUS
 62
               2
100
AcDbLine
 10
6.6291450226436268
 20
-3.4712369611111171
 30
0.0
 11
6.7635603886731985
 21
-1.9348622970990164
 31
0.0
  0
LINE
  5
1C0
100
AcDbEntity
  8
0
  6
CONTINUOUS
 62
               2
100
AcDbLine
 10
6.2380154494869089
 20
-2.2050118166149559
 30
0.0
 11
6.1374705035605643
 21
-3.3542458073316084
 31
0.0
  0
LINE
  5
1C1
100
AcDbEntity
  8
0
  6
CONTINUOUS
 62
               2
100
AcDbLine
 10
8.7148796578960912
 20
1.2000000000003865
 30
0.0
 11
6.4977223703704396
 21
1.2000000000003865
 31
0.0
  0
CIRCLE
  5
1C2
100
AcDbEntity
  8
0
  6
CONTINUOUS
 62
               2
100
AcDbCircle
 10
6.9700000000000273
 20
-5.9000000000000909
 30
0.0
 40
0.3
  0
ARC
  5
1C3
100
AcDbEntity
  8
0
  6
CONTINUOUS
 62
               2
100
AcDbCircle
 10
9.2981354271246346
 20
0.8000000000004093
 30
0.0
 40
0.5
100
AcDbArc
 50
323.09629462179902
 51
355.00000000000028
  0
ARC
  5
1C4
100
AcDbEntity
  8
0
  6
CONTINUOUS
 62
               2
100
AcDbCircle
 10
9.2981354271246346
 20
0.8000000000004093
 30
0.0
 40
0.5
100
AcDbArc
 50
270.0
 51
299.9796088757509
  0
LINE
  5
1C5
100
AcDbEntity
  8
0
  6
CONTINUOUS
 62
               2
100
AcDbLine
 10
8.9369222764748883
 20
1.2608000938961368
 30
0.0
 11
9.6979583406289578
 21
0.4997640297420958
 31
0.0
  0
LINE
  5
1C6
100
AcDbEntity
  8
0
  6
CONTINUOUS
 62
               2
100
AcDbLine
 10
11.600000000000023
 20
-1.2000000000000455
 30
0.0
 11
11.600000000000023
 21
-6.5
 31
0.0
  0
ARC
  5
1C7
100
AcDbEntity
  8
0
  6
CONTINUOUS
 62
               2
100
AcDbCircle
 10
10.065082509436479
 20
-1.9000000000000909
 30
0.0
 40
0.4
100
AcDbArc
 50
355.00000000000671
 51
26.665453187573981
  0
ARC
  5
1C8
100
AcDbEntity
  8
0
  6
CONTINUOUS
 62
               2
100
AcDbCircle
 10
10.065082509436479
 20
-1.9000000000000909
 30
0.0
 40
0.4
100
AcDbArc
 50
55.686503041629202
 51
89.999999999996732
  0
LINE
  5
1C9
100
AcDbEntity
  8
0
  6
CONTINUOUS
 62
               2
100
AcDbLine
 10
9.8601845536268229
 20
-2.0000000000002274
 30
0.0
 11
10.290570763144729
 21
-1.5696137904822081
 31
0.0
  0
LINE
  5
1CA
100
AcDbEntity
  8
0
  6
CONTINUOUS
 62
               2
100
AcDbLine
 10
10.422539367569698
 20
-1.7204878985319283
 30
0.0
 11
9.9380154494868975
 21
-2.2050118166149559
 31
0.0
  0
LINE
  5
1CB
100
AcDbEntity
  8
0
  6
CONTINUOUS
 62
               2
100
AcDbLine
 10
10.000381983754664
 20
-3.8000000000004093
 30
0.0
 11
9.750381983754778
 21
-4.0500000000004093
 31
0.0
  0
LINE
  5
1CC
100
AcDbEntity
  8
0
  6
CONTINUOUS
 62
               2
100
AcDbLine
 10
10.141803339991952
 20
-3.9414213562374698
 30
0.0
 11
10.27624692843122
 21
-4.0758649446767095
 31
0.0
  0
LINE
  5
1CD
100
AcDbEntity
  8
0
  6
CONTINUOUS
 62
               2
100
AcDbLine
 10
10.131103467274556
 20
-5.7348622970991983
 30
0.0
 11
10.27624692843122
 21
-4.0758649446767095
 31
0.0
  0
ARC
  5
1CE
100
AcDbEntity
  8
0
  6
CONTINUOUS
 62
               2
100
AcDbCircle
 10
9.7326255880378767
 20
-5.7000000000002728
 30
0.0
 40
0.4
100
AcDbArc
 50
326.00164659378362
 51
355.00000000000671
  0
LINE
  5
1CF
100
AcDbEntity
  8
0
  6
CONTINUOUS
 62
               2
100
AcDbLine
 10
9.7519955357023491
 20
-4.331229160527073
 30
0.0
 11
9.6490042585853075
 21
-5.5084248447030859
 31
0.0
  0
LINE
  5
1D0
100
AcDbEntity
  8
0
  6
CONTINUOUS
 62
               2
100
AcDbLine
 10
10.141803339991952
 20
-3.9414213562374698
 30
0.0
 11
9.7519955357023491
 21
-4.331229160527073
 31
0.0
  0
LINE
  5
1D1
100
AcDbEntity
  8
0
  6
CONTINUOUS
 62
               2
100
AcDbLine
 10
9.6490042585853075
 20
-5.5084248447030859
 30
0.0
 11
10.064247045065258
 21
-5.9236676311830934
 31
0.0
  0
ARC
  5
1D2
100
AcDbEntity
  8
0
  6
CONTINUOUS
 62
               2
100
AcDbCircle
 10
9.7326255880378767
 20
-5.7000000000002728
 30
0.0
 40
0.4
100
AcDbArc
 50
270.0
 51
296.99121616424958
  0
LINE
  5
1D3
100
AcDbEntity
  8
0
  6
CONTINUOUS
 62
               2
100
AcDbLine
 10
10.329145022643615
 20
-3.4712369611111171
 30
0.0
 11
10.141803339991952
 21
-3.658578643762894
 31
0.0
  0
LINE
  5
1D4
100
AcDbEntity
  8
0
  6
CONTINUOUS
 62
               2
100
AcDbLine
 10
9.837470503560553
 20
-3.3542458073316084
 30
0.0
 11
10.141803339991952
 21
-3.658578643762894
 31
0.0
  0
LINE
  5
1D5
100
AcDbEntity
  8
0
  6
CONTINUOUS
 62
               2
100
AcDbLine
 10
9.7503819837545791
 20
-3.5500000000004093
 30
0.0
 11
10.000381983754664
 21
-3.8000000000004093
 31
0.0
  0
LINE
  5
1D6
100
AcDbEntity
  8
0
  6
CONTINUOUS
 62
               2
100
AcDbLine
 10
10.329145022643615
 20
-3.4712369611111171
 30
0.0
 11
10.463560388673159
 21
-1.9348622970990164
 31
0.0
  0
LINE
  5
1D7
100
AcDbEntity
  8
0
  6
CONTINUOUS
 62
               2
100
AcDbLine
 10
9.9380154494868975
 20
-2.2050118166149559
 30
0.0
 11
9.837470503560553
 21
-3.3542458073316084
 31
0.0
  0
LINE
  5
1D8
100
AcDbEntity
  8
0
  6
CONTINUOUS
 62
               2
100
AcDbLine
 10
9.1222541496358645
 20
-3.5500000000004093
 30
0.0
 11
9.0785098178728845
 21
-4.0500000000004093
 31
0.0
  0
LINE
  5
1D9
100
AcDbEntity
  8
0
  6
CONTINUOUS
 62
               2
100
AcDbLine
 10
9.0785098178728845
 20
-4.0500000000004093
 30
0.0
 11
9.750381983754778
 21
-4.0500000000004093
 31
0.0
  0
LINE
  5
1DA
100
AcDbEntity
  8
0
  6
CONTINUOUS
 62
               2
100
AcDbLine
 10
9.9141671468368315
 20
-6.0564304454292142
 30
0.0
 11
9.4577367014076401
 21
-5.6000000000001364
 31
0.0
  0
LINE
  5
1DB
100
AcDbEntity
  8
0
  6
CONTINUOUS
 62
               2
100
AcDbLine
 10
9.7503819837545791
 20
-3.5500000000004093
 30
0.0
 11
9.1222541496358645
 21
-3.5500000000004093
 31
0.0
  0
LINE
  5
1DC
100
AcDbEntity
  8
0
  6
CONTINUOUS
 62
               2
100
AcDbLine
 10
4.3980447353320073
 20
9.3000000000006438
 30
0.0
 11
1.1018645728753427
 21
9.3000000000004164
 31
0.0
  0
LINE
  5
1DD
100
AcDbEntity
  8
0
  6
CONTINUOUS
 62
               2
100
AcDbLine
 10
1.2500000000000568
 20
5.2500000000003411
 30
0.0
 11
2.3389879148323871
 21
5.2500000000003411
 31
0.0
  0
LINE
  5
1DE
100
AcDbEntity
  8
0
  6
CONTINUOUS
 62
               2
100
AcDbLine
 10
2.2602481176591027
 20
4.3500000000005912
 30
0.0
 11
1.25
 21
4.3500000000005912
 31
0.0
  0
LINE
  5
1DF
100
AcDbEntity
  8
0
  6
CONTINUOUS
 62
               2
100
AcDbLine
 10
1.6851203421039997
 20
8.4000000000003254
 30
0.0
 11
3.9022776296294523
 21
8.4000000000003254
 31
0.0
  0
ARC
  5
1E0
100
AcDbEntity
  8
0
  6
CONTINUOUS
 62
               2
100
AcDbCircle
 10
1.1018645728753427
 20
8.8000000000004164
 30
0.0
 40
0.5
100
AcDbArc
 50
143.096294621807
 51
175.00000000000011
  0
ARC
  5
1E1
100
AcDbEntity
  8
0
  6
CONTINUOUS
 62
               2
100
AcDbCircle
 10
1.1018645728753427
 20
8.8000000000004164
 30
0.0
 40
0.5
100
AcDbArc
 50
90.0
 51
119.97960887575078
  0
LINE
  5
1E2
100
AcDbEntity
  8
0
  6
CONTINUOUS
 62
               2
100
AcDbLine
 10
0.8520186945720809
 20
9.2331016475323011
 30
0.0
 11
1.6851203421039997
 21
8.4000000000003254
 31
0.0
  0
LINE
  5
1E3
100
AcDbEntity
  8
0
  6
CONTINUOUS
 62
               2
100
AcDbLine
 10
1.4630777235251458
 20
8.3391999061045752
 30
0.0
 11
0.7020416593710195
 21
9.1002359702586162
 31
0.0
  0
ARC
  5
1E4
100
AcDbEntity
  8
0
  6
CONTINUOUS
 62
               2
100
AcDbCircle
 10
-1.2019552646679585
 20
8.8000000000004164
 30
0.0
 40
0.5
100
AcDbArc
 50
355.00000000000028
 51
29.658901664421379
  0
ARC
  5
1E5
100
AcDbEntity
  8
0
  6
CONTINUOUS
 62
               2
100
AcDbCircle
 10
-1.2019552646679585
 20
8.8000000000004164
 30
0.0
 40
0.5
100
AcDbArc
 50
52.783782654485918
 51
90.0
  0
LINE
  5
1E6
100
AcDbEntity
  8
0
  6
CONTINUOUS
 62
               2
100
AcDbLine
 10
-0.76746192262965
 20
9.0474177352668974
 30
0.0
 11
-1.6599166215611092
 21
8.1549630363351824
 31
0.0
  0
LINE
  5
1E7
100
AcDbEntity
  8
0
  6
CONTINUOUS
 62
               2
100
AcDbLine
 10
0.6585786437627235
 20
4.9414213562378109
 30
0.0
 11
0.2942476014262638
 21
5.3057523985742137
 31
0.0
  0
LINE
  5
1E8
100
AcDbEntity
  8
0
  6
CONTINUOUS
 62
               2
100
AcDbLine
 10
0.6585786437627235
 20
4.9414213562378109
 30
0.0
 11
1.2144423960284598
 21
5.4972851085032062
 31
0.0
  0
LINE
  5
1E9
100
AcDbEntity
  8
0
  6
CONTINUOUS
 62
               2
100
AcDbLine
 10
0.8000000000000682
 20
4.8000000000004093
 30
0.0
 11
1.2500000000000568
 21
5.2500000000003411
 31
0.0
  0
LINE
  5
1EA
100
AcDbEntity
  8
0
  6
CONTINUOUS
 62
               2
100
AcDbLine
 10
1.25
 20
4.3500000000005912
 30
0.0
 11
0.8000000000000682
 21
4.8000000000004093
 31
0.0
  0
LINE
  5
1EB
100
AcDbEntity
  8
0
  6
CONTINUOUS
 62
               2
100
AcDbLine
 10
1.1022489648957503
 20
4.2149083226302082
 30
0.0
 11
0.6585786437627235
 21
4.6585786437630077
 31
0.0
  0
LINE
  5
1EC
100
AcDbEntity
  8
0
  6
CONTINUOUS
 62
               2
100
AcDbLine
 10
0.1972677620366312
 20
4.1972677620373133
 30
0.0
 11
0.6585786437627235
 21
4.6585786437630077
 31
0.0
  0
LINE
  5
1ED
100
AcDbEntity
  8
0
  6
CONTINUOUS
 62
               2
100
AcDbLine
 10
-1.4585786437627348
 20
4.9414213562378109
 30
0.0
 11
-0.9972677620365857
 21
5.4027322379638463
 31
0.0
  0
LINE
  5
1EE
100
AcDbEntity
  8
0
  6
CONTINUOUS
 62
               2
100
AcDbLine
 10
-1.0942476014262184
 20
4.2942476014267186
 30
0.0
 11
-1.4585786437627348
 21
4.6585786437630077
 31
0.0
  0
LINE
  5
1EF
100
AcDbEntity
  8
0
  6
CONTINUOUS
 62
               2
100
AcDbLine
 10
1.2144423960284598
 20
5.4972851085032062
 30
0.0
 11
1.4630777235251458
 21
8.3391999061045752
 31
0.0
  0
LINE
  5
1F0
100
AcDbEntity
  8
0
  6
CONTINUOUS
 62
               2
100
AcDbLine
 10
0.6037672238294931
 20
8.84357787137413
 30
0.0
 11
0.2942476014262638
 21
5.3057523985742137
 31
0.0
  0
LINE
  5
1F1
100
AcDbEntity
  8
0
  6
CONTINUOUS
 62
               2
100
AcDbLine
 10
-0.9972677620365857
 20
5.4027322379638463
 30
0.0
 11
-0.7038579156220521
 21
8.7564221286268165
 31
0.0
  0
ARC
  5
1F2
100
AcDbEntity
  8
0
  6
CONTINUOUS
 62
               2
100
AcDbCircle
 10
4.3980447353320073
 20
8.8000000000004164
 30
0.0
 40
0.5
100
AcDbArc
 50
355.00000000000028
 51
29.658901664421379
  0
ARC
  5
1F3
100
AcDbEntity
  8
0
  6
CONTINUOUS
 62
               2
100
AcDbCircle
 10
4.3980447353320073
 20
8.8000000000004164
 30
0.0
 40
0.5
100
AcDbArc
 50
52.783782654485918
 51
90.0
  0
LINE
  5
1F4
100
AcDbEntity
  8
0
  6
CONTINUOUS
 62
               2
100
AcDbLine
 10
4.8325380773704012
 20
9.0474177352668974
 30
0.0
 11
3.9400833784388283
 21
8.1549630363351824
 31
0.0
  0
LINE
  5
1F5
100
AcDbEntity
  8
0
  6
CONTINUOUS
 62
               2
100
AcDbLine
 10
3.9022776296294523
 20
8.4000000000003254
 30
0.0
 11
4.7004570079858468
 21
9.1981793783568335
 31
0.0
  0
LINE
  5
1F6
100
AcDbEntity
  8
0
  6
CONTINUOUS
 62
               2
100
AcDbLine
 10
4.1414213562373163
 20
4.9414213562378109
 30
0.0
 11
3.6977510351042611
 21
5.3850916773709514
 31
0.0
  0
LINE
  5
1F7
100
AcDbEntity
  8
0
  6
CONTINUOUS
 62
               2
100
AcDbLine
 10
4.1414213562373163
 20
4.9414213562378109
 30
0.0
 11
4.6027322379634654
 21
5.4027322379638463
 31
0.0
  0
LINE
  5
1F8
100
AcDbEntity
  8
0
  6
CONTINUOUS
 62
               2
100
AcDbLine
 10
4.0
 20
4.8000000000004093
 30
0.0
 11
3.5500000000000398
 21
5.2500000000003411
 31
0.0
  0
LINE
  5
1F9
100
AcDbEntity
  8
0
  6
CONTINUOUS
 62
               2
100
AcDbLine
 10
3.5500000000000398
 20
4.3500000000005912
 30
0.0
 11
4.0
 21
4.8000000000004093
 31
0.0
  0
LINE
  5
1FA
100
AcDbEntity
  8
0
  6
CONTINUOUS
 62
               2
100
AcDbLine
 10
4.5057523985738328
 20
4.2942476014267186
 30
0.0
 11
4.1414213562373163
 21
4.6585786437630077
 31
0.0
  0
LINE
  5
1FB
100
AcDbEntity
  8
0
  6
CONTINUOUS
 62
               2
100
AcDbLine
 10
3.5855576039715515
 20
4.1027148914974987
 30
0.0
 11
4.1414213562373163
 21
4.6585786437630077
 31
0.0
  0
LINE
  5
1FC
100
AcDbEntity
  8
0
  6
CONTINUOUS
 62
               2
100
AcDbLine
 10
2.2602481176591027
 20
4.3500000000005912
 30
0.0
 11
2.3389879148323871
 21
5.2500000000003411
 31
0.0
  0
LINE
  5
1FD
100
AcDbEntity
  8
0
  6
CONTINUOUS
 62
               2
100
AcDbLine
 10
2.5397518823411076
 20
5.2500000000003411
 30
0.0
 11
2.4610120851678232
 21
4.3500000000005912
 31
0.0
  0
LINE
  5
1FE
100
AcDbEntity
  8
0
  6
CONTINUOUS
 62
               2
100
AcDbLine
 10
3.5500000000000398
 20
5.2500000000003411
 30
0.0
 11
2.5397518823411076
 21
5.2500000000003411
 31
0.0
  0
LINE
  5
1FF
100
AcDbEntity
  8
0
  6
CONTINUOUS
 62
               2
100
AcDbLine
 10
2.4610120851678232
 20
4.3500000000005912
 30
0.0
 11
3.5500000000000398
 21
4.3500000000005912
 31
0.0
  0
LINE
  5
200
100
AcDbEntity
  8
0
  6
CONTINUOUS
 62
               2
100
AcDbLine
 10
3.9400833784388283
 20
8.1549630363351824
 30
0.0
 11
3.6977510351042611
 21
5.3850916773709514
 31
0.0
  0
LINE
  5
201
100
AcDbEntity
  8
0
  6
CONTINUOUS
 62
               2
100
AcDbLine
 10
4.6027322379634654
 20
5.4027322379638463
 30
0.0
 11
4.8961420843779138
 21
8.7564221286268165
 31
0.0
  0
LINE
  5
202
100
AcDbEntity
  8
0
  6
CONTINUOUS
 62
               2
100
AcDbLine
 10
7.2851203421039372
 20
8.4000000000003254
 30
0.0
 11
9.5022776296293898
 21
8.4000000000003254
 31
0.0
  0
LINE
  5
203
100
AcDbEntity
  8
0
  6
CONTINUOUS
 62
               2
100
AcDbLine
 10
11.100000000000136
 20
12.100000000000371
 30
0.0
 11
7.3000000000000682
 21
12.100000000000371
 31
0.0
  0
LINE
  5
204
100
AcDbEntity
  8
0
  6
CONTINUOUS
 62
               2
100
AcDbLine
 10
7.3000000000000682
 20
10.050000000000416
 30
0.0
 11
11.100000000000136
 21
10.050000000000416
 31
0.0
  0
LINE
  5
205
100
AcDbEntity
  8
0
  6
CONTINUOUS
 62
               2
100
AcDbLine
 10
9.1500000000000057
 20
5.2500000000003411
 30
0.0
 11
8.1397518823409882
 21
5.2500000000003411
 31
0.0
  0
LINE
  5
206
100
AcDbEntity
  8
0
  6
CONTINUOUS
 62
               2
100
AcDbLine
 10
8.0610120851677323
 20
4.3500000000005912
 30
0.0
 11
9.1500000000000057
 21
4.3500000000005912
 31
0.0
  0
LINE
  5
207
100
AcDbEntity
  8
0
  6
CONTINUOUS
 62
               2
100
AcDbLine
 10
9.9980447353319732
 20
9.3000000000006438
 30
0.0
 11
6.7018645728752801
 21
9.3000000000004164
 31
0.0
  0
LINE
  5
208
100
AcDbEntity
  8
0
  6
CONTINUOUS
 62
               2
100
AcDbLine
 10
7.3000000000000682
 20
12.100000000000371
 30
0.0
 11
7.3000000000000682
 21
10.050000000000416
 31
0.0
  0
LINE
  5
209
100
AcDbEntity
  8
0
  6
CONTINUOUS
 62
               2
100
AcDbLine
 10
7.8602481176590686
 20
4.3500000000005912
 30
0.0
 11
7.938987914832353
 21
5.2500000000003411
 31
0.0
  0
LINE
  5
20A
100
AcDbEntity
  8
0
  6
CONTINUOUS
 62
               2
100
AcDbLine
 10
8.1397518823409882
 20
5.2500000000003411
 30
0.0
 11
8.0610120851677323
 21
4.3500000000005912
 31
0.0
  0
ARC
  5
20B
100
AcDbEntity
  8
0
  6
CONTINUOUS
 62
               2
100
AcDbCircle
 10
6.7018645728752801
 20
8.8000000000004164
 30
0.0
 40
0.5
100
AcDbArc
 50
90.0
 51
119.97960887575078
  0
ARC
  5
20C
100
AcDbEntity
  8
0
  6
CONTINUOUS
 62
               2
100
AcDbCircle
 10
6.7018645728752801
 20
8.8000000000004164
 30
0.0
 40
0.5
100
AcDbArc
 50
143.096294621807
 51
175.00000000000011
  0
LINE
  5
20D
100
AcDbEntity
  8
0
  6
CONTINUOUS
 62
               2
100
AcDbLine
 10
7.0630777235251401
 20
8.3391999061045752
 30
0.0
 11
6.3020416593709569
 21
9.1002359702586162
 31
0.0
  0
LINE
  5
20E
100
AcDbEntity
  8
0
  6
CONTINUOUS
 62
               2
100
AcDbLine
 10
5.7972677620365687
 20
4.1972677620373133
 30
0.0
 11
6.2585786437627178
 21
4.6585786437630077
 31
0.0
  0
LINE
  5
20F
100
AcDbEntity
  8
0
  6
CONTINUOUS
 62
               2
100
AcDbLine
 10
6.2585786437627178
 20
4.9414213562378109
 30
0.0
 11
5.8942476014261729
 21
5.3057523985742137
 31
0.0
  0
LINE
  5
210
100
AcDbEntity
  8
0
  6
CONTINUOUS
 62
               2
100
AcDbLine
 10
6.2585786437627178
 20
4.9414213562378109
 30
0.0
 11
6.8144423960284257
 21
5.4972851085032062
 31
0.0
  0
LINE
  5
211
100
AcDbEntity
  8
0
  6
CONTINUOUS
 62
               2
100
AcDbLine
 10
6.3999999999999773
 20
4.8000000000004093
 30
0.0
 11
6.8500000000000227
 21
5.2500000000003411
 31
0.0
  0
LINE
  5
212
100
AcDbEntity
  8
0
  6
CONTINUOUS
 62
               2
100
AcDbLine
 10
6.8499999999999091
 20
4.3500000000005912
 30
0.0
 11
6.3999999999999773
 21
4.8000000000004093
 31
0.0
  0
LINE
  5
213
100
AcDbEntity
  8
0
  6
CONTINUOUS
 62
               2
100
AcDbLine
 10
6.7022489648957162
 20
4.2149083226302082
 30
0.0
 11
6.2585786437627178
 21
4.6585786437630077
 31
0.0
  0
LINE
  5
214
100
AcDbEntity
  8
0
  6
CONTINUOUS
 62
               2
100
AcDbLine
 10
6.8144423960284257
 20
5.4972851085032062
 30
0.0
 11
7.0630777235251401
 21
8.3391999061045752
 31
0.0
  0
LINE
  5
215
100
AcDbEntity
  8
0
  6
CONTINUOUS
 62
               2
100
AcDbLine
 10
6.203767223829459
 20
8.84357787137413
 30
0.0
 11
5.8942476014261729
 21
5.3057523985742137
 31
0.0
  0
LINE
  5
216
100
AcDbEntity
  8
0
  6
CONTINUOUS
 62
               2
100
AcDbLine
 10
6.8500000000000227
 20
5.2500000000003411
 30
0.0
 11
7.938987914832353
 21
5.2500000000003411
 31
0.0
  0
LINE
  5
217
100
AcDbEntity
  8
0
  6
CONTINUOUS
 62
               2
100
AcDbLine
 10
7.8602481176590686
 20
4.3500000000005912
 30
0.0
 11
6.8499999999999091
 21
4.3500000000005912
 31
0.0
  0
LINE
  5
218
100
AcDbEntity
  8
0
  6
CONTINUOUS
 62
               2
100
AcDbLine
 10
6.4520186945719615
 20
9.2331016475323011
 30
0.0
 11
7.2851203421039372
 21
8.4000000000003254
 31
0.0
  0
LINE
  5
219
100
AcDbEntity
  8
0
  6
CONTINUOUS
 62
               2
100
AcDbLine
 10
11.100000000000136
 20
10.050000000000416
 30
0.0
 11
11.100000000000136
 21
12.100000000000371
 31
0.0
  0
ARC
  5
21A
100
AcDbEntity
  8
0
  6
CONTINUOUS
 62
               2
100
AcDbCircle
 10
9.9980447353319732
 20
8.8000000000004164
 30
0.0
 40
0.5
100
AcDbArc
 50
355.00000000000028
 51
29.658901664421379
  0
ARC
  5
21B
100
AcDbEntity
  8
0
  6
CONTINUOUS
 62
               2
100
AcDbCircle
 10
9.9980447353319732
 20
8.8000000000004164
 30
0.0
 40
0.5
100
AcDbArc
 50
52.783782654485918
 51
90.0
  0
LINE
  5
21C
100
AcDbEntity
  8
0
  6
CONTINUOUS
 62
               2
100
AcDbLine
 10
10.432538077370282
 20
9.0474177352668974
 30
0.0
 11
9.5400833784388226
 21
8.1549630363351824
 31
0.0
  0
LINE
  5
21D
100
AcDbEntity
  8
0
  6
CONTINUOUS
 62
               2
100
AcDbLine
 10
9.5022776296293898
 20
8.4000000000003254
 30
0.0
 11
10.300457007985756
 21
9.1981793783568335
 31
0.0
  0
LINE
  5
21E
100
AcDbEntity
  8
0
  6
CONTINUOUS
 62
               2
100
AcDbLine
 10
9.741421356237197
 20
4.9414213562378109
 30
0.0
 11
10.202732237963346
 21
5.4027322379638463
 31
0.0
  0
LINE
  5
21F
100
AcDbEntity
  8
0
  6
CONTINUOUS
 62
               2
100
AcDbLine
 10
10.105752398573713
 20
4.2942476014267186
 30
0.0
 11
9.741421356237197
 21
4.6585786437630077
 31
0.0
  0
LINE
  5
220
100
AcDbEntity
  8
0
  6
CONTINUOUS
 62
               2
100
AcDbLine
 10
9.5999999999999375
 20
4.8000000000004093
 30
0.0
 11
9.1500000000000057
 21
5.2500000000003411
 31
0.0
  0
LINE
  5
221
100
AcDbEntity
  8
0
  6
CONTINUOUS
 62
               2
100
AcDbLine
 10
9.1500000000000057
 20
4.3500000000005912
 30
0.0
 11
9.5999999999999375
 21
4.8000000000004093
 31
0.0
  0
LINE
  5
222
100
AcDbEntity
  8
0
  6
CONTINUOUS
 62
               2
100
AcDbLine
 10
9.741421356237197
 20
4.9414213562378109
 30
0.0
 11
9.2977510351041701
 21
5.3850916773709514
 31
0.0
  0
LINE
  5
223
100
AcDbEntity
  8
0
  6
CONTINUOUS
 62
               2
100
AcDbLine
 10
9.1855576039714606
 20
4.1027148914974987
 30
0.0
 11
9.741421356237197
 21
4.6585786437630077
 31
0.0
  0
LINE
  5
224
100
AcDbEntity
  8
0
  6
CONTINUOUS
 62
               2
100
AcDbLine
 10
9.5400833784388226
 20
8.1549630363351824
 30
0.0
 11
9.2977510351041701
 21
5.3850916773709514
 31
0.0
  0
LINE
  5
225
100
AcDbEntity
  8
0
  6
CONTINUOUS
 62
               2
100
AcDbLine
 10
10.202732237963346
 20
5.4027322379638463
 30
0.0
 11
10.49614208437788
 21
8.7564221286268165
 31
0.0
  0
LINE
  5
226
100
AcDbEntity
  8
0
  6
CONTINUOUS
 62
               7
100
AcDbLine
 10
15.0
 20
-13.500000000000227
 30
0.0
 11
15.0
 21
13.500000000000007
 31
0.0
  0
LINE
  5
227
100
AcDbEntity
  8
0
  6
CONTINUOUS
 62
               7
100
AcDbLine
 10
12.800000000000068
 20
-6.8999999999994088
 30
0.0
 11
12.800000000000068
 21
11.700000000000394
 31
0.0
  0
ARC
  5
228
100
AcDbEntity
  8
0
  6
CONTINUOUS
 62
               7
100
AcDbCircle
 10
13.5
 20
-13.500000000000227
 30
0.0
 40
1.5
100
AcDbArc
 50
270.0
 51
0.0
  0
ARC
  5
229
100
AcDbEntity
  8
0
  6
CONTINUOUS
 62
               7
100
AcDbCircle
 10
13.5
 20
13.500000000000007
 30
0.0
 40
1.5
100
AcDbArc
 50
0.0
 51
90.0
  0
LINE
  5
22B
100
AcDbEntity
  8
0
  6
CENTER
 62
               2
100
AcDbLine
 10
0.0
 20
22.250000000000405
 30
0.0
 11
0.0
 21
-22.249999999999602
 31
0.0
  0
LINE
  5
22C
100
AcDbEntity
  8
0
  6
CENTER
 62
               2
100
AcDbLine
 10
24.650416619811047
 20
0.0
 30
0.0
 11
-24.649583380188901
 21
0.0
 31
0.0
  0
ENDBLK
  5
22D
100
AcDbEntity
  8
0
100
AcDbBlockEnd
  0
BLOCK
  5
22E
100
AcDbEntity
  8
0
100
AcDbBlockBegin
  2
MS_2
 70
               0
 10
0.0
 20
0.0
 30
0.0
  3
MS_2
  1

  0
LINE
  5
22F
100
AcDbEntity
  8
0
  6
CENTER
 62
               2
100
AcDbLine
 10
31.329999999999444
 20
-7.0
 30
0.0
 11
31.329999999999444
 21
7.0
 31
0.0
  0
LINE
  5
230
100
AcDbEntity
  8
0
  6
CONTINUOUS
 62
               7
100
AcDbLine
 10
-2.0000000000003695
 20
5.0
 30
0.0
 11
-2.0000000000003126
 21
-4.9999999999998863
 31
0.0
  0
LINE
  5
231
100
AcDbEntity
  8
0
  6
CONTINUOUS
 62
               7
100
AcDbLine
 10
-2.0000000000003126
 20
-4.9999999999998863
 30
0.0
 11
-2.0000000000003126
 21
-5.2000000000000455
 31
0.0
  0
LINE
  5
232
100
AcDbEntity
  8
0
  6
CONTINUOUS
 62
               7
100
AcDbLine
 10
-4.999999999999801
 20
-5.0
 30
0.0
 11
-4.999999999999801
 21
5.0
 31
0.0
  0
LINE
  5
233
100
AcDbEntity
  8
0
  6
CONTINUOUS
 62
               7
100
AcDbLine
 10
-4.999999999999801
 20
5.0
 30
0.0
 11
-4.999999999999801
 21
16.592551765137621
 31
0.0
  0
LINE
  5
234
100
AcDbEntity
  8
0
  6
CONTINUOUS
 62
               7
100
AcDbLine
 10
35.2999999999995
 20
3.9399376456203754
 30
0.0
 11
34.500390339509067
 21
4.7649254596586843
 31
0.0
  0
LINE
  5
235
100
AcDbEntity
  8
0
  6
CONTINUOUS
 62
               7
100
AcDbLine
 10
35.2999999999995
 20
-3.9399376456206028
 30
0.0
 11
34.500390339509067
 21
-4.764925459658798
 31
0.0
  0
LINE
  5
236
100
AcDbEntity
  8
0
  6
CONTINUOUS
 62
               7
100
AcDbLine
 10
34.500390339509067
 20
4.7649254596586843
 30
0.0
 11
34.500390339509067
 21
-4.764925459658798
 31
0.0
  0
LINE
  5
237
100
AcDbEntity
  8
0
  6
CONTINUOUS
 62
               7
100
AcDbLine
 10
35.2999999999995
 20
3.9399376456203754
 30
0.0
 11
35.299999999999386
 21
-3.9399377590020777
 31
0.0
  0
LINE
  5
238
100
AcDbEntity
  8
0
  6
CONTINUOUS
 62
               7
100
AcDbLine
 10
27.2999999999995
 20
4.4089379929387178
 30
0.0
 11
27.629496010896759
 21
4.9796410118133281
 31
0.0
  0
LINE
  5
239
100
AcDbEntity
  8
0
  6
CONTINUOUS
 62
               7
100
AcDbLine
 10
25.799999999999471
 20
5.0717954481250445
 30
0.0
 11
25.26410168137491
 21
6.0
 31
0.0
  0
LINE
  5
23A
100
AcDbEntity
  8
0
  6
CONTINUOUS
 62
               7
100
AcDbLine
 10
27.2999999999995
 20
4.1999999999999318
 30
0.0
 11
25.799999999999471
 21
4.1999999999999318
 31
0.0
  0
ARC
  5
23B
100
AcDbEntity
  8
0
  6
CONTINUOUS
 62
               7
100
AcDbCircle
 10
17.999999999999638
 20
14.700000000000166
 30
0.0
 40
0.3
100
AcDbArc
 50
0.0
 51
90.0
  0
ARC
  5
23C
100
AcDbEntity
  8
0
  6
CONTINUOUS
 62
               7
100
AcDbCircle
 10
17.300000000001496
 20
4.7999999999998408
 30
0.0
 40
0.2
100
AcDbArc
 50
0.0
 51
90.0
  0
ARC
  5
23D
100
AcDbEntity
  8
0
  6
CONTINUOUS
 62
               7
100
AcDbCircle
 10
16.799999999999365
 20
5.8000000000010914
 30
0.0
 40
0.3
100
AcDbArc
 50
0.0
 51
90.0
  0
LINE
  5
23E
100
AcDbEntity
  8
0
  6
CONTINUOUS
 62
               7
100
AcDbLine
 10
16.799999999999592
 20
5.0
 30
0.0
 11
16.799999999999592
 21
5.7000000000010687
 31
0.0
  0
LINE
  5
23F
100
AcDbEntity
  8
0
  6
CONTINUOUS
 62
               7
100
AcDbLine
 10
17.099999999999319
 20
5.8000000000010914
 30
0.0
 11
17.099999999999319
 21
4.9999999999997726
 31
0.0
  0
LINE
  5
240
100
AcDbEntity
  8
0
  6
CONTINUOUS
 62
               7
100
AcDbLine
 10
18.299999999999535
 20
6.0
 30
0.0
 11
25.26410168137491
 21
6.0
 31
0.0
  0
LINE
  5
241
100
AcDbEntity
  8
0
  6
CONTINUOUS
 62
               7
100
AcDbLine
 10
27.2999999999995
 20
-4.4089379929389452
 30
0.0
 11
27.629496010896759
 21
-4.9796410118135555
 31
0.0
  0
ARC
  5
242
100
AcDbEntity
  8
0
  6
CONTINUOUS
 62
               7
100
AcDbCircle
 10
17.134933069118667
 20
-2.9999995683078851
 30
0.0
 40
8.6650669308808954
100
AcDbArc
 50
339.74384730590378
 51
20.256146608812859
  0
LINE
  5
243
100
AcDbEntity
  8
0
  6
CONTINUOUS
 62
               7
100
AcDbLine
 10
25.799999999999471
 20
-5.0717954481252718
 30
0.0
 11
25.26410168137491
 21
-6.0
 31
0.0
  0
LINE
  5
244
100
AcDbEntity
  8
0
  6
CONTINUOUS
 62
               7
100
AcDbLine
 10
27.2999999999995
 20
-4.2000000000000455
 30
0.0
 11
25.799999999999471
 21
-4.2000000000000455
 31
0.0
  0
ARC
  5
245
100
AcDbEntity
  8
0
  6
CONTINUOUS
 62
               7
100
AcDbCircle
 10
17.300000000001468
 20
-4.7999999999997272
 30
0.0
 40
0.2
100
AcDbArc
 50
270.0
 51
0.0
  0
ARC
  5
246
100
AcDbEntity
  8
0
  6
CONTINUOUS
 62
               7
100
AcDbCircle
 10
16.799999999999365
 20
-5.8000000000010914
 30
0.0
 40
0.3
100
AcDbArc
 50
270.0
 51
0.0
  0
LINE
  5
247
100
AcDbEntity
  8
0
  6
CONTINUOUS
 62
               7
100
AcDbLine
 10
16.799999999999592
 20
-5.7000000000011823
 30
0.0
 11
16.799999999999621
 21
-4.9999999999997726
 31
0.0
  0
LINE
  5
248
100
AcDbEntity
  8
0
  6
CONTINUOUS
 62
               7
100
AcDbLine
 10
17.099999999999319
 20
-4.9999999999998863
 30
0.0
 11
17.099999999999319
 21
-5.8000000000010914
 31
0.0
  0
ARC
  5
249
100
AcDbEntity
  8
0
  6
CONTINUOUS
 62
               7
100
AcDbCircle
 10
17.999999999999638
 20
-14.700000000000273
 30
0.0
 40
0.3
100
AcDbArc
 50
270.0
 51
0.0
  0
LINE
  5
24A
100
AcDbEntity
  8
0
  6
CONTINUOUS
 62
               7
100
AcDbLine
 10
18.299999999999535
 20
-6.0
 30
0.0
 11
25.26410168137491
 21
-6.0
 31
0.0
  0
LINE
  5
24B
100
AcDbEntity
  8
0
  6
CONTINUOUS
 62
               7
100
AcDbLine
 10
25.264101999999667
 20
-0.0000000000005684
 30
0.0
 11
18.299999999999535
 21
0.0
 31
0.0
  0
LINE
  5
24C
100
AcDbEntity
  8
0
  6
CONTINUOUS
 62
               7
100
AcDbLine
 10
18.299999999999592
 20
-14.700000000000273
 30
0.0
 11
18.299999999999478
 21
14.700000000000166
 31
0.0
  0
LINE
  5
24D
100
AcDbEntity
  8
0
  6
CONTINUOUS
 62
               7
100
AcDbLine
 10
17.500000000001485
 20
4.7999999999998408
 30
0.0
 11
17.500000000001457
 21
-4.7999999999997272
 31
0.0
  0
LINE
  5
24E
100
AcDbEntity
  8
0
  6
CONTINUOUS
 62
               7
100
AcDbLine
 10
25.799999999999471
 20
5.0717954481250445
 30
0.0
 11
25.799999999999471
 21
-5.0717954481252718
 31
0.0
  0
LINE
  5
24F
100
AcDbEntity
  8
0
  6
CONTINUOUS
 62
               7
100
AcDbLine
 10
27.2999999999995
 20
-4.4089379929389452
 30
0.0
 11
27.2999999999995
 21
4.4089379929387178
 31
0.0
  0
LINE
  5
250
100
AcDbEntity
  8
0
  6
CONTINUOUS
 62
               7
100
AcDbLine
 10
27.629496010896759
 20
4.9796410118133281
 30
0.0
 11
27.629496010896759
 21
-4.9796410118135555
 31
0.0
  0
ARC
  5
251
100
AcDbEntity
  8
0
  6
CONTINUOUS
 62
               7
100
AcDbCircle
 10
17.13493306911861
 20
2.9999995683078851
 30
0.0
 40
8.6650669308808954
100
AcDbArc
 50
339.74385339118709
 51
20.256152694096176
  0
LINE
  5
252
100
AcDbEntity
  8
0
  6
CONTINUOUS
 62
               2
100
AcDbLine
 10
35.081106442969826
 20
-4.165778485275041
 30
0.0
 11
27.2999999999995
 21
-4.4089379929389452
 31
0.0
  0
LINE
  5
253
100
AcDbEntity
  8
0
  6
CONTINUOUS
 62
               7
100
AcDbLine
 10
27.629496010896759
 20
-4.9796410118135555
 30
0.0
 11
34.500390339509067
 21
-4.764925459658798
 31
0.0
  0
LINE
  5
254
100
AcDbEntity
  8
0
  6
CONTINUOUS
 62
               2
100
AcDbLine
 10
35.081106442969826
 20
4.1657784852748136
 30
0.0
 11
27.2999999999995
 21
4.4089379929387178
 31
0.0
  0
LINE
  5
255
100
AcDbEntity
  8
0
  6
CONTINUOUS
 62
               7
100
AcDbLine
 10
27.629496010896759
 20
4.9796410118133281
 30
0.0
 11
34.500390339509067
 21
4.7649254596586843
 31
0.0
  0
LINE
  5
256
100
AcDbEntity
  8
0
  6
CONTINUOUS
 62
               7
100
AcDbLine
 10
14.999999999999524
 20
13.999999999999325
 30
0.0
 11
15.299999999999592
 21
13.999999999999325
 31
0.0
  0
LINE
  5
257
100
AcDbEntity
  8
0
  6
CONTINUOUS
 62
               7
100
AcDbLine
 10
14.999999999999751
 20
15.000000000000348
 30
0.0
 11
11.500000000002096
 21
15.000000000000256
 31
0.0
  0
ARC
  5
258
100
AcDbEntity
  8
0
  6
CONTINUOUS
 62
               7
100
AcDbCircle
 10
16.200000000001587
 20
4.7999999999998408
 30
0.0
 40
0.2
100
AcDbArc
 50
90.0
 51
180.0
  0
LINE
  5
259
100
AcDbEntity
  8
0
  6
CONTINUOUS
 62
               7
100
AcDbLine
 10
15.299999999999365
 20
7.0
 30
0.0
 11
15.299999999999365
 21
6.3999999999999773
 31
0.0
  0
ARC
  5
25A
100
AcDbEntity
  8
0
  6
CONTINUOUS
 62
               7
100
AcDbCircle
 10
15.599999999999319
 20
6.3999999999999773
 30
0.0
 40
0.3
100
AcDbArc
 50
179.99999999999341
 51
269.99999999999829
  0
ARC
  5
25B
100
AcDbEntity
  8
0
  6
CONTINUOUS
 62
               7
100
AcDbCircle
 10
15.300000000000047
 20
6.3000000000001819
 30
0.0
 40
0.3
100
AcDbArc
 50
180.0
 51
270.0
  0
LINE
  5
25C
100
AcDbEntity
  8
0
  6
CONTINUOUS
 62
               7
100
AcDbLine
 10
15.799999999999365
 20
7.0
 30
0.0
 11
15.799999999999365
 21
9.5000000000000071
 31
0.0
  0
LINE
  5
25D
100
AcDbEntity
  8
0
  6
CONTINUOUS
 62
               7
100
AcDbLine
 10
15.299999999999933
 20
6.0000000000002274
 30
0.0
 11
16.499999999999751
 21
6.0000000000002274
 31
0.0
  0
LINE
  5
25E
100
AcDbEntity
  8
0
  6
CONTINUOUS
 62
               7
100
AcDbLine
 10
16.099999999999433
 20
7.0
 30
0.0
 11
14.999999999999979
 21
7.0
 31
0.0
  0
LINE
  5
25F
100
AcDbEntity
  8
0
  6
CONTINUOUS
 62
               7
100
AcDbLine
 10
16.099999999999433
 20
9.5000000000000071
 30
0.0
 11
14.999999999999865
 21
9.5000000000000071
 31
0.0
  0
LINE
  5
260
100
AcDbEntity
  8
0
  6
CONTINUOUS
 62
               7
100
AcDbLine
 10
11.900000000001576
 20
11.800000000000189
 30
0.0
 11
11.900000000001576
 21
6.2000000000000455
 31
0.0
  0
LINE
  5
261
100
AcDbEntity
  8
0
  6
CONTINUOUS
 62
               7
100
AcDbLine
 10
11.500000000001911
 20
11.800000000000189
 30
0.0
 11
11.900000000001576
 21
11.800000000000189
 31
0.0
  0
LINE
  5
262
100
AcDbEntity
  8
0
  6
CONTINUOUS
 62
               7
100
AcDbLine
 10
11.500000000002196
 20
16.699999999999939
 30
0.0
 11
11.500000000001599
 21
6.7000000000000455
 31
0.0
  0
LINE
  5
263
100
AcDbEntity
  8
0
  6
CONTINUOUS
 62
               7
100
AcDbLine
 10
15.299999999999592
 20
15.000000000000234
 30
0.0
 11
15.299999999999478
 21
9.5000000000000071
 31
0.0
  0
LINE
  5
264
100
AcDbEntity
  8
0
  6
CONTINUOUS
 62
               7
100
AcDbLine
 10
14.999999999999751
 20
15.000000000000348
 30
0.0
 11
14.999999999999979
 21
6.3000000000001819
 31
0.0
  0
LINE
  5
265
100
AcDbEntity
  8
0
  6
CONTINUOUS
 62
               7
100
AcDbLine
 10
8.3000000000020933
 20
12.000000000000234
 30
0.0
 11
8.3000000000018375
 21
8.3000000000000753
 31
0.0
  0
LINE
  5
266
100
AcDbEntity
  8
0
  6
CONTINUOUS
 62
               7
100
AcDbLine
 10
8.3000000000020933
 20
12.000000000000234
 30
0.0
 11
9.9000000000020876
 21
12.000000000000234
 31
0.0
  0
LINE
  5
267
100
AcDbEntity
  8
0
  6
CONTINUOUS
 62
               7
100
AcDbLine
 10
5.5000000000018261
 20
16.199999999999939
 30
0.0
 11
5.5000000000018261
 21
13.199999999999939
 31
0.0
  0
LINE
  5
268
100
AcDbEntity
  8
0
  6
CONTINUOUS
 62
               7
100
AcDbLine
 10
9.9000000000017749
 20
6.7000000000001592
 30
0.0
 11
11.500000000001599
 21
6.7000000000000455
 31
0.0
  0
LINE
  5
269
100
AcDbEntity
  8
0
  6
CONTINUOUS
 62
               7
100
AcDbLine
 10
9.900000000001036
 20
6.2000000000000455
 30
0.0
 11
11.900000000001576
 21
6.2000000000000455
 31
0.0
  0
ARC
  5
26A
100
AcDbEntity
  8
0
  6
CONTINUOUS
 62
               7
100
AcDbCircle
 10
16.200000000001559
 20
-4.7999999999997272
 30
0.0
 40
0.2
100
AcDbArc
 50
180.0
 51
270.0
  0
ARC
  5
26B
100
AcDbEntity
  8
0
  6
CONTINUOUS
 62
               7
100
AcDbCircle
 10
15.599999999999319
 20
-6.4000000000003183
 30
0.0
 40
0.3
100
AcDbArc
 50
90.0
 51
180.0
  0
LINE
  5
26C
100
AcDbEntity
  8
0
  6
CONTINUOUS
 62
               7
100
AcDbLine
 10
15.299999999999365
 20
-7.0
 30
0.0
 11
15.299999999999365
 21
-6.4000000000003183
 31
0.0
  0
ARC
  5
26D
100
AcDbEntity
  8
0
  6
CONTINUOUS
 62
               7
100
AcDbCircle
 10
15.300000000000047
 20
-6.3000000000001819
 30
0.0
 40
0.3
100
AcDbArc
 50
90.0
 51
180.0
  0
LINE
  5
26E
100
AcDbEntity
  8
0
  6
CONTINUOUS
 62
               7
100
AcDbLine
 10
15.299999999999933
 20
-6.0000000000002274
 30
0.0
 11
16.499999999999751
 21
-6.0000000000002274
 31
0.0
  0
LINE
  5
26F
100
AcDbEntity
  8
0
  6
CONTINUOUS
 62
               7
100
AcDbLine
 10
16.099999999999433
 20
-7.0
 30
0.0
 11
14.999999999999979
 21
-7.0
 31
0.0
  0
LINE
  5
270
100
AcDbEntity
  8
0
  6
CONTINUOUS
 62
               7
100
AcDbLine
 10
11.447520555254279
 20
2.0000000000001137
 30
0.0
 11
11.447520555254279
 21
-1.9999999999998863
 31
0.0
  0
LINE
  5
271
100
AcDbEntity
  8
0
  6
CONTINUOUS
 62
               7
100
AcDbLine
 10
15.299999999999592
 20
-15.000000000000341
 30
0.0
 11
15.299999999999478
 21
-9.5
 31
0.0
  0
LINE
  5
272
100
AcDbEntity
  8
0
  6
CONTINUOUS
 62
               7
100
AcDbLine
 10
14.999999999999524
 20
-13.999999999999318
 30
0.0
 11
15.299999999999592
 21
-13.999999999999318
 31
0.0
  0
LINE
  5
273
100
AcDbEntity
  8
0
  6
CONTINUOUS
 62
               7
100
AcDbLine
 10
16.099999999999433
 20
-9.5
 30
0.0
 11
14.999999999999865
 21
-9.5
 31
0.0
  0
LINE
  5
274
100
AcDbEntity
  8
0
  6
CONTINUOUS
 62
               7
100
AcDbLine
 10
11.500000000002252
 20
-16.700000000000045
 30
0.0
 11
11.500000000001997
 21
-11.800000000000182
 31
0.0
  0
LINE
  5
275
100
AcDbEntity
  8
0
  6
CONTINUOUS
 62
               7
100
AcDbLine
 10
14.999999999999751
 20
-15.000000000001251
 30
0.0
 11
11.50000000000216
 21
-15.000000000000966
 31
0.0
  0
LINE
  5
276
100
AcDbEntity
  8
0
  6
CONTINUOUS
 62
               7
100
AcDbLine
 10
11.900000000001576
 20
-11.800000000000068
 30
0.0
 11
11.900000000001576
 21
-6.1999999999998181
 31
0.0
  0
LINE
  5
277
100
AcDbEntity
  8
0
  6
CONTINUOUS
 62
               7
100
AcDbLine
 10
14.999999999999751
 20
-15.000000000001251
 30
0.0
 11
14.999999999999979
 21
-6.3000000000001819
 31
0.0
  0
LINE
  5
278
100
AcDbEntity
  8
0
  6
CONTINUOUS
 62
               7
100
AcDbLine
 10
15.799999999999365
 20
-7.0
 30
0.0
 11
15.799999999999365
 21
-9.5
 31
0.0
  0
LINE
  5
279
100
AcDbEntity
  8
0
  6
CONTINUOUS
 62
               7
100
AcDbLine
 10
5.5000000000018261
 20
-16.199999999999704
 30
0.0
 11
5.5000000000018261
 21
-13.199999999999818
 31
0.0
  0
LINE
  5
27A
100
AcDbEntity
  8
0
  6
CONTINUOUS
 62
               7
100
AcDbLine
 10
9.9000000000011497
 20
-11.800000000000068
 30
0.0
 11
11.900000000001576
 21
-11.800000000000068
 31
0.0
  0
LINE
  5
27B
100
AcDbEntity
  8
0
  6
CONTINUOUS
 62
               7
100
AcDbLine
 10
9.900000000001036
 20
-6.1999999999999318
 30
0.0
 11
11.900000000001576
 21
-6.1999999999998181
 31
0.0
  0
LINE
  5
27C
100
AcDbEntity
  8
0
  6
CONTINUOUS
 62
               7
100
AcDbLine
 10
9.9000000000014055
 20
2.0000000000001137
 30
0.0
 11
11.447520555254279
 21
2.0000000000001137
 31
0.0
  0
LINE
  5
27D
100
AcDbEntity
  8
0
  6
CONTINUOUS
 62
               7
100
AcDbLine
 10
11.447520555254279
 20
-1.9999999999998863
 30
0.0
 11
9.9000000000011781
 21
-1.9999999999998863
 31
0.0
  0
LINE
  5
27E
100
AcDbEntity
  8
0
  6
CONTINUOUS
 62
               7
100
AcDbLine
 10
9.9000000000020876
 20
12.000000000000234
 30
0.0
 11
9.9000000000005812
 21
-11.999999999999886
 31
0.0
  0
LINE
  5
27F
100
AcDbEntity
  8
0
  6
CONTINUOUS
 62
               7
100
AcDbLine
 10
16.000000000001599
 20
4.7999999999998408
 30
0.0
 11
16.00000000000157
 21
-4.7999999999997272
 31
0.0
  0
LINE
  5
280
100
AcDbEntity
  8
0
  6
CONTINUOUS
 62
               7
100
AcDbLine
 10
1.5000000000022453
 20
16.699999999999939
 30
0.0
 11
1.5000000000021885
 21
16.199999999999939
 31
0.0
  0
LINE
  5
281
100
AcDbEntity
  8
0
  6
CONTINUOUS
 62
               7
100
AcDbLine
 10
-1.7000000000003581
 20
5.5
 30
0.0
 11
-0.0000000000003695
 21
5.5
 31
0.0
  0
ARC
  5
282
100
AcDbEntity
  8
0
  6
CONTINUOUS
 62
               7
100
AcDbCircle
 10
-1.7000000000003581
 20
5.1999999999999318
 30
0.0
 40
0.3
100
AcDbArc
 50
90.0
 51
180.0
  0
LINE
  5
283
100
AcDbEntity
  8
0
  6
CONTINUOUS
 62
               7
100
AcDbLine
 10
1.0000000000021316
 20
16.199999999999939
 30
0.0
 11
1.0000000000019611
 21
13.199999999999939
 31
0.0
  0
ARC
  5
284
100
AcDbEntity
  8
0
  6
CONTINUOUS
 62
               7
100
AcDbCircle
 10
-4.499999999999801
 20
16.592551765137621
 30
0.0
 40
0.5
100
AcDbArc
 50
91.999999999997215
 51
180.0
  0
ARC
  5
285
100
AcDbEntity
  8
0
  6
CONTINUOUS
 62
               7
100
AcDbCircle
 10
-6.4000000000005173
 20
14.199999999999825
 30
0.0
 40
0.8
100
AcDbArc
 50
90.000000000001606
 51
180.0
  0
LINE
  5
286
100
AcDbEntity
  8
0
  6
CONTINUOUS
 62
               7
100
AcDbLine
 10
-4.999999999999801
 20
14.999999999999893
 30
0.0
 11
-6.4000000000005741
 21
14.99999999999978
 31
0.0
  0
LINE
  5
287
100
AcDbEntity
  8
0
  6
CONTINUOUS
 62
               7
100
AcDbLine
 10
-4.5174497483510265
 20
17.09224717864732
 30
0.0
 11
0.0000000000003126
 21
17.250000000000007
 31
0.0
  0
LINE
  5
288
100
AcDbEntity
  8
0
  6
CONTINUOUS
 62
               7
100
AcDbLine
 10
-1.7000000000003581
 20
-5.5
 30
0.0
 11
-0.0000000000003126
 21
-5.5
 31
0.0
  0
ARC
  5
289
100
AcDbEntity
  8
0
  6
CONTINUOUS
 62
               7
100
AcDbCircle
 10
-1.7000000000003581
 20
-5.2000000000000455
 30
0.0
 40
0.3
100
AcDbArc
 50
180.0
 51
270.0
  0
LINE
  5
28A
100
AcDbEntity
  8
0
  6
CONTINUOUS
 62
               7
100
AcDbLine
 10
1.0000000000004832
 20
-13.199999999999818
 30
0.0
 11
1.0000000000003126
 21
-16.199999999999704
 31
0.0
  0
LINE
  5
28B
100
AcDbEntity
  8
0
  6
CONTINUOUS
 62
               7
100
AcDbLine
 10
1.5000000000003126
 20
-16.199999999999591
 30
0.0
 11
1.5000000000002558
 21
-16.700000000000045
 31
0.0
  0
ARC
  5
28C
100
AcDbEntity
  8
0
  6
CONTINUOUS
 62
               7
100
AcDbCircle
 10
-4.499999999999801
 20
-16.592551765137955
 30
0.0
 40
0.5
100
AcDbArc
 50
180.0
 51
268.00000000000267
  0
LINE
  5
28D
100
AcDbEntity
  8
0
  6
CONTINUOUS
 62
               7
100
AcDbLine
 10
-8.700000000000415
 20
-9.9000000000000909
 30
0.0
 11
-8.700000000000415
 21
-12.500000000000682
 31
0.0
  0
LINE
  5
28E
100
AcDbEntity
  8
0
  6
CONTINUOUS
 62
               7
100
AcDbLine
 10
-8.4000000000003467
 20
-12.80000000000075
 30
0.0
 11
-7.2000000000004718
 21
-12.800000000000409
 31
0.0
  0
ARC
  5
28F
100
AcDbEntity
  8
0
  6
CONTINUOUS
 62
               7
100
AcDbCircle
 10
-6.8357142857153974
 20
-12.800000000000409
 30
0.0
 40
1.0642857142852959
100
AcDbArc
 50
180.0000000000195
 51
249.98404039715442
  0
ARC
  5
290
100
AcDbEntity
  8
0
  6
CONTINUOUS
 62
               7
100
AcDbCircle
 10
-8.4000000000004036
 20
-12.500000000000682
 30
0.0
 40
0.3
100
AcDbArc
 50
180.0
 51
270.00000000000972
  0
ARC
  5
291
100
AcDbEntity
  8
0
  6
CONTINUOUS
 62
               7
100
AcDbCircle
 10
-6.4000000000004036
 20
-14.199999999999818
 30
0.0
 40
0.8
100
AcDbArc
 50
180.0
 51
269.9999999999967
  0
LINE
  5
292
100
AcDbEntity
  8
0
  6
CONTINUOUS
 62
               7
100
AcDbLine
 10
-8.4000000000003467
 20
-9.5999999999999091
 30
0.0
 11
-7.2000000000004718
 21
-9.6000000000002501
 31
0.0
  0
ARC
  5
293
100
AcDbEntity
  8
0
  6
CONTINUOUS
 62
               7
100
AcDbCircle
 10
-8.4000000000004036
 20
-9.9000000000000909
 30
0.0
 40
0.3
100
AcDbArc
 50
89.999999999990223
 51
180.0
  0
LINE
  5
294
100
AcDbEntity
  8
0
  6
CONTINUOUS
 62
               7
100
AcDbLine
 10
-7.9000000000007446
 20
-8.7999999999994998
 30
0.0
 11
-7.9000000000007446
 21
-9.6000000000002501
 31
0.0
  0
LINE
  5
295
100
AcDbEntity
  8
0
  6
CONTINUOUS
 62
               7
100
AcDbLine
 10
-4.999999999999801
 20
-15.0
 30
0.0
 11
-6.4000000000004604
 21
-15.0
 31
0.0
  0
ARC
  5
296
100
AcDbEntity
  8
0
  6
CONTINUOUS
 62
               7
100
AcDbCircle
 10
-6.8357142857154543
 20
-8.8000000000000682
 30
0.0
 40
1.0642857142852959
100
AcDbArc
 50
110.015959602847
 51
179.99999999997391
  0
LINE
  5
297
100
AcDbEntity
  8
0
  6
CONTINUOUS
 62
               7
100
AcDbLine
 10
-4.5174497483510265
 20
-17.092247178647426
 30
0.0
 11
-0.0000000000017337
 21
-17.25
 31
0.0
  0
LINE
  5
298
100
AcDbEntity
  8
0
  6
CONTINUOUS
 62
               7
100
AcDbLine
 10
-7.2000000000005286
 20
14.199999999999825
 30
0.0
 11
-7.200000000000415
 21
-14.199999999999818
 31
0.0
  0
LINE
  5
299
100
AcDbEntity
  8
0
  6
CONTINUOUS
 62
               7
100
AcDbLine
 10
-4.999999999999801
 20
-16.592551765137955
 30
0.0
 11
-4.999999999999801
 21
-5.0
 31
0.0
  0
LINE
  5
29A
100
AcDbEntity
  8
0
  6
CONTINUOUS
 62
               7
100
AcDbLine
 10
1.5000000000019611
 20
13.199999999999939
 30
0.0
 11
1.5000000000004832
 21
-13.199999999999591
 31
0.0
  0
LINE
  5
29B
100
AcDbEntity
  8
0
  6
CONTINUOUS
 62
               7
100
AcDbLine
 10
-2.0000000000003695
 20
5.1999999999999318
 30
0.0
 11
-2.0000000000003695
 21
5.0
 31
0.0
  0
LINE
  5
29C
100
AcDbEntity
  8
0
  6
CONTINUOUS
 62
               7
100
AcDbLine
 10
1.5000000000002558
 20
-16.700000000000045
 30
0.0
 11
11.500000000002252
 21
-16.700000000000045
 31
0.0
  0
LINE
  5
29D
100
AcDbEntity
  8
0
  6
CONTINUOUS
 62
               7
100
AcDbLine
 10
9.9000000000005812
 20
-11.999999999999886
 30
0.0
 11
1.5000000000005969
 21
-11.999999999999886
 31
0.0
  0
LINE
  5
29E
100
AcDbEntity
  8
0
  6
CONTINUOUS
 62
               7
100
AcDbLine
 10
5.5000000000018261
 20
-13.199999999999818
 30
0.0
 11
1.0000000000004832
 21
-13.199999999999818
 31
0.0
  0
LINE
  5
29F
100
AcDbEntity
  8
0
  6
CONTINUOUS
 62
               7
100
AcDbLine
 10
1.0000000000003126
 20
-16.199999999999704
 30
0.0
 11
5.5000000000018261
 21
-16.199999999999704
 31
0.0
  0
LINE
  5
2A0
100
AcDbEntity
  8
0
  6
CONTINUOUS
 62
               7
100
AcDbLine
 10
1.5000000000022453
 20
16.699999999999939
 30
0.0
 11
11.500000000002196
 21
16.699999999999939
 31
0.0
  0
LINE
  5
2A1
100
AcDbEntity
  8
0
  6
CONTINUOUS
 62
               7
100
AcDbLine
 10
1.5000000000017337
 20
8.3000000000000753
 30
0.0
 11
8.3000000000018375
 21
8.3000000000000753
 31
0.0
  0
LINE
  5
2A2
100
AcDbEntity
  8
0
  6
CONTINUOUS
 62
               7
100
AcDbLine
 10
5.5000000000018261
 20
13.199999999999939
 30
0.0
 11
1.0000000000019611
 21
13.199999999999939
 31
0.0
  0
LINE
  5
2A3
100
AcDbEntity
  8
0
  6
CONTINUOUS
 62
               7
100
AcDbLine
 10
1.0000000000021316
 20
16.199999999999939
 30
0.0
 11
5.5000000000018261
 21
16.199999999999939
 31
0.0
  0
LINE
  5
2A4
100
AcDbEntity
  8
0
  6
CONTINUOUS
 62
               7
100
AcDbLine
 10
17.999999999999524
 20
-15.000000000000341
 30
0.0
 11
15.299999999999592
 21
-15.000000000000341
 31
0.0
  0
LINE
  5
2A5
100
AcDbEntity
  8
0
  6
CONTINUOUS
 62
               7
100
AcDbLine
 10
17.999999999999524
 20
15.000000000000234
 30
0.0
 11
15.299999999999592
 21
15.000000000000234
 31
0.0
  0
LINE
  5
2A6
100
AcDbEntity
  8
0
  6
CONTINUOUS
 62
               7
100
AcDbLine
 10
17.300000000001468
 20
-4.9999999999997726
 30
0.0
 11
9.9000000000009507
 21
-4.9999999999997726
 31
0.0
  0
ARC
  5
2A7
100
AcDbEntity
  8
0
  6
CONTINUOUS
 62
               7
100
AcDbCircle
 10
16.499999999999638
 20
-5.7000000000011823
 30
0.0
 40
0.3
100
AcDbArc
 50
270.0
 51
0.0
  0
LINE
  5
2A8
100
AcDbEntity
  8
0
  6
CONTINUOUS
 62
               7
100
AcDbLine
 10
15.599999999999319
 20
-6.1000000000004775
 30
0.0
 11
16.799999999999478
 21
-6.1000000000001364
 31
0.0
  0
LINE
  5
2A9
100
AcDbEntity
  8
0
  6
CONTINUOUS
 62
               7
100
AcDbLine
 10
17.300000000001496
 20
5.0
 30
0.0
 11
9.9000000000015476
 21
5.0000000000001137
 31
0.0
  0
ARC
  5
2AA
100
AcDbEntity
  8
0
  6
CONTINUOUS
 62
               7
100
AcDbCircle
 10
16.499999999999638
 20
5.7000000000010687
 30
0.0
 40
0.3
100
AcDbArc
 50
0.0
 51
90.0
  0
LINE
  5
2AB
100
AcDbEntity
  8
0
  6
CONTINUOUS
 62
               7
100
AcDbLine
 10
15.599999999999319
 20
6.1000000000000227
 30
0.0
 11
16.799999999999478
 21
6.1000000000000227
 31
0.0
  0
ARC
  5
2AC
100
AcDbEntity
  8
0
  6
PHANTOM
 62
               2
100
AcDbCircle
 10
-9.5000000000028137
 20
14.762106474229434
 30
0.0
 40
1.5
100
AcDbArc
 50
92.9999999999973
 51
180.0
  0
ARC
  5
2AD
100
AcDbEntity
  8
0
  6
CONTINUOUS
 62
               7
100
AcDbCircle
 10
-10.000000000002814
 20
9.0000000000000071
 30
0.0
 40
1.0
100
AcDbArc
 50
90.0
 51
180.0
  0
ARC
  5
2AE
100
AcDbEntity
  8
0
  6
CONTINUOUS
 62
               7
100
AcDbCircle
 10
-9.2651232707527527
 20
9.7999999999998479
 30
0.0
 40
0.2
100
AcDbArc
 50
0.0
 51
90.0
  0
ARC
  5
2AF
100
AcDbEntity
  8
0
  6
PHANTOM
 62
               2
100
AcDbCircle
 10
-9.5000000000027001
 20
-14.758118924533278
 30
0.0
 40
1.5
100
AcDbArc
 50
180.0
 51
266.95024549624998
  0
ARC
  5
2B0
100
AcDbEntity
  8
0
  6
CONTINUOUS
 62
               7
100
AcDbCircle
 10
-10.0000000000027
 20
-9.0
 30
0.0
 40
1.0
100
AcDbArc
 50
180.0
 51
270.0
  0
ARC
  5
2B1
100
AcDbEntity
  8
0
  6
CONTINUOUS
 62
               7
100
AcDbCircle
 10
-9.2651232707527527
 20
-9.7999999999998408
 30
0.0
 40
0.2
100
AcDbArc
 50
270.0
 51
0.0
  0
LINE
  5
2B2
100
AcDbEntity
  8
0
  6
PHANTOM
 62
               2
100
AcDbLine
 10
-11.000000000002814
 20
14.762106474229434
 30
0.0
 11
-11.0000000000027
 21
-14.758118924533278
 31
0.0
  0
LINE
  5
2B3
100
AcDbEntity
  8
0
  6
CONTINUOUS
 62
               7
100
AcDbLine
 10
-9.0651232707527072
 20
9.7999999999998479
 30
0.0
 11
-9.065123270752764
 21
-9.7999999999998408
 31
0.0
  0
LINE
  5
2B4
100
AcDbEntity
  8
0
  6
PHANTOM
 62
               2
100
AcDbLine
 10
-5.0000000000008811
 20
-16.5
 30
0.0
 11
-9.5798046893398521
 21
-16.255994490646799
 31
0.0
  0
LINE
  5
2B5
100
AcDbEntity
  8
0
  6
CONTINUOUS
 62
               7
100
AcDbLine
 10
-10.0000000000027
 20
-10.0
 30
0.0
 11
-8.700000000000415
 21
-10.0
 31
0.0
  0
LINE
  5
2B6
100
AcDbEntity
  8
0
  6
CONTINUOUS
 62
               7
100
AcDbLine
 10
-10.000000000002814
 20
10.000000000000007
 30
0.0
 11
-7.2000000000005144
 21
10.000000000000007
 31
0.0
  0
LINE
  5
2B7
100
AcDbEntity
  8
0
  6
PHANTOM
 62
               2
100
AcDbLine
 10
-5.0000000000008811
 20
16.499999999999893
 30
0.0
 11
-9.5785039343672054
 21
16.260050776361375
 31
0.0
  0
LINE
  5
2B8
100
AcDbEntity
  8
0
  6
CONTINUOUS
 62
               7
100
AcDbLine
 10
1.5000000000022453
 20
16.699999999999939
 30
0.0
 11
1.5000000000021316
 21
23.416842608975919
 31
0.0
  0
LINE
  5
2B9
100
AcDbEntity
  8
0
  6
CONTINUOUS
 62
               7
100
AcDbLine
 10
1.5000000000002558
 20
-16.700000000000045
 30
0.0
 11
1.5000000000001421
 21
-22.571587498529453
 31
0.0
  0
LINE
  5
2BA
100
AcDbEntity
  8
0
  6
CONTINUOUS
 62
               2
100
AcDbLine
 10
2.5142914117019188
 20
-22.302777671287259
 30
0.0
 11
-1.3374666369965382
 21
-23.32357938931824
 31
0.0
  0
LINE
  5
2BB
100
AcDbEntity
  8
0
  6
CONTINUOUS
 62
               2
100
AcDbLine
 10
2.5142914117039084
 20
23.685652436218085
 30
0.0
 11
-1.3374666369945203
 21
22.664850718187132
 31
0.0
  0
LINE
  5
2BC
100
AcDbEntity
  8
0
  6
CONTINUOUS
 62
               7
100
AcDbLine
 10
-0.0000000000000853
 20
-22.969120925522361
 30
0.0
 11
0.0000000000000853
 21
22.968842608975827
 31
0.0
  0
LINE
  5
2BD
100
AcDbEntity
  8
0
  6
CENTER
 62
               2
100
AcDbLine
 10
-16.000000000002757
 20
0.0
 30
0.0
 11
40.299999999999443
 21
0.0
 31
0.0
  0
ENDBLK
  5
2BE
100
AcDbEntity
  8
0
100
AcDbBlockEnd
  0
BLOCK
  5
2BF
100
AcDbEntity
  8
0
100
AcDbBlockBegin
  2
MS_3
 70
               0
 10
0.0
 20
0.0
 30
0.0
  3
MS_3
  1

  0
LINE
  5
2C0
100
AcDbEntity
  8
0
  6
CENTER
 62
               2
100
AcDbLine
 10
-6.9999999999989644
 20
31.329999999999842
 30
0.0
 11
7.0000000000010356
 21
31.329999999999842
 31
0.0
  0
LINE
  5
2C1
100
AcDbEntity
  8
0
  6
CONTINUOUS
 62
               7
100
AcDbLine
 10
28.285119064650534
 20
0.0000000000000036
 30
0.0
 11
-29.670361847836546
 21
0.0000000000000036
 31
0.0
  0
LINE
  5
2C2
100
AcDbEntity
  8
0
  6
CONTINUOUS
 62
               7
100
AcDbLine
 10
-29.935384132498427
 20
1.0000000000000036
 30
0.0
 11
28.020096779988652
 21
0.9999999999998899
 31
0.0
  0
ARC
  5
2C3
100
AcDbEntity
  8
0
  6
CONTINUOUS
 62
               7
100
AcDbCircle
 10
22.40000000000035
 20
17.299999999998708
 30
0.0
 40
0.2
100
AcDbArc
 50
359.99999999999341
 51
89.999999999996689
  0
LINE
  5
2C4
100
AcDbEntity
  8
0
  6
CONTINUOUS
 62
               7
100
AcDbLine
 10
20.10000000000014
 20
17.499999999998753
 30
0.0
 11
22.400000000000322
 21
17.499999999998639
 31
0.0
  0
ARC
  5
2C5
100
AcDbEntity
  8
0
  6
CONTINUOUS
 62
               7
100
AcDbCircle
 10
14.700000000000298
 20
18.000000000000004
 30
0.0
 40
0.3
100
AcDbArc
 50
0.0
 51
90.0
  0
LINE
  5
2C6
100
AcDbEntity
  8
0
  6
CONTINUOUS
 62
               7
100
AcDbLine
 10
25.000000000000004
 20
2.1916079783085287
 30
0.0
 11
25.000000000000458
 21
9.8999999999987303
 31
0.0
  0
LINE
  5
2C7
100
AcDbEntity
  8
0
  6
CONTINUOUS
 62
               7
100
AcDbLine
 10
21.900000000000208
 20
14.499999999996025
 30
0.0
 11
21.900000000000208
 21
15.999999999998639
 31
0.0
  0
LINE
  5
2C8
100
AcDbEntity
  8
0
  6
CONTINUOUS
 62
               7
100
AcDbLine
 10
21.900000000000208
 20
15.999999999998639
 30
0.0
 11
22.400000000000208
 21
15.999999999998753
 31
0.0
  0
ARC
  5
2C9
100
AcDbEntity
  8
0
  6
CONTINUOUS
 62
               7
100
AcDbCircle
 10
22.400000000000237
 20
16.199999999998798
 30
0.0
 40
0.2
100
AcDbArc
 50
270.0
 51
0.0
  0
LINE
  5
2CA
100
AcDbEntity
  8
0
  6
CONTINUOUS
 62
               7
100
AcDbLine
 10
24.800000000000754
 20
9.8999999999987303
 30
0.0
 11
24.800000000000868
 21
11.899999999998276
 31
0.0
  0
LINE
  5
2CB
100
AcDbEntity
  8
0
  6
CONTINUOUS
 62
               7
100
AcDbLine
 10
20.300000000000185
 20
15.999999999998753
 30
0.0
 11
19.60000000000014
 21
15.999999999998753
 31
0.0
  0
LINE
  5
2CC
100
AcDbEntity
  8
0
  6
CONTINUOUS
 62
               7
100
AcDbLine
 10
20.300000000000072
 20
14.499999999996479
 30
0.0
 11
20.300000000000185
 21
16.999999999998526
 31
0.0
  0
LINE
  5
2CD
100
AcDbEntity
  8
0
  6
CONTINUOUS
 62
               7
100
AcDbLine
 10
19.600000000000254
 20
16.99999999999898
 30
0.0
 11
19.60000000000014
 21
15.999999999998753
 31
0.0
  0
LINE
  5
2CE
100
AcDbEntity
  8
0
  6
CONTINUOUS
 62
               7
100
AcDbLine
 10
19.200000000000617
 20
9.899999999999185
 30
0.0
 11
19.200000000000504
 21
9.9999999999965929
 31
0.0
  0
ARC
  5
2CF
100
AcDbEntity
  8
0
  6
CONTINUOUS
 62
               7
100
AcDbCircle
 10
16.800000000000207
 20
14.499999999996366
 30
0.0
 40
5.0999999999999988
100
AcDbArc
 50
295.58298737054957
 51
0.0
  0
LINE
  5
2D0
100
AcDbEntity
  8
0
  6
CONTINUOUS
 62
               7
100
AcDbLine
 10
21.187482193697637
 20
11.89999999999873
 30
0.0
 11
24.800000000000868
 21
11.899999999998276
 31
0.0
  0
LINE
  5
2D1
100
AcDbEntity
  8
0
  6
CONTINUOUS
 62
               7
100
AcDbLine
 10
24.899999999999924
 20
2.1999999999985711
 30
0.0
 11
24.813708498984685
 21
2.1999999999985711
 31
0.0
  0
LINE
  5
2D2
100
AcDbEntity
  8
0
  6
CONTINUOUS
 62
               7
100
AcDbLine
 10
18.785786437626829
 20
4.9142135623720868
 30
0.0
 11
19.156854249492486
 21
4.5431457505064863
 31
0.0
  0
ARC
  5
2D3
100
AcDbEntity
  8
0
  6
CONTINUOUS
 62
               7
100
AcDbCircle
 10
24.813708498985168
 20
10.199999999998571
 30
0.0
 40
8.0
100
AcDbArc
 50
224.9999999999994
 51
269.9999999999967
  0
ARC
  5
2D4
100
AcDbEntity
  8
0
  6
CONTINUOUS
 62
               7
100
AcDbCircle
 10
24.607387176871757
 20
9.9999999999984119
 30
0.0
 40
9.0
100
AcDbArc
 50
232.39405632150539
 51
269.9999999999967
  0
LINE
  5
2D5
100
AcDbEntity
  8
0
  6
CONTINUOUS
 62
               7
100
AcDbLine
 10
16.700000000000724
 20
10.999999999996593
 30
0.0
 11
16.799999999997905
 21
10.999999999996593
 31
0.0
  0
LINE
  5
2D6
100
AcDbEntity
  8
0
  6
CONTINUOUS
 62
               7
100
AcDbLine
 10
15.000000000000451
 20
15.000000000000231
 30
0.0
 11
15.000000000000338
 21
11.500000000000117
 31
0.0
  0
LINE
  5
2D7
100
AcDbEntity
  8
0
  6
CONTINUOUS
 62
               7
100
AcDbLine
 10
13.999999999999314
 20
15.000000000000004
 30
0.0
 11
13.999999999999314
 21
15.299999999999844
 31
0.0
  0
LINE
  5
2D8
100
AcDbEntity
  8
0
  6
CONTINUOUS
 62
               7
100
AcDbLine
 10
15.496871942266235
 20
5.4999999999990941
 30
0.0
 11
15.496871942266008
 21
1.4999999999990941
 31
0.0
  0
LINE
  5
2D9
100
AcDbEntity
  8
0
  6
CONTINUOUS
 62
               7
100
AcDbLine
 10
15.496871942266235
 20
5.4999999999990941
 30
0.0
 11
17.371572875253666
 21
5.4999999999990941
 31
0.0
  0
LINE
  5
2DA
100
AcDbEntity
  8
0
  6
PHANTOM
 62
               2
100
AcDbLine
 10
17.299998641001142
 20
-2.5000000559004967
 30
0.0
 11
17.167824261400714
 21
-2.3532052643176904
 31
0.0
  0
LINE
  5
2DB
100
AcDbEntity
  8
0
  6
PHANTOM
 62
               2
100
AcDbLine
 10
17.850108534051177
 20
-0.3000000678005073
 30
0.0
 11
18.21529501675116
 21
-0.3000000678005073
 31
0.0
  0
ARC
  5
2DC
100
AcDbEntity
  8
0
  6
PHANTOM
 62
               2
100
AcDbCircle
 10
17.850103278501141
 20
-1.2999857250003934
 30
0.0
 40
0.9999856572
100
AcDbArc
 50
89.999698874698765
 51
128.174359216526
  0
LINE
  5
2DD
100
AcDbEntity
  8
0
  6
CONTINUOUS
 62
               7
100
AcDbLine
 10
16.700000000000212
 20
1.4999999999988667
 30
0.0
 11
16.700000000000212
 21
1.6816233815915247
 31
0.0
  0
LINE
  5
2DE
100
AcDbEntity
  8
0
  6
CONTINUOUS
 62
               7
100
AcDbLine
 10
17.250000000000004
 20
0.0000000000000036
 30
0.0
 11
17.092247178649988
 21
-4.5174497483511651
 31
0.0
  0
ARC
  5
2DF
100
AcDbEntity
  8
0
  6
CONTINUOUS
 62
               7
100
AcDbCircle
 10
12.500000000054566
 20
4.4999999999993214
 30
0.0
 40
1.0
100
AcDbArc
 50
359.99999999999341
 51
89.999999999996689
  0
LINE
  5
2E0
100
AcDbEntity
  8
0
  6
CONTINUOUS
 62
               7
100
AcDbLine
 10
13.500000000054566
 20
4.4999999999993214
 30
0.0
 11
13.500000000054452
 21
1.4999999999993214
 31
0.0
  0
LINE
  5
2E1
100
AcDbEntity
  8
0
  6
CONTINUOUS
 62
               7
100
AcDbLine
 10
16.700000000000383
 20
5.4999999999990941
 30
0.0
 11
16.700000000000724
 21
11.500000000000231
 31
0.0
  0
ARC
  5
2E2
100
AcDbEntity
  8
0
  6
CONTINUOUS
 62
               7
100
AcDbCircle
 10
16.800000000000093
 20
14.499999999996593
 30
0.0
 40
3.5
100
AcDbArc
 50
269.99999999996407
 51
0.0
  0
ARC
  5
2E3
100
AcDbEntity
  8
0
  6
CONTINUOUS
 62
               7
100
AcDbCircle
 10
17.371572875253666
 20
3.4999999999988667
 30
0.0
 40
2.0
100
AcDbArc
 50
44.999999999999361
 51
90.0
  0
ARC
  5
2E4
100
AcDbEntity
  8
0
  6
CONTINUOUS
 62
               7
100
AcDbCircle
 10
18.20000000000022
 20
1.681623381591411
 30
0.0
 40
1.5
100
AcDbArc
 50
52.39405632150546
 51
179.99999999999349
  0
ARC
  5
2E5
100
AcDbEntity
  8
0
  6
PHANTOM
 62
               2
100
AcDbCircle
 10
18.65000000000089
 20
-10.000000067800666
 30
0.0
 40
1.0
100
AcDbArc
 50
270.0
 51
0.0
  0
ARC
  5
2E6
100
AcDbEntity
  8
0
  6
PHANTOM
 62
               2
100
AcDbCircle
 10
19.450000000000959
 20
-9.5000000678006664
 30
0.0
 40
0.2
100
AcDbArc
 50
0.0
 51
90.0
  0
LINE
  5
2E7
100
AcDbEntity
  8
0
  6
PHANTOM
 62
               2
100
AcDbLine
 10
19.65000000000089
 20
-10.000000067800666
 30
0.0
 11
19.65000000000089
 21
-9.5000000678006664
 31
0.0
  0
LINE
  5
2E8
100
AcDbEntity
  8
0
  6
PHANTOM
 62
               2
100
AcDbLine
 10
19.450000000000959
 20
-9.3000000678005073
 30
0.0
 11
18.797407952509619
 21
-9.3000000678005073
 31
0.0
  0
LINE
  5
2E9
100
AcDbEntity
  8
0
  6
CONTINUOUS
 62
               7
100
AcDbLine
 10
16.500000725525975
 20
-5.0000000000004512
 30
0.0
 11
16.260051499675907
 21
-9.5785040021506767
 31
0.0
  0
ARC
  5
2EA
100
AcDbEntity
  8
0
  6
PHANTOM
 62
               2
100
AcDbCircle
 10
16.998007723175991
 20
-5.0511180066505368
 30
0.0
 40
0.49999980205
100
AcDbArc
 50
177.00001065819569
 51
260.000019135304
  0
LINE
  5
2EB
100
AcDbEntity
  8
0
  6
PHANTOM
 62
               2
100
AcDbLine
 10
16.983735375126006
 20
-5.5563143641004409
 30
0.0
 11
17.931071828691419
 21
-5.7233554361102925
 31
0.0
  0
LINE
  5
2EC
100
AcDbEntity
  8
0
  6
CONTINUOUS
 62
               7
100
AcDbLine
 10
14.999999999999428
 20
-5.0000000000007923
 30
0.0
 11
14.999999999999428
 21
-6.3999999999999737
 31
0.0
  0
ARC
  5
2ED
100
AcDbEntity
  8
0
  6
CONTINUOUS
 62
               7
100
AcDbCircle
 10
14.19999999999936
 20
-6.3999999999999737
 30
0.0
 40
0.8
100
AcDbArc
 50
270.0
 51
359.99999999999341
  0
ARC
  5
2EE
100
AcDbEntity
  8
0
  6
CONTINUOUS
 62
               7
100
AcDbCircle
 10
14.762107197525889
 20
-9.5000000678006664
 30
0.0
 40
1.5
100
AcDbArc
 50
270.0
 51
357.00000000000091
  0
ARC
  5
2EF
100
AcDbEntity
  8
0
  6
PHANTOM
 62
               2
100
AcDbCircle
 10
18.797407952509847
 20
-8.3000000678016441
 30
0.0
 40
1.0
100
AcDbArc
 50
177.00000002192371
 51
269.99999999999511
  0
LINE
  5
2F0
100
AcDbEntity
  8
0
  6
PHANTOM
 62
               2
100
AcDbLine
 10
17.79877841773521
 20
-8.2476641119408178
 30
0.0
 11
18.215298563251398
 21
-0.3000000678014168
 31
0.0
  0
ARC
  5
2F1
100
AcDbEntity
  8
0
  6
CONTINUOUS
 62
               7
100
AcDbCircle
 10
16.592551765149832
 20
-4.5000000000009059
 30
0.0
 40
0.5
100
AcDbArc
 50
270.0
 51
357.99999999999631
  0
LINE
  5
2F2
100
AcDbEntity
  8
0
  6
PHANTOM
 62
               2
100
AcDbLine
 10
17.164703547951152
 20
-5.0815908424503924
 30
0.0
 11
17.299998641001142
 21
-2.5000000559004967
 31
0.0
  0
LINE
  5
2F3
100
AcDbEntity
  8
0
  6
CONTINUOUS
 62
               7
100
AcDbLine
 10
25.000000000000458
 20
9.8999999999987303
 30
0.0
 11
16.700000000000724
 21
9.8999999999988439
 31
0.0
  0
LINE
  5
2F4
100
AcDbEntity
  8
0
  6
CONTINUOUS
 62
               7
100
AcDbLine
 10
25.000000000000345
 20
8.299999999997457
 30
0.0
 11
16.700000000000497
 21
8.2999999999984801
 31
0.0
  0
ARC
  5
2F5
100
AcDbEntity
  8
0
  6
CONTINUOUS
 62
               7
100
AcDbCircle
 10
24.899999999999867
 20
1.5999999999985484
 30
0.0
 40
0.6
100
AcDbArc
 50
269.9999999999967
 51
89.999999999996689
  0
ARC
  5
2F6
100
AcDbEntity
  8
0
  6
CONTINUOUS
 62
               7
100
AcDbCircle
 10
20.100000000000282
 20
16.999999999998753
 30
0.0
 40
0.5
100
AcDbArc
 50
90.000000000013031
 51
180.0
  0
ARC
  5
2F7
100
AcDbEntity
  8
0
  6
CONTINUOUS
 62
               7
100
AcDbCircle
 10
20.800000000000214
 20
16.999999999998526
 30
0.0
 40
0.5
100
AcDbArc
 50
90.000000000006494
 51
179.99999999999349
  0
LINE
  5
2F8
100
AcDbEntity
  8
0
  6
CONTINUOUS
 62
               7
100
AcDbLine
 10
22.600000000000254
 20
17.299999999998708
 30
0.0
 11
22.600000000000254
 21
16.199999999998798
 31
0.0
  0
LINE
  5
2F9
100
AcDbEntity
  8
0
  6
CONTINUOUS
 62
               7
100
AcDbLine
 10
15.000000000000224
 20
18.000000000000004
 30
0.0
 11
15.000000000000224
 21
15.299999999999844
 31
0.0
  0
LINE
  5
2FA
100
AcDbEntity
  8
0
  6
CONTINUOUS
 62
               7
100
AcDbLine
 10
6.0000000000005969
 20
25.799999999999731
 30
0.0
 11
6.9282040000005907
 21
25.26410199999987
 31
0.0
  0
LINE
  5
2FB
100
AcDbEntity
  8
0
  6
CONTINUOUS
 62
               7
100
AcDbLine
 10
6.9282040000006475
 20
18.300000000000072
 30
0.0
 11
6.9282040000005907
 21
25.26410199999987
 31
0.0
  0
LINE
  5
2FC
100
AcDbEntity
  8
0
  6
CONTINUOUS
 62
               7
100
AcDbLine
 10
3.9399376456209723
 20
35.299999999999841
 30
0.0
 11
4.7649254596592812
 21
34.500390339509408
 31
0.0
  0
LINE
  5
2FD
100
AcDbEntity
  8
0
  6
CONTINUOUS
 62
               7
100
AcDbLine
 10
4.2000000000005286
 20
27.299999999999844
 30
0.0
 11
4.2000000000005855
 21
25.799999999999731
 31
0.0
  0
LINE
  5
2FE
100
AcDbEntity
  8
0
  6
CONTINUOUS
 62
               7
100
AcDbLine
 10
4.4089379929393147
 20
27.299999999999844
 30
0.0
 11
4.9796410118139249
 21
27.629496010897245
 31
0.0
  0
LINE
  5
2FF
100
AcDbEntity
  8
0
  6
CONTINUOUS
 62
               7
100
AcDbLine
 10
3.4641020000005653
 20
25.26410199999987
 30
0.0
 11
3.4641020000005653
 21
18.300000000000072
 31
0.0
  0
LINE
  5
300
100
AcDbEntity
  8
0
  6
CONTINUOUS
 62
               2
100
AcDbLine
 10
4.1657784852754105
 20
35.081106442970281
 30
0.0
 11
4.4089379929393147
 21
27.299999999999844
 31
0.0
  0
LINE
  5
301
100
AcDbEntity
  8
0
  6
CONTINUOUS
 62
               7
100
AcDbLine
 10
4.9796410118139249
 20
27.629496010897245
 30
0.0
 11
4.7649254596592812
 21
34.500390339509408
 31
0.0
  0
ARC
  5
302
100
AcDbEntity
  8
0
  6
CONTINUOUS
 62
               7
100
AcDbCircle
 10
5.196153000000578
 20
22.733012999999918
 30
0.0
 40
3.0669869999999988
100
AcDbArc
 50
55.615752999993077
 51
124.38424700000689
  0
LINE
  5
303
100
AcDbEntity
  8
0
  6
CONTINUOUS
 62
               7
100
AcDbLine
 10
-3.9399376456200059
 20
35.299999999999841
 30
0.0
 11
-4.7649254596583148
 21
34.500390339509408
 31
0.0
  0
LINE
  5
304
100
AcDbEntity
  8
0
  6
CONTINUOUS
 62
               7
100
AcDbLine
 10
-3.464100999999431
 20
25.26410199999987
 30
0.0
 11
-3.464100999999431
 21
18.300000000000072
 31
0.0
  0
LINE
  5
305
100
AcDbEntity
  8
0
  6
CONTINUOUS
 62
               7
100
AcDbLine
 10
-4.1999999999993918
 20
27.299999999999844
 30
0.0
 11
-4.1999999999994486
 21
25.799999999999731
 31
0.0
  0
LINE
  5
306
100
AcDbEntity
  8
0
  6
CONTINUOUS
 62
               7
100
AcDbLine
 10
-4.4089379929383483
 20
27.299999999999844
 30
0.0
 11
-4.9796410118129586
 21
27.629496010897245
 31
0.0
  0
LINE
  5
307
100
AcDbEntity
  8
0
  6
CONTINUOUS
 62
               2
100
AcDbLine
 10
-4.1657784852744442
 20
35.081106442970281
 30
0.0
 11
-4.4089379929383483
 21
27.299999999999844
 31
0.0
  0
LINE
  5
308
100
AcDbEntity
  8
0
  6
CONTINUOUS
 62
               7
100
AcDbLine
 10
-4.9796410118129586
 20
27.629496010897245
 30
0.0
 11
-4.7649254596583148
 21
34.500390339509408
 31
0.0
  0
LINE
  5
309
100
AcDbEntity
  8
0
  6
CONTINUOUS
 62
               7
100
AcDbLine
 10
-6.9282029999994563
 20
18.300000000000072
 30
0.0
 11
-6.9282029999993995
 21
25.26410199999987
 31
0.0
  0
ARC
  5
30A
100
AcDbEntity
  8
0
  6
CONTINUOUS
 62
               7
100
AcDbCircle
 10
-5.1961519999993868
 20
22.733012999999918
 30
0.0
 40
3.0669869999999988
100
AcDbArc
 50
55.615752999993077
 51
124.38424700000689
  0
LINE
  5
30B
100
AcDbEntity
  8
0
  6
CONTINUOUS
 62
               7
100
AcDbLine
 10
-5.9999999999994031
 20
25.799999999999731
 30
0.0
 11
-6.9282029999993995
 21
25.26410199999987
 31
0.0
  0
LINE
  5
30C
100
AcDbEntity
  8
0
  6
CONTINUOUS
 62
               7
100
AcDbLine
 10
4.7649254596592812
 20
34.500390339509408
 30
0.0
 11
-4.7649254596583148
 21
34.500390339509408
 31
0.0
  0
LINE
  5
30D
100
AcDbEntity
  8
0
  6
CONTINUOUS
 62
               7
100
AcDbLine
 10
3.9399376456209723
 20
35.299999999999841
 30
0.0
 11
-3.9399377590014808
 21
35.299999999999841
 31
0.0
  0
LINE
  5
30E
100
AcDbEntity
  8
0
  6
CONTINUOUS
 62
               7
100
AcDbLine
 10
4.9796410118139249
 20
27.629496010897245
 30
0.0
 11
-4.9796410118129586
 21
27.629496010897245
 31
0.0
  0
LINE
  5
30F
100
AcDbEntity
  8
0
  6
CONTINUOUS
 62
               7
100
AcDbLine
 10
-4.4089379929383483
 20
27.299999999999844
 30
0.0
 11
4.4089379929393147
 21
27.299999999999844
 31
0.0
  0
ARC
  5
310
100
AcDbEntity
  8
0
  6
CONTINUOUS
 62
               7
100
AcDbCircle
 10
0.0000000000005969
 20
14.335897999999933
 30
0.0
 40
11.464102
100
AcDbArc
 50
72.412045999998654
 51
107.5879540000014
  0
LINE
  5
311
100
AcDbEntity
  8
0
  6
CONTINUOUS
 62
               7
100
AcDbLine
 10
6.0000000000005969
 20
25.799999999999731
 30
0.0
 11
-5.9999999999994031
 21
25.799999999999731
 31
0.0
  0
LINE
  5
312
100
AcDbEntity
  8
0
  6
CONTINUOUS
 62
               7
100
AcDbLine
 10
9.5000000000000249
 20
16.099999999999913
 30
0.0
 11
9.5000000000000249
 21
15.000000000000231
 31
0.0
  0
LINE
  5
313
100
AcDbEntity
  8
0
  6
CONTINUOUS
 62
               7
100
AcDbLine
 10
9.9000000000000021
 20
11.500000000000117
 30
0.0
 11
9.9000000000000021
 21
12.800000000000413
 31
0.0
  0
LINE
  5
314
100
AcDbEntity
  8
0
  6
CONTINUOUS
 62
               7
100
AcDbLine
 10
9.6000000000000476
 20
12.800000000000185
 30
0.0
 11
9.6000000000000476
 21
11.500000000000231
 31
0.0
  0
ARC
  5
315
100
AcDbEntity
  8
0
  6
CONTINUOUS
 62
               7
100
AcDbCircle
 10
9.7999999999999794
 20
12.700000000000163
 30
0.0
 40
0.1
100
AcDbArc
 50
0.0
 51
90.0
  0
ARC
  5
316
100
AcDbEntity
  8
0
  6
CONTINUOUS
 62
               7
100
AcDbCircle
 10
9.7999999999999794
 20
12.800000000000413
 30
0.0
 40
0.1
100
AcDbArc
 50
0.0
 51
90.0
  0
LINE
  5
317
100
AcDbEntity
  8
0
  6
CONTINUOUS
 62
               7
100
AcDbLine
 10
7.0000000000000284
 20
15.299999999999731
 30
0.0
 11
6.4000000000002331
 21
15.299999999999731
 31
0.0
  0
LINE
  5
318
100
AcDbEntity
  8
0
  6
CONTINUOUS
 62
               7
100
AcDbLine
 10
7.0000000000000284
 20
16.099999999999913
 30
0.0
 11
7.0000000000000284
 21
15.000000000000458
 31
0.0
  0
LINE
  5
319
100
AcDbEntity
  8
0
  6
CONTINUOUS
 62
               7
100
AcDbLine
 10
6.0000000000002558
 20
15.300000000000413
 30
0.0
 11
6.0000000000002558
 21
16.500000000000231
 31
0.0
  0
ARC
  5
31A
100
AcDbEntity
  8
0
  6
CONTINUOUS
 62
               7
100
AcDbCircle
 10
6.4000000000002331
 20
15.599999999999685
 30
0.0
 40
0.3
100
AcDbArc
 50
180.0
 51
270.00000000000318
  0
LINE
  5
31B
100
AcDbEntity
  8
0
  6
CONTINUOUS
 62
               7
100
AcDbLine
 10
6.1000000000002217
 20
15.599999999999685
 30
0.0
 11
6.1000000000001648
 21
16.799999999999844
 31
0.0
  0
LINE
  5
31C
100
AcDbEntity
  8
0
  6
CONTINUOUS
 62
               7
100
AcDbLine
 10
6.1000000000000512
 20
11.500000000000117
 30
0.0
 11
6.1000000000000512
 21
12.800000000000413
 31
0.0
  0
LINE
  5
31D
100
AcDbEntity
  8
0
  6
CONTINUOUS
 62
               7
100
AcDbLine
 10
6.4000000000000057
 20
12.800000000000185
 30
0.0
 11
6.4000000000000057
 21
11.500000000000231
 31
0.0
  0
ARC
  5
31E
100
AcDbEntity
  8
0
  6
CONTINUOUS
 62
               7
100
AcDbCircle
 10
6.3000000000002103
 20
15.300000000000413
 30
0.0
 40
0.3
100
AcDbArc
 50
180.0
 51
270.0
  0
ARC
  5
31F
100
AcDbEntity
  8
0
  6
CONTINUOUS
 62
               7
100
AcDbCircle
 10
6.2000000000000739
 20
12.700000000000163
 30
0.0
 40
0.1
100
AcDbArc
 50
90.0
 51
180.0
  0
ARC
  5
320
100
AcDbEntity
  8
0
  6
CONTINUOUS
 62
               7
100
AcDbCircle
 10
6.2000000000000739
 20
12.800000000000413
 30
0.0
 40
0.1
100
AcDbArc
 50
90.0
 51
180.0
  0
LINE
  5
321
100
AcDbEntity
  8
0
  6
CONTINUOUS
 62
               7
100
AcDbLine
 10
6.2000000000000739
 20
12.800000000000185
 30
0.0
 11
9.7999999999999794
 21
12.800000000000185
 31
0.0
  0
LINE
  5
322
100
AcDbEntity
  8
0
  6
CONTINUOUS
 62
               7
100
AcDbLine
 10
6.2000000000000739
 20
12.900000000000322
 30
0.0
 11
9.7999999999999794
 21
12.900000000000322
 31
0.0
  0
LINE
  5
323
100
AcDbEntity
  8
0
  6
CONTINUOUS
 62
               7
100
AcDbLine
 10
6.4000000000000057
 20
11.839000000000059
 30
0.0
 11
9.6000000000000476
 21
11.839000000000059
 31
0.0
  0
LINE
  5
324
100
AcDbEntity
  8
0
  6
CONTINUOUS
 62
               7
100
AcDbLine
 10
7.0000000000000284
 20
15.799999999999731
 30
0.0
 11
9.5000000000000249
 21
15.799999999999731
 31
0.0
  0
LINE
  5
325
100
AcDbEntity
  8
0
  6
CONTINUOUS
 62
               7
100
AcDbLine
 10
5.3000000000000966
 20
11.500000000000231
 30
0.0
 11
5.3000000000000966
 21
15.000000000000004
 31
0.0
  0
LINE
  5
326
100
AcDbEntity
  8
0
  6
CONTINUOUS
 62
               7
100
AcDbLine
 10
0.5000000000003695
 20
11.500000000000231
 30
0.0
 11
0.5000000000003695
 21
15.000000000000004
 31
0.0
  0
LINE
  5
327
100
AcDbEntity
  8
0
  6
CONTINUOUS
 62
               7
100
AcDbLine
 10
-0.5000000000003126
 20
11.500000000000231
 30
0.0
 11
-0.5000000000003126
 21
15.000000000000004
 31
0.0
  0
LINE
  5
328
100
AcDbEntity
  8
0
  6
CONTINUOUS
 62
               7
100
AcDbLine
 10
5.3000000000000966
 20
14.000000000000231
 30
0.0
 11
0.5000000000003695
 21
14.000000000000004
 31
0.0
  0
LINE
  5
329
100
AcDbEntity
  8
0
  6
CONTINUOUS
 62
               7
100
AcDbLine
 10
5.3000000000000966
 20
14.10000000000014
 30
0.0
 11
0.5000000000003695
 21
14.10000000000014
 31
0.0
  0
LINE
  5
32A
100
AcDbEntity
  8
0
  6
CONTINUOUS
 62
               7
100
AcDbLine
 10
5.3000000000000966
 20
15.000000000000231
 30
0.0
 11
0.5000000000003695
 21
15.000000000000004
 31
0.0
  0
LINE
  5
32B
100
AcDbEntity
  8
0
  6
CONTINUOUS
 62
               7
100
AcDbLine
 10
5.3000000000000966
 20
12.000000000000231
 30
0.0
 11
0.5000000000003695
 21
12.000000000000231
 31
0.0
  0
LINE
  5
32C
100
AcDbEntity
  8
0
  6
CONTINUOUS
 62
               7
100
AcDbLine
 10
5.3000000000000966
 20
12.100000000000026
 30
0.0
 11
0.5000000000003695
 21
12.100000000000026
 31
0.0
  0
LINE
  5
32D
100
AcDbEntity
  8
0
  6
CONTINUOUS
 62
               7
100
AcDbLine
 10
5.3000000000000966
 20
13.000000000000231
 30
0.0
 11
0.5000000000003695
 21
13.000000000000231
 31
0.0
  0
LINE
  5
32E
100
AcDbEntity
  8
0
  6
CONTINUOUS
 62
               7
100
AcDbLine
 10
5.3000000000000966
 20
13.100000000000026
 30
0.0
 11
0.5000000000003695
 21
13.100000000000026
 31
0.0
  0
LINE
  5
32F
100
AcDbEntity
  8
0
  6
CONTINUOUS
 62
               7
100
AcDbLine
 10
5.4999995380499342
 20
-1.7000000225000313
 30
0.0
 11
5.4999995380499342
 21
0.0000000000000036
 31
0.0
  0
ARC
  5
330
100
AcDbEntity
  8
0
  6
CONTINUOUS
 62
               7
100
AcDbCircle
 10
5.1999995352998951
 20
-1.7000000922000673
 30
0.0
 40
0.30000000275
100
AcDbArc
 50
270.00009785850187
 51
0.0
  0
ARC
  5
331
100
AcDbEntity
  8
0
  6
CONTINUOUS
 62
               7
100
AcDbCircle
 10
5.7000000000012108
 20
16.500000000000004
 30
0.0
 40
0.3
100
AcDbArc
 50
0.0
 51
90.0
  0
LINE
  5
332
100
AcDbEntity
  8
0
  6
CONTINUOUS
 62
               7
100
AcDbLine
 10
11.999999999999797
 20
-7.1999999999999282
 30
0.0
 11
11.999999999999797
 21
-8.3999999999999737
 31
0.0
  0
ARC
  5
333
100
AcDbEntity
  8
0
  6
CONTINUOUS
 62
               7
100
AcDbCircle
 10
11.699999999999815
 20
-8.3999999999999737
 30
0.0
 40
0.3
100
AcDbArc
 50
270.0
 51
0.0
  0
LINE
  5
334
100
AcDbEntity
  8
0
  6
CONTINUOUS
 62
               7
100
AcDbLine
 10
5.9999999999999147
 20
-7.1999999999999282
 30
0.0
 11
5.999999999999801
 21
-8.3999999999999737
 31
0.0
  0
ARC
  5
335
100
AcDbEntity
  8
0
  6
CONTINUOUS
 62
               7
100
AcDbCircle
 10
6.2999999999998693
 20
-8.3999999999999737
 30
0.0
 40
0.3
100
AcDbArc
 50
180.0
 51
270.0
  0
LINE
  5
336
100
AcDbEntity
  8
0
  6
CONTINUOUS
 62
               7
100
AcDbLine
 10
6.2999999999998693
 20
-8.7000000000001556
 30
0.0
 11
11.699999999999815
 21
-8.6999999999999282
 31
0.0
  0
LINE
  5
337
100
AcDbEntity
  8
0
  6
CONTINUOUS
 62
               7
100
AcDbLine
 10
2.9999999999999147
 20
-7.2000000000000419
 30
0.0
 11
2.9999999999999147
 21
-8.3999999999999737
 31
0.0
  0
ARC
  5
338
100
AcDbEntity
  8
0
  6
CONTINUOUS
 62
               7
100
AcDbCircle
 10
2.6999999999999034
 20
-8.3999999999999737
 30
0.0
 40
0.3
100
AcDbArc
 50
270.0
 51
0.0
  0
ARC
  5
339
100
AcDbEntity
  8
0
  6
CONTINUOUS
 62
               7
100
AcDbCircle
 10
-5.7000000000011539
 20
16.500000000000004
 30
0.0
 40
0.3
100
AcDbArc
 50
90.0
 51
180.0
  0
LINE
  5
33A
100
AcDbEntity
  8
0
  6
CONTINUOUS
 62
               7
100
AcDbLine
 10
-5.3000000000001535
 20
11.500000000000231
 30
0.0
 11
-5.3000000000001535
 21
15.000000000000004
 31
0.0
  0
ARC
  5
33B
100
AcDbEntity
  8
0
  6
CONTINUOUS
 62
               7
100
AcDbCircle
 10
-6.4000000000001762
 20
15.599999999999685
 30
0.0
 40
0.3
100
AcDbArc
 50
270.0
 51
0.0
  0
LINE
  5
33C
100
AcDbEntity
  8
0
  6
CONTINUOUS
 62
               7
100
AcDbLine
 10
-6.000000000000199
 20
15.300000000000413
 30
0.0
 11
-6.0000000000003126
 21
16.500000000000231
 31
0.0
  0
LINE
  5
33D
100
AcDbEntity
  8
0
  6
CONTINUOUS
 62
               7
100
AcDbLine
 10
-6.1000000000002217
 20
15.599999999999685
 30
0.0
 11
-6.1000000000002217
 21
16.799999999999844
 31
0.0
  0
LINE
  5
33E
100
AcDbEntity
  8
0
  6
CONTINUOUS
 62
               7
100
AcDbLine
 10
-6.0999999999999943
 20
11.500000000000117
 30
0.0
 11
-6.0999999999999943
 21
12.800000000000413
 31
0.0
  0
LINE
  5
33F
100
AcDbEntity
  8
0
  6
CONTINUOUS
 62
               7
100
AcDbLine
 10
-6.3999999999999488
 20
12.800000000000185
 30
0.0
 11
-6.3999999999999488
 21
11.500000000000231
 31
0.0
  0
ARC
  5
340
100
AcDbEntity
  8
0
  6
CONTINUOUS
 62
               7
100
AcDbCircle
 10
-6.3000000000001535
 20
15.300000000000413
 30
0.0
 40
0.3
100
AcDbArc
 50
270.0
 51
0.0
  0
ARC
  5
341
100
AcDbEntity
  8
0
  6
CONTINUOUS
 62
               7
100
AcDbCircle
 10
-6.2000000000000171
 20
12.700000000000163
 30
0.0
 40
0.1
100
AcDbArc
 50
0.0
 51
90.0
  0
ARC
  5
342
100
AcDbEntity
  8
0
  6
CONTINUOUS
 62
               7
100
AcDbCircle
 10
-6.2000000000000171
 20
12.800000000000413
 30
0.0
 40
0.1
100
AcDbArc
 50
0.0
 51
90.0
  0
ARC
  5
343
100
AcDbEntity
  8
0
  6
CONTINUOUS
 62
               7
100
AcDbCircle
 10
-5.1999994395000328
 20
-1.6999991321500794
 30
0.0
 40
0.3000009628
100
AcDbArc
 50
180.0
 51
269.9998966546969
  0
LINE
  5
344
100
AcDbEntity
  8
0
  6
CONTINUOUS
 62
               7
100
AcDbLine
 10
-5.5000004022999462
 20
-1.7000000225000313
 30
0.0
 11
-5.5000004022999462
 21
0.0000000000000036
 31
0.0
  0
LINE
  5
345
100
AcDbEntity
  8
0
  6
CONTINUOUS
 62
               7
100
AcDbLine
 10
-9.4999999999999716
 20
16.099999999999913
 30
0.0
 11
-9.4999999999999716
 21
15.000000000000231
 31
0.0
  0
LINE
  5
346
100
AcDbEntity
  8
0
  6
CONTINUOUS
 62
               7
100
AcDbLine
 10
-6.9999999999999716
 20
16.099999999999913
 30
0.0
 11
-6.9999999999999716
 21
15.000000000000458
 31
0.0
  0
LINE
  5
347
100
AcDbEntity
  8
0
  6
CONTINUOUS
 62
               7
100
AcDbLine
 10
-6.9999999999999716
 20
15.799999999999731
 30
0.0
 11
-9.4999999999999716
 21
15.799999999999731
 31
0.0
  0
LINE
  5
348
100
AcDbEntity
  8
0
  6
CONTINUOUS
 62
               7
100
AcDbLine
 10
-9.8999999999999488
 20
11.500000000000117
 30
0.0
 11
-9.8999999999999488
 21
12.800000000000413
 31
0.0
  0
LINE
  5
349
100
AcDbEntity
  8
0
  6
CONTINUOUS
 62
               7
100
AcDbLine
 10
-9.5999999999999943
 20
12.800000000000185
 30
0.0
 11
-9.5999999999999943
 21
11.500000000000231
 31
0.0
  0
ARC
  5
34A
100
AcDbEntity
  8
0
  6
CONTINUOUS
 62
               7
100
AcDbCircle
 10
-9.7999999999999261
 20
12.700000000000163
 30
0.0
 40
0.1
100
AcDbArc
 50
90.0
 51
180.0
  0
ARC
  5
34B
100
AcDbEntity
  8
0
  6
CONTINUOUS
 62
               7
100
AcDbCircle
 10
-9.7999999999999261
 20
12.800000000000413
 30
0.0
 40
0.1
100
AcDbArc
 50
90.0
 51
180.0
  0
LINE
  5
34C
100
AcDbEntity
  8
0
  6
CONTINUOUS
 62
               7
100
AcDbLine
 10
-6.2000000000000171
 20
12.800000000000185
 30
0.0
 11
-9.7999999999999261
 21
12.800000000000185
 31
0.0
  0
LINE
  5
34D
100
AcDbEntity
  8
0
  6
CONTINUOUS
 62
               7
100
AcDbLine
 10
-6.2000000000000171
 20
12.900000000000322
 30
0.0
 11
-9.7999999999999261
 21
12.900000000000322
 31
0.0
  0
LINE
  5
34E
100
AcDbEntity
  8
0
  6
CONTINUOUS
 62
               7
100
AcDbLine
 10
-6.3999999999999488
 20
11.839000000000059
 30
0.0
 11
-9.5999999999999943
 21
11.839000000000059
 31
0.0
  0
LINE
  5
34F
100
AcDbEntity
  8
0
  6
CONTINUOUS
 62
               7
100
AcDbLine
 10
-6.9999999999999716
 20
15.299999999999731
 30
0.0
 11
-6.4000000000001762
 21
15.299999999999731
 31
0.0
  0
ARC
  5
350
100
AcDbEntity
  8
0
  6
CONTINUOUS
 62
               7
100
AcDbCircle
 10
-2.7000000000001307
 20
-8.4000000000000874
 30
0.0
 40
0.3
100
AcDbArc
 50
180.0
 51
270.0
  0
LINE
  5
351
100
AcDbEntity
  8
0
  6
CONTINUOUS
 62
               7
100
AcDbLine
 10
-3.0000000000000853
 20
-7.2000000000000419
 30
0.0
 11
-3.0000000000000853
 21
-8.4000000000000874
 31
0.0
  0
ARC
  5
352
100
AcDbEntity
  8
0
  6
CONTINUOUS
 62
               7
100
AcDbCircle
 10
-2.2393944403529815
 20
-11.199999999999928
 30
0.0
 40
4.0
100
AcDbArc
 50
100.9616192702174
 51
108.7556580062801
  0
ARC
  5
353
100
AcDbEntity
  8
0
  6
CONTINUOUS
 62
               7
100
AcDbCircle
 10
-6.3000000000000398
 20
-8.0841995766066894
 30
0.0
 40
0.3
100
AcDbArc
 50
283.3423637970879
 51
0.0
  0
LINE
  5
354
100
AcDbEntity
  8
0
  6
CONTINUOUS
 62
               7
100
AcDbLine
 10
-6.0000000000000853
 20
-7.1999999999999282
 30
0.0
 11
-6.0000000000000853
 21
-8.0841995766066894
 31
0.0
  0
ARC
  5
355
100
AcDbEntity
  8
0
  6
CONTINUOUS
 62
               7
100
AcDbCircle
 10
-6.3196010845012722
 20
-12.600000000000019
 30
0.0
 40
5.0
100
AcDbArc
 50
80.405931773138406
 51
86.335142808914043
  0
LINE
  5
356
100
AcDbEntity
  8
0
  6
CONTINUOUS
 62
               7
100
AcDbLine
 10
-5.4862677511677873
 20
-7.669933514083592
 30
0.0
 11
-4.7427266261890111
 21
-7.7956149031519963
 31
0.0
  0
LINE
  5
357
100
AcDbEntity
  8
0
  6
CONTINUOUS
 62
               7
100
AcDbLine
 10
-4.9004166198108976
 20
-7.6001414692529998
 30
0.0
 11
-4.9004166198108976
 21
-7.3999999999999737
 31
0.0
  0
ARC
  5
358
100
AcDbEntity
  8
0
  6
CONTINUOUS
 62
               7
100
AcDbCircle
 10
-4.700416619810909
 20
-7.6001414692529998
 30
0.0
 40
0.2
100
AcDbArc
 50
180.0
 51
288.75565800629761
  0
ARC
  5
359
100
AcDbEntity
  8
0
  6
CONTINUOUS
 62
               7
100
AcDbCircle
 10
-5.1004166198108862
 20
-7.3999999999999737
 30
0.0
 40
0.2
100
AcDbArc
 50
0.0
 51
90.000000000000028
  0
LINE
  5
35A
100
AcDbEntity
  8
0
  6
CONTINUOUS
 62
               7
100
AcDbLine
 10
-3.5255263358738773
 20
-7.4124064701549024
 30
0.0
 11
-4.636110025034867
 21
-7.7895211457451943
 31
0.0
  0
ARC
  5
35B
100
AcDbEntity
  8
0
  6
CONTINUOUS
 62
               7
100
AcDbCircle
 10
-11.999999999999858
 20
-6.5999999999999055
 30
0.0
 40
1.0
100
AcDbArc
 50
216.86989764607364
 51
270.0
  0
LINE
  5
35C
100
AcDbEntity
  8
0
  6
CONTINUOUS
 62
               7
100
AcDbLine
 10
-12.000031000000121
 20
-7.2000000000000419
 30
0.0
 11
-12.000031000000035
 21
-8.0841922242667543
 31
0.0
  0
ARC
  5
35D
100
AcDbEntity
  8
0
  6
CONTINUOUS
 62
               7
100
AcDbCircle
 10
-11.700031000000052
 20
-8.0841922242667543
 30
0.0
 40
0.3
100
AcDbArc
 50
180.0
 51
256.6574801823042
  0
ARC
  5
35E
100
AcDbEntity
  8
0
  6
CONTINUOUS
 62
               7
100
AcDbCircle
 10
-9.0000000000000568
 20
3.2999999999999581
 30
0.0
 40
12.0
100
AcDbArc
 50
256.6574801823042
 51
283.3423637970879
  0
LINE
  5
35F
100
AcDbEntity
  8
0
  6
CONTINUOUS
 62
               7
100
AcDbLine
 10
5.2000000476998878
 20
-2.0000000949999013
 30
0.0
 11
-5.1999999806002677
 21
-2.0000000949999013
 31
0.0
  0
LINE
  5
360
100
AcDbEntity
  8
0
  6
CONTINUOUS
 62
               7
100
AcDbLine
 10
5.8000000000011198
 20
17.099999999999685
 30
0.0
 11
-5.800000000001063
 21
17.099999999999685
 31
0.0
  0
LINE
  5
361
100
AcDbEntity
  8
0
  6
CONTINUOUS
 62
               7
100
AcDbLine
 10
-5.7000000000011539
 20
16.799999999999844
 30
0.0
 11
5.7000000000012108
 21
16.799999999999844
 31
0.0
  0
LINE
  5
362
100
AcDbEntity
  8
0
  6
CONTINUOUS
 62
               7
100
AcDbLine
 10
-5.3000000000001535
 20
13.000000000000231
 30
0.0
 11
-0.5000000000003126
 21
13.000000000000231
 31
0.0
  0
LINE
  5
363
100
AcDbEntity
  8
0
  6
CONTINUOUS
 62
               7
100
AcDbLine
 10
-5.3000000000001535
 20
14.000000000000231
 30
0.0
 11
-0.5000000000003126
 21
14.000000000000004
 31
0.0
  0
LINE
  5
364
100
AcDbEntity
  8
0
  6
CONTINUOUS
 62
               7
100
AcDbLine
 10
-5.3000000000001535
 20
14.10000000000014
 30
0.0
 11
-0.5000000000003126
 21
14.10000000000014
 31
0.0
  0
LINE
  5
365
100
AcDbEntity
  8
0
  6
CONTINUOUS
 62
               7
100
AcDbLine
 10
-5.3000000000001535
 20
13.100000000000026
 30
0.0
 11
-0.5000000000003126
 21
13.100000000000026
 31
0.0
  0
LINE
  5
366
100
AcDbEntity
  8
0
  6
CONTINUOUS
 62
               7
100
AcDbLine
 10
-5.3000000000001535
 20
15.000000000000231
 30
0.0
 11
-0.5000000000003126
 21
15.000000000000004
 31
0.0
  0
LINE
  5
367
100
AcDbEntity
  8
0
  6
CONTINUOUS
 62
               7
100
AcDbLine
 10
-5.3000000000001535
 20
12.000000000000231
 30
0.0
 11
-0.5000000000003126
 21
12.000000000000231
 31
0.0
  0
LINE
  5
368
100
AcDbEntity
  8
0
  6
CONTINUOUS
 62
               7
100
AcDbLine
 10
-5.3000000000001535
 20
12.100000000000026
 30
0.0
 11
-0.5000000000003126
 21
12.100000000000026
 31
0.0
  0
LINE
  5
369
100
AcDbEntity
  8
0
  6
CONTINUOUS
 62
               7
100
AcDbLine
 10
-2.7000000000001307
 20
-8.7000000000002693
 30
0.0
 11
2.6999999999999034
 21
-8.6999999999999282
 31
0.0
  0
ARC
  5
36A
100
AcDbEntity
  8
0
  6
CONTINUOUS
 62
               7
100
AcDbCircle
 10
5.8000000000011198
 20
16.799999999999731
 30
0.0
 40
0.3
100
AcDbArc
 50
0.0
 51
90.0
  0
ARC
  5
36B
100
AcDbEntity
  8
0
  6
CONTINUOUS
 62
               7
100
AcDbCircle
 10
-5.800000000001063
 20
16.799999999999731
 30
0.0
 40
0.3
100
AcDbArc
 50
90.0
 51
180.0
  0
LINE
  5
36C
100
AcDbEntity
  8
0
  6
CONTINUOUS
 62
               7
100
AcDbLine
 10
15.000000000000224
 20
15.299999999999844
 30
0.0
 11
9.5000000000000249
 21
15.299999999999844
 31
0.0
  0
LINE
  5
36D
100
AcDbEntity
  8
0
  6
CONTINUOUS
 62
               7
100
AcDbLine
 10
15.000000000001133
 20
15.000000000000231
 30
0.0
 11
6.3000000000002103
 21
15.000000000000458
 31
0.0
  0
LINE
  5
36E
100
AcDbEntity
  8
0
  6
CONTINUOUS
 62
               7
100
AcDbLine
 10
0.0000000000000284
 20
1.5000000000000036
 30
0.0
 11
21.649347285321088
 21
1.4999999999986393
 31
0.0
  0
LINE
  5
36F
100
AcDbEntity
  8
0
  6
CONTINUOUS
 62
               7
100
AcDbLine
 10
12.50000000005468
 20
5.4999999999993214
 30
0.0
 11
-12.500000000054371
 21
5.5000000000002309
 31
0.0
  0
ARC
  5
370
100
AcDbEntity
  8
0
  6
CONTINUOUS
 62
               7
100
AcDbCircle
 10
-14.700000000000244
 20
18.000000000000004
 30
0.0
 40
0.3
100
AcDbArc
 50
90.0
 51
180.0
  0
LINE
  5
371
100
AcDbEntity
  8
0
  6
CONTINUOUS
 62
               7
100
AcDbLine
 10
-20.099999999999142
 20
17.500000000000004
 30
0.0
 11
-22.399999999999295
 21
17.500000000000117
 31
0.0
  0
ARC
  5
372
100
AcDbEntity
  8
0
  6
CONTINUOUS
 62
               7
100
AcDbCircle
 10
-22.399999999999267
 20
17.300000000000072
 30
0.0
 40
0.2
100
AcDbArc
 50
90.0
 51
180.0
  0
LINE
  5
373
100
AcDbEntity
  8
0
  6
CONTINUOUS
 62
               7
100
AcDbLine
 10
-14.999999999999574
 20
15.000000000001027
 30
0.0
 11
-14.999999999999631
 21
11.500000000000117
 31
0.0
  0
LINE
  5
374
100
AcDbEntity
  8
0
  6
CONTINUOUS
 62
               7
100
AcDbLine
 10
-13.999999999999261
 20
15.000000000000004
 30
0.0
 11
-13.999999999999261
 21
15.299999999999844
 31
0.0
  0
LINE
  5
375
100
AcDbEntity
  8
0
  6
CONTINUOUS
 62
               7
100
AcDbLine
 10
-16.700000000000074
 20
10.999999999997502
 30
0.0
 11
-16.799999999997226
 21
10.999999999997502
 31
0.0
  0
LINE
  5
376
100
AcDbEntity
  8
0
  6
CONTINUOUS
 62
               7
100
AcDbLine
 10
-19.599999999999227
 20
17.000000000000117
 30
0.0
 11
-19.599999999999227
 21
16.000000000000004
 31
0.0
  0
ARC
  5
377
100
AcDbEntity
  8
0
  6
CONTINUOUS
 62
               7
100
AcDbCircle
 10
-16.799999999999386
 20
14.499999999997275
 30
0.0
 40
5.0999999999999988
100
AcDbArc
 50
241.92751306413379
 51
244.4170126294504
  0
LINE
  5
378
100
AcDbEntity
  8
0
  6
CONTINUOUS
 62
               7
100
AcDbLine
 10
-19.19999999999996
 20
9.9000000000003219
 30
0.0
 11
-19.19999999999996
 21
11.899999999999867
 31
0.0
  0
LINE
  5
379
100
AcDbEntity
  8
0
  6
CONTINUOUS
 62
               7
100
AcDbLine
 10
-15.496871942265955
 20
5.5000000000000036
 30
0.0
 11
-15.496871942265955
 21
1.5000000000000036
 31
0.0
  0
LINE
  5
37A
100
AcDbEntity
  8
0
  6
CONTINUOUS
 62
               7
100
AcDbLine
 10
-13.500000000054371
 20
4.5000000000002309
 30
0.0
 11
-13.500000000054371
 21
1.5000000000002309
 31
0.0
  0
LINE
  5
37B
100
AcDbEntity
  8
0
  6
CONTINUOUS
 62
               7
100
AcDbLine
 10
-18.785786437626513
 20
4.9142135623732237
 30
0.0
 11
-19.156854249492227
 21
4.5431457505076231
 31
0.0
  0
ARC
  5
37C
100
AcDbEntity
  8
0
  6
CONTINUOUS
 62
               7
100
AcDbCircle
 10
-17.371572875253463
 20
3.5000000000000036
 30
0.0
 40
2.0
100
AcDbArc
 50
89.999999999996703
 51
134.99999999999989
  0
LINE
  5
37D
100
AcDbEntity
  8
0
  6
PHANTOM
 62
               7
100
AcDbLine
 10
-17.299998640998695
 20
-2.5000000558994735
 30
0.0
 11
-17.167824261398209
 21
-2.3532052643167809
 31
0.0
  0
LINE
  5
37E
100
AcDbEntity
  8
0
  6
PHANTOM
 62
               2
100
AcDbLine
 10
-17.850108534048587
 20
-0.3000000677993704
 30
0.0
 11
-18.21529501674857
 21
-0.3000000677993704
 31
0.0
  0
LINE
  5
37F
100
AcDbEntity
  8
0
  6
CONTINUOUS
 62
               7
100
AcDbLine
 10
-16.700000000000074
 20
1.4999999999998899
 30
0.0
 11
-16.700000000000074
 21
1.6816233815924342
 31
0.0
  0
ARC
  5
380
100
AcDbEntity
  8
0
  6
PHANTOM
 62
               2
100
AcDbCircle
 10
-17.850103278498636
 20
-1.2999857249994839
 30
0.0
 40
0.9999856572
100
AcDbArc
 50
51.825640783473979
 51
90.00030112529808
  0
LINE
  5
381
100
AcDbEntity
  8
0
  6
CONTINUOUS
 62
               7
100
AcDbLine
 10
-17.249999999999915
 20
0.0000000000000036
 30
0.0
 11
-17.092247178650183
 21
-4.5174497483499145
 31
0.0
  0
LINE
  5
382
100
AcDbEntity
  8
0
  6
CONTINUOUS
 62
               7
100
AcDbLine
 10
-15.496871942265955
 20
5.5000000000000036
 30
0.0
 11
-17.371572875253293
 21
5.5000000000001172
 31
0.0
  0
ARC
  5
383
100
AcDbEntity
  8
0
  6
CONTINUOUS
 62
               7
100
AcDbCircle
 10
-18.200000000000131
 20
1.6816233815923205
 30
0.0
 40
1.5
100
AcDbArc
 50
0.0
 51
127.60594367849332
  0
LINE
  5
384
100
AcDbEntity
  8
0
  6
CONTINUOUS
 62
               7
100
AcDbLine
 10
-16.700000000000074
 20
5.5000000000001172
 30
0.0
 11
-16.69999999999996
 21
11.500000000000231
 31
0.0
  0
LINE
  5
385
100
AcDbEntity
  8
0
  6
CONTINUOUS
 62
               7
100
AcDbLine
 10
-20.299999999999187
 20
14.499999999997616
 30
0.0
 11
-20.299999999999301
 21
17.000000000000004
 31
0.0
  0
LINE
  5
386
100
AcDbEntity
  8
0
  6
CONTINUOUS
 62
               7
100
AcDbLine
 10
-21.899999999999324
 20
14.499999999997389
 30
0.0
 11
-21.899999999999324
 21
15.99999999999989
 31
0.0
  0
ARC
  5
387
100
AcDbEntity
  8
0
  6
CONTINUOUS
 62
               7
100
AcDbCircle
 10
-22.399999999999267
 20
16.199999999999822
 30
0.0
 40
0.2
100
AcDbArc
 50
180.0
 51
270.0
  0
LINE
  5
388
100
AcDbEntity
  8
0
  6
CONTINUOUS
 62
               7
100
AcDbLine
 10
-21.899999999999324
 20
15.99999999999989
 30
0.0
 11
-22.399999999999295
 21
15.99999999999989
 31
0.0
  0
ARC
  5
389
100
AcDbEntity
  8
0
  6
CONTINUOUS
 62
               7
100
AcDbCircle
 10
-16.799999999999386
 20
14.499999999997275
 30
0.0
 40
5.0999999999999988
100
AcDbArc
 50
180.0
 51
209.3534700547948
  0
LINE
  5
38A
100
AcDbEntity
  8
0
  6
CONTINUOUS
 62
               7
100
AcDbLine
 10
-24.800000000000097
 20
9.9000000000002082
 30
0.0
 11
-24.800000000000097
 21
11.899999999999867
 31
0.0
  0
ARC
  5
38B
100
AcDbEntity
  8
0
  6
CONTINUOUS
 62
               7
100
AcDbCircle
 10
-24.899999999999778
 20
1.6000000000000263
 30
0.0
 40
0.6
100
AcDbArc
 50
90.0
 51
270.0
  0
LINE
  5
38C
100
AcDbEntity
  8
0
  6
CONTINUOUS
 62
               7
100
AcDbLine
 10
-24.899999999999778
 20
2.1999999999999353
 30
0.0
 11
-24.813708498984539
 21
2.1999999999999353
 31
0.0
  0
LINE
  5
38D
100
AcDbEntity
  8
0
  6
CONTINUOUS
 62
               7
100
AcDbLine
 10
-24.999999999999801
 20
2.1916079783100066
 30
0.0
 11
-24.999999999999915
 21
9.9000000000002082
 31
0.0
  0
LINE
  5
38E
100
AcDbEntity
  8
0
  6
CONTINUOUS
 62
               7
100
AcDbLine
 10
-24.999999999999915
 20
9.9000000000002082
 30
0.0
 11
-16.69999999999996
 21
9.8999999999997534
 31
0.0
  0
ARC
  5
38F
100
AcDbEntity
  8
0
  6
CONTINUOUS
 62
               7
100
AcDbCircle
 10
-16.79999999999913
 20
14.499999999997502
 30
0.0
 40
3.5
100
AcDbArc
 50
180.0
 51
270.00000000003251
  0
LINE
  5
390
100
AcDbEntity
  8
0
  6
CONTINUOUS
 62
               7
100
AcDbLine
 10
-20.299999999999187
 20
15.99999999999989
 30
0.0
 11
-19.599999999999227
 21
16.000000000000004
 31
0.0
  0
LINE
  5
391
100
AcDbEntity
  8
0
  6
CONTINUOUS
 62
               7
100
AcDbLine
 10
-19.19999999999996
 20
11.899999999999867
 30
0.0
 11
-24.800000000000097
 21
11.899999999999867
 31
0.0
  0
ARC
  5
392
100
AcDbEntity
  8
0
  6
CONTINUOUS
 62
               7
100
AcDbCircle
 10
-24.607387176871129
 20
9.9999999999998899
 30
0.0
 40
9.0
100
AcDbArc
 50
270.0
 51
307.60594367849319
  0
ARC
  5
393
100
AcDbEntity
  8
0
  6
CONTINUOUS
 62
               7
100
AcDbCircle
 10
-24.813708498984539
 20
10.199999999999935
 30
0.0
 40
8.0
100
AcDbArc
 50
270.0
 51
314.99999999999937
  0
LINE
  5
394
100
AcDbEntity
  8
0
  6
CONTINUOUS
 62
               7
100
AcDbLine
 10
-15.000000000000256
 20
-4.9999999999999964
 30
0.0
 11
-15.000000000000142
 21
-6.3999999999999737
 31
0.0
  0
ARC
  5
395
100
AcDbEntity
  8
0
  6
CONTINUOUS
 62
               7
100
AcDbCircle
 10
-14.200000000000131
 20
-6.3999999999999737
 30
0.0
 40
0.8
100
AcDbArc
 50
180.00000000000651
 51
270.0
  0
ARC
  5
396
100
AcDbEntity
  8
0
  6
PHANTOM
 62
               2
100
AcDbCircle
 10
-18.797407952507655
 20
-8.3000000678006209
 30
0.0
 40
1.0
100
AcDbArc
 50
270.00000000000159
 51
2.9999999780697109
  0
LINE
  5
397
100
AcDbEntity
  8
0
  6
PHANTOM
 62
               2
100
AcDbLine
 10
-16.983735375124127
 20
-5.5563143641004409
 30
0.0
 11
-17.931071828689511
 21
-5.7233554361102925
 31
0.0
  0
LINE
  5
398
100
AcDbEntity
  8
0
  6
PHANTOM
 62
               2
100
AcDbLine
 10
-19.449999999999051
 20
-9.3000000678005073
 30
0.0
 11
-18.797407952507712
 21
-9.3000000678005073
 31
0.0
  0
LINE
  5
399
100
AcDbEntity
  8
0
  6
CONTINUOUS
 62
               7
100
AcDbLine
 10
-16.500000725524075
 20
-5.0000000000004512
 30
0.0
 11
-16.260051499673978
 21
-9.5785040021506767
 31
0.0
  0
ARC
  5
39A
100
AcDbEntity
  8
0
  6
PHANTOM
 62
               2
100
AcDbCircle
 10
-16.998007723174055
 20
-5.0511180066505368
 30
0.0
 40
0.49999980205
100
AcDbArc
 50
279.99998086469589
 51
2.9999893418042873
  0
ARC
  5
39B
100
AcDbEntity
  8
0
  6
CONTINUOUS
 62
               7
100
AcDbCircle
 10
-14.762107197523932
 20
-9.5000000678006664
 30
0.0
 40
1.5
100
AcDbArc
 50
182.99999999999909
 51
270.0
  0
LINE
  5
39C
100
AcDbEntity
  8
0
  6
PHANTOM
 62
               2
100
AcDbLine
 10
-19.649999999999039
 20
-10.000000067800666
 30
0.0
 11
-19.649999999998983
 21
-9.5000000678006664
 31
0.0
  0
ARC
  5
39D
100
AcDbEntity
  8
0
  6
PHANTOM
 62
               2
100
AcDbCircle
 10
-19.449999999998994
 20
-9.5000000678006664
 30
0.0
 40
0.2
100
AcDbArc
 50
90.0
 51
180.0
  0
ARC
  5
39E
100
AcDbEntity
  8
0
  6
PHANTOM
 62
               2
100
AcDbCircle
 10
-18.649999999999011
 20
-10.000000067800666
 30
0.0
 40
1.0
100
AcDbArc
 50
180.0
 51
270.0
  0
LINE
  5
39F
100
AcDbEntity
  8
0
  6
PHANTOM
 62
               2
100
AcDbLine
 10
-17.798778417733047
 20
-8.2476641119397947
 30
0.0
 11
-18.21529856324878
 21
-0.3000000678005073
 31
0.0
  0
ARC
  5
3A0
100
AcDbEntity
  8
0
  6
CONTINUOUS
 62
               7
100
AcDbCircle
 10
-16.592551765150091
 20
-4.4999999999999964
 30
0.0
 40
0.5
100
AcDbArc
 50
181.9999999999971
 51
270.0
  0
LINE
  5
3A1
100
AcDbEntity
  8
0
  6
PHANTOM
 62
               2
100
AcDbLine
 10
-17.300001430798829
 20
-2.5000000559004967
 30
0.0
 11
-17.164706046698853
 21
-5.0815908424503924
 31
0.0
  0
LINE
  5
3A2
100
AcDbEntity
  8
0
  6
CONTINUOUS
 62
               7
100
AcDbLine
 10
-15.000000000000256
 20
18.000000000000004
 30
0.0
 11
-15.000000000000199
 21
15.299999999999844
 31
0.0
  0
ARC
  5
3A3
100
AcDbEntity
  8
0
  6
CONTINUOUS
 62
               7
100
AcDbCircle
 10
-20.799999999999244
 20
17.000000000000004
 30
0.0
 40
0.5
100
AcDbArc
 50
0.0
 51
90.0
  0
ARC
  5
3A4
100
AcDbEntity
  8
0
  6
CONTINUOUS
 62
               7
100
AcDbCircle
 10
-20.099999999999227
 20
17.000000000000004
 30
0.0
 40
0.5
100
AcDbArc
 50
0.0
 51
89.999999999990237
  0
LINE
  5
3A5
100
AcDbEntity
  8
0
  6
CONTINUOUS
 62
               7
100
AcDbLine
 10
-22.599999999999255
 20
17.300000000000072
 30
0.0
 11
-22.599999999999255
 21
16.199999999999822
 31
0.0
  0
LINE
  5
3A6
100
AcDbEntity
  8
0
  6
PHANTOM
 62
               2
100
AcDbLine
 10
18.65000000000089
 20
-11.000000067800666
 30
0.0
 11
-18.649999999999011
 21
-11.000000067800666
 31
0.0
  0
LINE
  5
3A7
100
AcDbEntity
  8
0
  6
CONTINUOUS
 62
               7
100
AcDbLine
 10
14.19999999999936
 20
-7.2000000000000419
 30
0.0
 11
-14.200000000000188
 21
-7.1999999999999282
 31
0.0
  0
LINE
  5
3A8
100
AcDbEntity
  8
0
  6
CONTINUOUS
 62
               7
100
AcDbLine
 10
16.592551765149832
 20
-5.0000000000009059
 30
0.0
 11
-16.592551765150034
 21
-4.9999999999999964
 31
0.0
  0
LINE
  5
3A9
100
AcDbEntity
  8
0
  6
CONTINUOUS
 62
               7
100
AcDbLine
 10
-16.69999999999996
 20
11.500000000000231
 30
0.0
 11
16.700000000000724
 21
11.500000000000231
 31
0.0
  0
LINE
  5
3AA
100
AcDbEntity
  8
0
  6
CONTINUOUS
 62
               7
100
AcDbLine
 10
-14.700000000000244
 20
18.299999999999958
 30
0.0
 11
14.700000000000269
 21
18.299999999999958
 31
0.0
  0
LINE
  5
3AB
100
AcDbEntity
  8
0
  6
CONTINUOUS
 62
               7
100
AcDbLine
 10
-15.000000000001137
 20
15.000000000000231
 30
0.0
 11
-6.3000000000001535
 21
15.000000000000458
 31
0.0
  0
LINE
  5
3AC
100
AcDbEntity
  8
0
  6
CONTINUOUS
 62
               7
100
AcDbLine
 10
-15.000000000000199
 20
15.299999999999844
 30
0.0
 11
-9.4999999999999716
 21
15.299999999999844
 31
0.0
  0
LINE
  5
3AD
100
AcDbEntity
  8
0
  6
CONTINUOUS
 62
               7
100
AcDbLine
 10
0.0000000000000284
 20
1.5000000000000036
 30
0.0
 11
-21.64934728532117
 21
1.5000000000000036
 31
0.0
  0
ARC
  5
3AE
100
AcDbEntity
  8
0
  6
CONTINUOUS
 62
               7
100
AcDbCircle
 10
-12.500000000054285
 20
4.5000000000002309
 30
0.0
 40
1.0
100
AcDbArc
 50
90.0
 51
180.0
  0
LINE
  5
3AF
100
AcDbEntity
  8
0
  6
CONTINUOUS
 62
               2
100
AcDbLine
 10
27.633614672154952
 20
2.4583004154789911
 30
0.0
 11
28.654416390185933
 21
-1.3934576332194659
 31
0.0
  0
LINE
  5
3B0
100
AcDbEntity
  8
0
  6
CONTINUOUS
 62
               2
100
AcDbLine
 10
-30.321866240332099
 20
2.4583004154789911
 30
0.0
 11
-29.301064522301147
 21
-1.3934576332194659
 31
0.0
  0
LINE
  5
3B1
100
AcDbEntity
  8
0
  6
CENTER
 62
               2
100
AcDbLine
 10
-0.0000000000004263
 20
-14.650103259472186
 30
0.0
 11
0.0000000000011653
 21
39.718019598321803
 31
0.0
  0
ENDBLK
  5
3B2
100
AcDbEntity
  8
0
100
AcDbBlockEnd
  0
BLOCK
  5
22
100
AcDbEntity
  8
0
  6
ByBlock
 62
               0
100
AcDbBlockBegin
  2
_OPEN30
 70
               2
 10
0.0
 20
0.0
 30
0.0
  3
_OPEN30
  1

  0
LINE
  5
23
100
AcDbEntity
  8
0
  6
ByBlock
 62
               0
100
AcDbLine
 10
-1.0
 20
0.267949
 30
0.0
 11
0.0
 21
0.0
 31
0.0
  0
LINE
  5
24
100
AcDbEntity
  8
0
  6
ByBlock
 62
               0
100
AcDbLine
 10
0.0
 20
0.0
 30
0.0
 11
-1.0
 21
-0.267949
 31
0.0
  0
LINE
  5
25
100
AcDbEntity
  8
0
  6
ByBlock
 62
               0
100
AcDbLine
 10
0.0
 20
0.0
 30
0.0
 11
-1.0
 21
0.0
 31
0.0
  0
ENDBLK
  5
26
100
AcDbEntity
  8
0
  6
ByBlock
 62
               0
100
AcDbBlockEnd
  0
ENDSEC
  0
SECTION
  2
ENTITIES
  0
LINE
  5
3B3
100
AcDbEntity
  8
0
  6
CONTINUOUS
 62
               7
100
AcDbLine
 10
-55.199993896484372
 20
94.5
 30
0.0
 11
-55.199993896484372
 21
84.5
 31
0.0
  0
LINE
  5
3B4
100
AcDbEntity
  8
0
  6
CONTINUOUS
 62
               7
100
AcDbLine
 10
-138.39999389648437
 20
94.5
 30
0.0
 11
-138.39999389648437
 21
84.5
 31
0.0
  0
INSERT
  5
3B5
100
AcDbEntity
  8
0
  6
ByBlock
100
AcDbBlockReference
  2
MS_3
 10
-40.0
 20
29.999999999999996
 30
0.0
  0
INSERT
  5
3B6
100
AcDbEntity
  8
0
  6
ByBlock
100
AcDbBlockReference
  2
MS_2
 10
40.0
 20
-40.0
 30
0.0
  0
INSERT
  5
3B7
100
AcDbEntity
  8
0
  6
ByBlock
100
AcDbBlockReference
  2
MS_1
 10
-40.0
 20
-40.0
 30
0.0
  0
LINE
  5
3B8
100
AcDbEntity
  8
0
  6
CONTINUOUS
 62
               7
100
AcDbLine
 10
73.350006103515625
 20
-84.800003051757813
 30
0.0
 11
138.35000610351562
 21
-84.800003051757813
 31
0.0
  0
LINE
  5
3B9
100
AcDbEntity
  8
0
  6
CONTINUOUS
 62
               7
100
AcDbLine
 10
73.350006103515625
 20
-84.800003051757813
 30
0.0
 11
73.350006103515625
 21
-94.800003051757812
 31
0.0
  0
MTEXT
  5
3BA
100
AcDbEntity
  8
0
  6
CONTINUOUS
 62
               7
100
AcDbMText
 10
77.440523342735503
 20
-89.800003051757812
 30
0.0
 40
4.5
 41
0.0
 71
               4
 72
               1
  1
\W1.121;\A1;KOGANEI CORP.
  0
LINE
  5
3BB
100
AcDbEntity
  8
0
  6
CONTINUOUS
 62
               7
100
AcDbLine
 10
73.350006103515625
 20
94.5
 30
0.0
 11
73.350006103515625
 21
84.5
 31
0.0
  0
LINE
  5
3BC
100
AcDbEntity
  8
0
  6
CONTINUOUS
 62
               7
100
AcDbLine
 10
73.350006103515625
 20
84.5
 30
0.0
 11
138.35000610351562
 21
84.5
 31
0.0
  0
MTEXT
  5
3BD
100
AcDbEntity
  8
0
  6
CONTINUOUS
 62
               7
100
AcDbMText
 10
93.749460369842424
 20
89.5
 30
0.0
 40
3.1999998092651367
 41
0.0
 71
               4
 72
               1
  1
\W1.311;\A1;Ver. 1.0
  0
MTEXT
  5
3BE
100
AcDbEntity
  8
0
  6
CONTINUOUS
 62
               7
100
AcDbMText
 10
-104.26666011810303
 20
89.099999904632568
 30
0.0
 40
3.1999998092651367
 41
0.0
 71
               1
 72
               1
  1
\A1;GS6-P
  0
MTEXT
  5
3BF
100
AcDbEntity
  8
0
  6
CONTINUOUS
 62
               7
100
AcDbMText
 10
-136.23341931050027
 20
93.099999904632568
 30
0.0
 40
3.1999998092651367
 41
0.0
 71
               1
 72
               1
  1
\W1.062;\A1;DIGITAL PRESSURE SWITCHES
  0
LINE
  5
3C0
100
AcDbEntity
  8
0
  6
CONTINUOUS
 62
               7
100
AcDbLine
 10
-138.39999389648437
 20
84.5
 30
0.0
 11
-55.199993896484372
 21
84.5
 31
0.0
  0
MTEXT
  5
3C1
100
AcDbEntity
  8
0
  6
CONTINUOUS
 62
               7
100
AcDbMText
 10
-110.22294444642506
 20
69.5
 30
0.0
 40
3.2000000476837158
 41
0.0
 71
               4
 72
               1
  1
\W1.082;\A1;GS620(-A)-P
  0
LINE
  5
3C2
100
AcDbEntity
  8
0
  6
CONTINUOUS
 62
               7
100
AcDbLine
 10
-138.39999389648437
 20
94.5
 30
0.0
 11
138.35000610351562
 21
94.5
 31
0.0
  0
LINE
  5
3C3
100
AcDbEntity
  8
0
  6
CONTINUOUS
 62
               7
100
AcDbLine
 10
138.35000610351562
 20
94.5
 30
0.0
 11
138.35000610351562
 21
-94.800003051757812
 31
0.0
  0
LINE
  5
3C4
100
AcDbEntity
  8
0
  6
CONTINUOUS
 62
               7
100
AcDbLine
 10
-138.39999389648437
 20
-94.800003051757812
 30
0.0
 11
138.35000610351562
 21
-94.800003051757812
 31
0.0
  0
LINE
  5
3C5
100
AcDbEntity
  8
0
  6
CONTINUOUS
 62
               7
100
AcDbLine
 10
-138.39999389648437
 20
94.5
 30
0.0
 11
-138.39999389648437
 21
-94.800003051757812
 31
0.0
  0
MTEXT
  5
3C6
100
AcDbEntity
  8
0
  6
CONTINUOUS
 62
               7
100
AcDbMText
 10
-129.40219171557388
 20
74.5
 30
0.0
 40
3.2000000476837158
 41
0.0
 71
               4
 72
               1
  1
\W1.121;\A1;MODEL:GS610(-A)-P
  0
ENDSEC
  0
SECTION
  2
OBJECTS
  0
DICTIONARY
  5
19
100
AcDbDictionary
  3
ACAD_GROUP
350
1A
  3
ACAD_MLINESTYLE
350
1B
  0
DICTIONARY
  5
1A
102
{ACAD_REACTORS
330
19
102
}
100
AcDbDictionary
  0
DICTIONARY
  5
1B
102
{ACAD_REACTORS
330
19
102
}
100
AcDbDictionary
  3
STANDARD
350
1C
  0
MLINESTYLE
  5
1C
102
{ACAD_REACTORS
330
1B
102
}
100
AcDbMlineStyle
  2
Standard
 70
               0
  3

 62
               0
 51
90.0
 52
90.0
 71
               2
 49
0.5
 62
             256
  6
ByLayer
 49
-0.5
 62
             256
  6
ByLayer
  0
ENDSEC
  0
EOF
