  0
SECTION
  2
HEADER
  0
ENDSEC
  0
SECTION
  2
TABLES
  0
TABLE
  2
LTYPE
 70
     4
  0
LTYPE
  2
CONTINUOUS
 70
    64
  3
Solid line
 72
    65
 73
     0
 40
0.000000
  0
LTYPE
  2
DASHED
 70
    64
  3
__ __ __ __ __ __ __ __ __ __ __ __ __ __ __
 72
    65
 73
     2
 40
3.500000
 49
2.000000
 49
-1.500000
  0
LTYPE
  2
CENTER
 70
    64
  3
____ _ ____ _ ____ _ ____ _ ____ _ ____ _ ____
 72
    65
 73
     4
 40
17.500000
 49
13.000000
 49
-1.500000
 49
1.500000
 49
-1.500000
  0
LTYPE
  2
PHANTOM
 70
    64
  3
_____ _ _ _____ _ _ _____ _ _ _____ _ _ ____  
 72
    65
 73
     6
 40
15.500000
 49
8.000000
 49
-1.500000
 49
1.500000
 49
-1.500000
 49
1.500000
 49
-1.500000
  0
LTYPE
  2
DASHED1
 70
    64
  3
__ __ __ __ __ __ __ __ __ __ __ __ __ __ __
 72
    65
 73
     2
 40
1.500000
 49
1.000000
 49
-0.500000
  0
LTYPE
  2
DASHED2
 70
    64
  3
__ __ __ __ __ __ __ __ __ __ __ __ __ __ __
 72
    65
 73
     2
 40
3.500000
 49
2.500000
 49
-1.000000
  0
LTYPE
  2
DASHED3
 70
    64
  3
__ __ __ __ __ __ __ __ __ __ __ __ __ __ __
 72
    65
 73
     2
 40
6.000000
 49
4.000000
 49
-2.000000
  0
LTYPE
  2
DASHED4
 70
    64
  3
__ __ __ __ __ __ __ __ __ __ __ __ __ __ __
 72
    65
 73
     2
 40
12.000000
 49
10.000000
 49
-2.000000
  0
LTYPE
  2
DASHED5
 70
    64
  3
__ __ __ __ __ __ __ __ __ __ __ __ __ __ __
 72
    65
 73
     2
 40
17.000000
 49
15.000000
 49
-2.000000
  0
LTYPE
  2
DASHED6
 70
    64
  3
__ __ __ __ __ __ __ __ __ __ __ __ __ __ __
 72
    65
 73
     2
 40
29.000000
 49
27.000000
 49
-2.000000
  0
LTYPE
  2
PHANTOM1
 70
    64
  3
_____ _ _ _____ _ _ _____ _ _ _____ _ _ ____  
 72
    65
 73
     6
 40
31.000000
 49
25.000000
 49
-1.500000
 49
1.000000
 49
-1.000000
 49
1.000000
 49
-1.500000
  0
LTYPE
  2
PHANTOM2
 70
    64
  3
_____ _ _ _____ _ _ _____ _ _ _____ _ _ ____  
 72
    65
 73
     6
 40
36.000000
 49
27.000000
 49
-1.500000
 49
2.500000
 49
-1.000000
 49
2.500000
 49
-1.500000
  0
LTYPE
  2
PHANTOM3
 70
    64
  3
_____ _ _ _____ _ _ _____ _ _ _____ _ _ ____  
 72
    65
 73
     6
 40
78.000000
 49
64.000000
 49
-2.000000
 49
4.000000
 49
-2.000000
 49
4.000000
 49
-2.000000
  0
LTYPE
  2
CENTER1
 70
    64
  3
____ _ ____ _ ____ _ ____ _ ____ _ ____ _ ____
 72
    65
 73
     4
 40
19.000000
 49
14.000000
 49
-1.000000
 49
3.000000
 49
-1.000000
  0
LTYPE
  2
CENTER2
 70
    64
  3
____ _ ____ _ ____ _ ____ _ ____ _ ____ _ ____
 72
    65
 73
     4
 40
28.500000
 49
25.000000
 49
-1.000000
 49
1.500000
 49
-1.000000
  0
LTYPE
  2
CENTER3
 70
    64
  3
____ _ ____ _ ____ _ ____ _ ____ _ ____ _ ____
 72
    65
 73
     4
 40
31.500000
 49
27.000000
 49
-1.000000
 49
2.500000
 49
-1.000000
  0
LTYPE
  2
CENTER4
 70
    64
  3
____ _ ____ _ ____ _ ____ _ ____ _ ____ _ ____
 72
    65
 73
     4
 40
50.000000
 49
45.000000
 49
-1.000000
 49
3.000000
 49
-1.000000
  0
LTYPE
  2
CENTER5
 70
    64
  3
____ _ ____ _ ____ _ ____ _ ____ _ ____ _ ____
 72
    65
 73
     4
 40
100.000000
 49
92.000000
 49
-2.000000
 49
4.000000
 49
-2.000000
  0
LTYPE
  2
SBK1
 70
    64
  3
______ _ _ _ ______ _ _ _ ______ _ _ _ _____  
 72
    65
 73
     8
 40
60.500000
 49
45.000000
 49
-2.000000
 49
2.500000
 49
-2.000000
 49
2.500000
 49
-2.000000
 49
2.500000
 49
-2.000000
  0
LTYPE
  2
SBK2
 70
    64
  3
______ _ _ _ ______ _ _ _ ______ _ _ _ _____  
 72
    65
 73
     8
 40
84.000000
 49
64.000000
 49
-2.000000
 49
4.000000
 49
-2.000000
 49
4.000000
 49
-2.000000
 49
4.000000
 49
-2.000000
  0
LTYPE
  2
STCH
 70
    64
  3
__ __ __ __ __ __ __ __ __ __ __ __ __ __ __
 72
    65
 73
     2
 40
3.000000
 49
1.000000
 49
-2.000000
  0
LTYPE
  2
MTCH
 70
    64
  3
_____ _ _ _____ _ _ _____ _ _ _____ _ _ ____  
 72
    65
 73
     6
 40
80.000000
 49
66.000000
 49
-2.000000
 49
4.000000
 49
-2.000000
 49
4.000000
 49
-2.000000
  0
ENDTAB
  0
TABLE
  2
LAYER
 70
     1
  0
LAYER
  2
0
 70
     0
 62
     7
  6
CONTINUOUS
  0
ENDTAB
  0
TABLE
  2
STYLE
 70
     1
  0
STYLE
  2
STANDARD
 70
     0
 40
0.000000
 41
1.000000
 50
0.000000
 71
     0
 42
0.200000
  3
txt
  4
BIGFONT
  0
ENDTAB
  0
TABLE
  2
VIEW
 70
     0
  0
ENDTAB
  0
ENDSEC
  0
SECTION
  2
BLOCKS
  0
ENDSEC
  0
SECTION
  2
ENTITIES
  0
LINE
  8
0
  6
CENTER
 62
     2
 10
12.925831
 20
-62.171814
 11
19.195059
 21
-62.171814
  0
LINE
  8
0
 62
     4
 10
14.071022
 20
-62.571808
 11
17.990206
 21
-62.571808
  0
LINE
  8
0
 62
     4
 10
14.071022
 20
-61.771812
 11
17.990206
 21
-61.771812
  0
LINE
  8
0
  6
CENTER
 62
     2
 10
12.925831
 20
5.228189
 11
19.195059
 21
5.228189
  0
LINE
  8
0
 62
     4
 10
14.071022
 20
4.828189
 11
17.990206
 21
4.828189
  0
LINE
  8
0
 62
     4
 10
14.071022
 20
5.628189
 11
17.990206
 21
5.628189
  0
LINE
  8
0
 62
     4
 10
7.030614
 20
-63.971809
 11
-0.969386
 21
-63.971809
  0
LINE
  8
0
 10
12.779502
 20
-61.971809
 11
14.165143
 21
-59.571808
  0
LINE
  8
0
 10
17.896084
 20
-59.571804
 11
19.281725
 21
-61.971806
  0
LINE
  8
0
 10
14.511555
 20
-59.371811
 11
17.549675
 21
-59.371811
  0
LINE
  8
0
 10
12.433094
 20
-62.171814
 11
7.030614
 21
-62.171814
  0
LINE
  8
0
 10
19.628136
 20
-62.171814
 11
25.030615
 21
-62.171814
  0
LINE
  8
0
 62
     4
 10
12.775614
 20
-106.831810
 11
12.775614
 21
-111.401810
  0
LINE
  8
0
 62
     4
 10
14.205614
 20
-107.211807
 11
14.205614
 21
-111.401810
  0
LINE
  8
0
 62
     4
 10
13.890614
 20
-111.401810
 11
13.890614
 21
-116.401810
  0
LINE
  8
0
 62
     4
 10
13.090614
 20
-111.401810
 11
13.090614
 21
-116.401810
  0
LINE
  8
0
 62
     4
 10
14.205614
 20
-111.401810
 11
12.775614
 21
-111.401810
  0
LINE
  8
0
 62
     4
 10
13.890614
 20
-116.401810
 11
13.090614
 21
-116.401810
  0
LINE
  8
0
 62
     4
 10
14.205614
 20
-100.871811
 11
14.205614
 21
-105.971809
  0
LINE
  8
0
 62
     4
 10
12.775614
 20
-100.871811
 11
12.775614
 21
-105.601807
  0
LINE
  8
0
 62
     4
 10
18.170614
 20
-116.401810
 11
18.970615
 21
-116.401810
  0
LINE
  8
0
 62
     4
 10
17.855614
 20
-111.401810
 11
19.285614
 21
-111.401810
  0
LINE
  8
0
 62
     4
 10
18.970615
 20
-111.401810
 11
18.970615
 21
-116.401810
  0
LINE
  8
0
 62
     4
 10
18.170614
 20
-111.401810
 11
18.170614
 21
-116.401810
  0
LINE
  8
0
 62
     4
 10
19.285614
 20
-108.577812
 11
19.285614
 21
-111.401810
  0
LINE
  8
0
 62
     4
 10
17.855614
 20
-108.196480
 11
17.855614
 21
-111.401810
  0
LINE
  8
0
 62
     1
 10
10.450615
 20
-106.221802
 11
21.548925
 21
-109.181351
  0
LINE
  8
0
 62
     1
 10
10.450614
 20
-104.981804
 11
21.548927
 21
-107.941360
  0
LINE
  8
0
 62
     4
 10
19.285614
 20
-100.871811
 11
19.285614
 21
-107.337807
  0
LINE
  8
0
 62
     4
 10
17.855614
 20
-100.871811
 11
17.855614
 21
-106.956474
  0
LINE
  8
0
 62
     4
 10
11.930614
 20
-95.871811
 11
11.930614
 21
-95.771812
  0
LINE
  8
0
 62
     4
 10
20.130615
 20
-95.871811
 11
20.130615
 21
-95.771812
  0
LINE
  8
0
 62
     4
 10
13.530615
 20
-95.871811
 11
11.330614
 21
-95.871811
  0
LINE
  8
0
 62
     4
 10
20.730616
 20
-95.871811
 11
18.530615
 21
-95.871811
  0
LINE
  8
0
 62
     4
 10
13.530615
 20
-92.237831
 11
18.530615
 21
-92.237831
  0
LINE
  8
0
 62
     4
 10
13.530615
 20
-95.771812
 11
11.030615
 21
-95.771812
  0
LINE
  8
0
 62
     4
 10
11.330614
 20
-95.871811
 11
11.330614
 21
-100.871811
  0
LINE
  8
0
 62
     4
 10
13.530615
 20
-91.371811
 11
13.530615
 21
-99.871811
  0
LINE
  8
0
 62
     4
 10
12.430614
 20
-95.871811
 11
12.430614
 21
-100.871811
  0
LINE
  8
0
 62
     4
 10
19.630615
 20
-95.871811
 11
19.630615
 21
-100.871811
  0
LINE
  8
0
 62
     4
 10
13.530615
 20
-98.871811
 11
18.530615
 21
-98.871811
  0
LINE
  8
0
 62
     4
 10
13.530615
 20
-99.160484
 11
18.530615
 21
-99.160484
  0
LINE
  8
0
 62
     4
 10
18.530615
 20
-91.371811
 11
18.530615
 21
-99.871811
  0
LINE
  8
0
 62
     4
 10
20.730616
 20
-95.871811
 11
20.730616
 21
-100.871811
  0
LINE
  8
0
 62
     4
 10
18.530615
 20
-99.871811
 11
13.530615
 21
-99.871811
  0
LINE
  8
0
 62
     4
 10
20.730616
 20
-100.871811
 11
11.330614
 21
-100.871811
  0
LINE
  8
0
 62
     4
 10
18.530615
 20
-91.371811
 11
13.530615
 21
-91.371811
  0
LINE
  8
0
 62
     1
 10
14.530615
 20
-87.271812
 11
14.530615
 21
-90.271812
  0
LINE
  8
0
 62
     1
 10
17.530615
 20
-87.271812
 11
14.530615
 21
-87.271812
  0
LINE
  8
0
 62
     1
 10
17.530615
 20
-87.271812
 11
17.530615
 21
-90.271812
  0
LINE
  8
0
 62
     4
 10
13.130615
 20
-90.271812
 11
13.130615
 21
-95.771812
  0
LINE
  8
0
 62
     4
 10
18.930614
 20
-90.271812
 11
18.930614
 21
-95.771812
  0
LINE
  8
0
 62
     4
 10
21.030615
 20
-95.771812
 11
18.530615
 21
-95.771812
  0
LINE
  8
0
 62
     4
 10
21.030615
 20
-70.671806
 11
21.030615
 21
-95.771812
  0
LINE
  8
0
 62
     4
 10
11.030615
 20
-70.671806
 11
11.030615
 21
-95.771812
  0
LINE
  8
0
 62
     4
 10
11.030615
 20
-71.871811
 11
21.030615
 21
-71.871811
  0
LINE
  8
0
 62
     4
 10
11.330614
 20
-90.271812
 11
20.730616
 21
-90.271812
  0
LINE
  8
0
 62
     4
 10
21.030615
 20
-71.571808
 11
11.030615
 21
-71.571808
  0
LINE
  8
0
 10
21.580614
 20
-71.171806
 11
22.030615
 21
-71.171806
  0
LINE
  8
0
 10
21.280615
 20
-70.671806
 11
21.280615
 21
-70.871811
  0
LINE
  8
0
 10
10.780615
 20
-70.671806
 11
10.780615
 21
-70.871811
  0
LINE
  8
0
 10
10.030615
 20
-71.171806
 11
10.480614
 21
-71.171806
  0
LINE
  8
0
 10
7.030616
 20
-68.171814
 11
10.030613
 21
-71.171806
  0
LINE
  8
0
 10
22.030609
 20
-71.171806
 11
25.030611
 21
-68.171814
  0
LINE
  8
0
 10
21.280615
 20
-70.671806
 11
10.780615
 21
-70.671806
  0
LINE
  8
0
 10
7.030614
 20
-44.732758
 11
7.030614
 21
-68.171814
  0
LINE
  8
0
 10
8.469954
 20
-44.532475
 11
10.591274
 21
-42.411152
  0
LINE
  8
0
 10
8.469954
 20
-42.411152
 11
10.591276
 21
-44.532471
  0
LINE
  8
0
 10
25.030615
 20
-14.732760
 11
25.030615
 21
-68.171814
  0
LINE
  8
0
 10
21.469954
 20
-14.532472
 11
23.591274
 21
-12.411151
  0
LINE
  8
0
 10
21.469954
 20
-12.411151
 11
23.591274
 21
-14.532472
  0
LINE
  8
0
  6
CENTER
 62
     2
 10
16.030615
 20
61.803749
 11
16.030615
 21
-118.747368
  0
LINE
  8
0
 10
7.030614
 20
-49.471809
 11
25.030615
 21
-49.471809
  0
LINE
  8
0
 10
21.280615
 20
13.728189
 11
10.780615
 21
13.728189
  0
LINE
  8
0
 10
25.030615
 20
-7.471811
 11
7.030614
 21
-7.471811
  0
LINE
  8
0
 10
12.433094
 20
5.228189
 11
7.030614
 21
5.228189
  0
LINE
  8
0
 10
19.628136
 20
5.228189
 11
25.030615
 21
5.228189
  0
LINE
  8
0
 10
7.030614
 20
11.228189
 11
7.030614
 21
-42.210861
  0
LINE
  8
0
 10
25.030615
 20
11.228189
 11
25.030615
 21
-12.210862
  0
LINE
  8
0
 10
22.030615
 20
14.228189
 11
25.030615
 21
11.228190
  0
LINE
  8
0
 10
7.030614
 20
11.228189
 11
10.030614
 21
14.228189
  0
LINE
  8
0
 10
10.030615
 20
14.228189
 11
10.480614
 21
14.228189
  0
LINE
  8
0
 10
10.780615
 20
13.728189
 11
10.780615
 21
13.928188
  0
LINE
  8
0
 10
21.280615
 20
13.728189
 11
21.280615
 21
13.928188
  0
LINE
  8
0
 10
14.511555
 20
2.428188
 11
17.549675
 21
2.428188
  0
LINE
  8
0
 10
17.896084
 20
2.628188
 11
19.281725
 21
5.028189
  0
LINE
  8
0
 10
12.779504
 20
5.028189
 11
14.165144
 21
2.628189
  0
LINE
  8
0
 10
21.580614
 20
14.228189
 11
22.030615
 21
14.228189
  0
LINE
  8
0
 62
     4
 10
21.030615
 20
14.628189
 11
11.030615
 21
14.628189
  0
LINE
  8
0
 62
     4
 10
11.330614
 20
33.328186
 11
20.730616
 21
33.328186
  0
LINE
  8
0
 62
     4
 10
11.030615
 20
14.928188
 11
21.030615
 21
14.928188
  0
LINE
  8
0
 62
     4
 10
11.030615
 20
13.728189
 11
11.030615
 21
38.828186
  0
LINE
  8
0
 62
     4
 10
21.030615
 20
13.728189
 11
21.030615
 21
38.828186
  0
LINE
  8
0
 62
     4
 10
21.030615
 20
38.828186
 11
18.530615
 21
38.828186
  0
LINE
  8
0
 62
     4
 10
18.930614
 20
33.328186
 11
18.930614
 21
38.828186
  0
LINE
  8
0
 62
     4
 10
13.130615
 20
33.328186
 11
13.130615
 21
38.828186
  0
LINE
  8
0
 62
     1
 10
17.530615
 20
30.328188
 11
17.530615
 21
33.328186
  0
LINE
  8
0
 62
     1
 10
17.530615
 20
30.328188
 11
14.530615
 21
30.328188
  0
LINE
  8
0
 62
     1
 10
14.530615
 20
30.328188
 11
14.530615
 21
33.328186
  0
LINE
  8
0
 62
     4
 10
18.530615
 20
34.428192
 11
13.530615
 21
34.428192
  0
LINE
  8
0
 62
     4
 10
20.730616
 20
43.928192
 11
11.330614
 21
43.928192
  0
LINE
  8
0
 62
     4
 10
18.530615
 20
42.928192
 11
13.530615
 21
42.928192
  0
LINE
  8
0
 62
     4
 10
20.730616
 20
38.928192
 11
20.730616
 21
43.928192
  0
LINE
  8
0
 62
     4
 10
18.530615
 20
34.428192
 11
18.530615
 21
42.928192
  0
LINE
  8
0
 62
     4
 10
13.530615
 20
42.216866
 11
18.530615
 21
42.216866
  0
LINE
  8
0
 62
     4
 10
13.530615
 20
41.928192
 11
18.530615
 21
41.928192
  0
LINE
  8
0
 62
     4
 10
19.630615
 20
38.928192
 11
19.630615
 21
43.928192
  0
LINE
  8
0
 62
     4
 10
12.430614
 20
38.928192
 11
12.430614
 21
43.928192
  0
LINE
  8
0
 62
     4
 10
13.530615
 20
34.428192
 11
13.530615
 21
42.928192
  0
LINE
  8
0
 62
     4
 10
11.330614
 20
38.928192
 11
11.330614
 21
43.928192
  0
LINE
  8
0
 62
     4
 10
13.530615
 20
38.828186
 11
11.030615
 21
38.828186
  0
LINE
  8
0
 62
     4
 10
13.530615
 20
35.294212
 11
18.530615
 21
35.294212
  0
LINE
  8
0
 62
     4
 10
20.730616
 20
38.928192
 11
18.530615
 21
38.928192
  0
LINE
  8
0
 62
     4
 10
13.530615
 20
38.928192
 11
11.330614
 21
38.928192
  0
LINE
  8
0
 62
     4
 10
20.130615
 20
38.928192
 11
20.130615
 21
38.828186
  0
LINE
  8
0
 62
     4
 10
11.930614
 20
38.928192
 11
11.930614
 21
38.828186
  0
LINE
  8
0
 62
     4
 10
14.205614
 20
43.928192
 11
14.205614
 21
50.012856
  0
LINE
  8
0
 62
     4
 10
12.775614
 20
43.928192
 11
12.775614
 21
50.394188
  0
LINE
  8
0
 62
     1
 10
21.610615
 20
48.038189
 11
10.512300
 21
50.997738
  0
LINE
  8
0
 62
     1
 10
21.610615
 20
49.278191
 11
10.512300
 21
52.237740
  0
LINE
  8
0
 62
     4
 10
14.205614
 20
51.252853
 11
14.205614
 21
54.458191
  0
LINE
  8
0
 62
     4
 10
12.775614
 20
51.634186
 11
12.775614
 21
54.458191
  0
LINE
  8
0
 62
     4
 10
13.890614
 20
54.458191
 11
13.890614
 21
59.458191
  0
LINE
  8
0
 62
     4
 10
13.090614
 20
54.458191
 11
13.090614
 21
59.458191
  0
LINE
  8
0
 62
     4
 10
14.205614
 20
54.458191
 11
12.775614
 21
54.458191
  0
LINE
  8
0
 62
     4
 10
13.890614
 20
59.458191
 11
13.090614
 21
59.458191
  0
LINE
  8
0
 62
     4
 10
19.285614
 20
43.928192
 11
19.285614
 21
48.658188
  0
LINE
  8
0
 62
     4
 10
17.855614
 20
43.928192
 11
17.855614
 21
49.028191
  0
LINE
  8
0
 62
     4
 10
18.170614
 20
59.458191
 11
18.970615
 21
59.458191
  0
LINE
  8
0
 62
     4
 10
17.855614
 20
54.458191
 11
19.285614
 21
54.458191
  0
LINE
  8
0
 62
     4
 10
18.970615
 20
54.458191
 11
18.970615
 21
59.458191
  0
LINE
  8
0
 62
     4
 10
18.170614
 20
54.458191
 11
18.170614
 21
59.458191
  0
LINE
  8
0
 62
     4
 10
17.855614
 20
50.268188
 11
17.855614
 21
54.458191
  0
LINE
  8
0
 62
     4
 10
19.285614
 20
49.888191
 11
19.285614
 21
54.458191
  0
LINE
  8
0
  6
CENTER
 62
     1
 10
2.530614
 20
-3.471811
 11
2.530614
 21
-9.471811
  0
LINE
  8
0
  6
CENTER
 62
     1
 10
29.530615
 20
-35.471809
 11
29.530615
 21
-41.471809
  0
LINE
  8
0
  6
CENTER
 62
     1
 10
5.530614
 20
-6.471811
 11
-0.469386
 21
-6.471811
  0
LINE
  8
0
  6
CENTER
 62
     1
 10
32.530613
 20
-38.471809
 11
26.530615
 21
-38.471809
  0
LINE
  8
0
 62
     4
 10
7.030614
 20
7.028189
 11
-0.969386
 21
7.028189
  0
LINE
  8
0
 62
     4
 10
33.030613
 20
-63.971809
 11
25.030615
 21
-63.971809
  0
LINE
  8
0
 62
     4
 10
33.030613
 20
7.028189
 11
25.030615
 21
7.028189
  0
LINE
  8
0
 62
     4
 10
33.030613
 20
7.028189
 11
33.030613
 21
-63.971809
  0
LINE
  8
0
 62
     4
 10
-0.969386
 20
7.028189
 11
-0.969386
 21
-63.971809
  0
LINE
  8
0
  6
CENTER
 62
     2
 10
22.529249
 20
107.443718
 11
22.529249
 21
116.349701
  0
LINE
  8
0
  6
CENTER
 62
     2
 10
9.523394
 20
107.443718
 11
9.523394
 21
116.349701
  0
LINE
  8
0
  6
CENTER
 62
     1
 10
29.530615
 20
140.079453
 11
29.530615
 21
145.309708
  0
LINE
  8
0
  6
CENTER
 62
     1
 10
2.530614
 20
140.079453
 11
2.530614
 21
145.309708
  0
LINE
  8
0
 10
11.030613
 20
110.103752
 11
8.616399
 21
107.689537
  0
LINE
  8
0
 10
11.030617
 20
108.103745
 11
8.616402
 21
110.517960
  0
LINE
  8
0
 10
23.444830
 20
92.517960
 11
21.030615
 21
90.103745
  0
LINE
  8
0
 10
23.444828
 20
89.689537
 11
21.030615
 21
92.103752
  0
LINE
  8
0
 10
13.030615
 20
111.003746
 11
21.657381
 21
111.003746
  0
LINE
  8
0
 10
21.030615
 20
79.303741
 11
25.030615
 21
79.303741
  0
LINE
  8
0
 10
10.030615
 20
106.103745
 11
10.030615
 21
79.303741
  0
LINE
  8
0
 10
21.280615
 20
88.199005
 11
21.280615
 21
79.303741
  0
LINE
  8
0
 10
22.030615
 20
88.103745
 11
22.030615
 21
79.303741
  0
LINE
  8
0
 10
13.030615
 20
110.803741
 11
13.030615
 21
112.103745
  0
LINE
  8
0
 10
10.030615
 20
106.103745
 11
7.030614
 21
106.103745
  0
LINE
  8
0
 10
22.030615
 20
94.103745
 11
25.030615
 21
94.103745
  0
LINE
  8
0
 10
22.030615
 20
88.103745
 11
25.030615
 21
88.103745
  0
LINE
  8
0
 10
13.030615
 20
111.603745
 11
21.730616
 21
111.603745
  0
LINE
  8
0
 10
22.030615
 20
111.303741
 11
22.030615
 21
94.103745
  0
LINE
  8
0
 10
25.030615
 20
112.103745
 11
25.030615
 21
79.303741
  0
LINE
  8
0
 10
7.030614
 20
112.103745
 11
7.030614
 21
79.303741
  0
LINE
  8
0
 10
7.030614
 20
79.303741
 11
11.030615
 21
79.303741
  0
LINE
  8
0
 10
7.030614
 20
112.103745
 11
25.030615
 21
112.103745
  0
LINE
  8
0
 10
21.280615
 20
111.003746
 11
21.280615
 21
94.008484
  0
LINE
  8
0
 10
10.780615
 20
106.199005
 11
10.780615
 21
79.303741
  0
LINE
  8
0
 62
     4
 10
11.030615
 20
110.803741
 11
21.030615
 21
110.803741
  0
LINE
  8
0
 62
     4
 10
20.730616
 20
96.303741
 11
21.030615
 21
96.303741
  0
LINE
  8
0
 62
     4
 10
20.730616
 20
96.403748
 11
21.030615
 21
96.403748
  0
LINE
  8
0
 62
     4
 10
13.530615
 20
91.003746
 11
11.330614
 21
91.003746
  0
LINE
  8
0
 62
     4
 10
13.530615
 20
92.003746
 11
13.130615
 21
92.003746
  0
LINE
  8
0
 62
     4
 10
18.530615
 20
91.203743
 11
13.530615
 21
91.203743
  0
LINE
  8
0
 62
     4
 10
18.530615
 20
90.003746
 11
13.530615
 21
90.003746
  0
LINE
  8
0
 62
     4
 10
19.730616
 20
92.503746
 11
12.330614
 21
92.503746
  0
LINE
  8
0
 62
     4
 10
20.730616
 20
96.803741
 11
20.730616
 21
91.503746
  0
LINE
  8
0
 62
     4
 10
11.330614
 20
96.803741
 11
11.330614
 21
91.503746
  0
LINE
  8
0
 62
     4
 10
20.730616
 20
96.803741
 11
11.330614
 21
96.803741
  0
LINE
  8
0
 62
     4
 10
19.120615
 20
95.103745
 11
19.120615
 21
95.603745
  0
LINE
  8
0
 62
     4
 10
18.020615
 20
95.103745
 11
18.020615
 21
95.603745
  0
LINE
  8
0
 62
     4
 10
19.520615
 20
93.003746
 11
17.620615
 21
93.003746
  0
LINE
  8
0
 62
     4
 10
19.446615
 20
95.103745
 11
17.696615
 21
95.103745
  0
LINE
  8
0
 62
     4
 10
19.120615
 20
95.603745
 11
18.020615
 21
95.603745
  0
LINE
  8
0
 62
     4
 10
14.780615
 20
91.503746
 11
14.780615
 21
92.503746
  0
LINE
  8
0
 62
     4
 10
17.280615
 20
91.503746
 11
17.280615
 21
92.503746
  0
LINE
  8
0
 62
     4
 10
20.730616
 20
91.503746
 11
19.730616
 21
91.503746
  0
LINE
  8
0
 62
     4
 10
19.730616
 20
92.503746
 11
19.730616
 21
91.503746
  0
LINE
  8
0
 62
     4
 10
11.330614
 20
91.503746
 11
12.330614
 21
91.503746
  0
LINE
  8
0
 62
     4
 10
12.330614
 20
92.503746
 11
12.330614
 21
91.503746
  0
LINE
  8
0
 62
     4
 10
17.620615
 20
93.003738
 11
17.496613
 21
94.891747
  0
LINE
  8
0
 62
     4
 10
19.646616
 20
94.891747
 11
19.520615
 21
93.003746
  0
LINE
  8
0
 62
     4
 10
16.980614
 20
93.003746
 11
15.080614
 21
93.003746
  0
LINE
  8
0
 62
     4
 10
17.106615
 20
94.891747
 11
16.980616
 21
93.003746
  0
LINE
  8
0
 62
     4
 10
16.906614
 20
95.103745
 11
15.156614
 21
95.103745
  0
LINE
  8
0
 62
     4
 10
16.580614
 20
95.103745
 11
16.580614
 21
95.603745
  0
LINE
  8
0
 62
     4
 10
16.580614
 20
95.603745
 11
15.480614
 21
95.603745
  0
LINE
  8
0
 62
     4
 10
15.480614
 20
95.103745
 11
15.480614
 21
95.603745
  0
LINE
  8
0
 62
     4
 10
15.080613
 20
93.003746
 11
14.956613
 21
94.891739
  0
LINE
  8
0
 62
     4
 10
16.430614
 20
93.603745
 11
16.430614
 21
94.403748
  0
LINE
  8
0
 62
     4
 10
15.630615
 20
93.603745
 11
16.430614
 21
93.603745
  0
LINE
  8
0
 62
     4
 10
15.630615
 20
93.603745
 11
15.630615
 21
94.403748
  0
LINE
  8
0
 62
     4
 10
15.630615
 20
94.403748
 11
16.430614
 21
94.403748
  0
LINE
  8
0
 62
     4
 10
14.440615
 20
93.003746
 11
12.540615
 21
93.003746
  0
LINE
  8
0
 62
     4
 10
14.566615
 20
94.891747
 11
14.440615
 21
93.003746
  0
LINE
  8
0
 62
     4
 10
14.366615
 20
95.103745
 11
12.616615
 21
95.103745
  0
LINE
  8
0
 62
     4
 10
14.040615
 20
95.103745
 11
14.040615
 21
95.603745
  0
LINE
  8
0
 62
     4
 10
14.040615
 20
95.603745
 11
12.940615
 21
95.603745
  0
LINE
  8
0
 62
     4
 10
12.940615
 20
95.103745
 11
12.940615
 21
95.603745
  0
LINE
  8
0
 62
     4
 10
12.540614
 20
93.003746
 11
12.416615
 21
94.891747
  0
LINE
  8
0
 62
     4
 10
18.530615
 20
90.003746
 11
18.530615
 21
92.503746
  0
LINE
  8
0
 62
     4
 10
13.530615
 20
90.003746
 11
13.530615
 21
92.503746
  0
LINE
  8
0
 62
     4
 10
18.930614
 20
91.503746
 11
13.130615
 21
91.503746
  0
LINE
  8
0
 62
     4
 10
13.130615
 20
92.003746
 11
13.130615
 21
91.003746
  0
LINE
  8
0
 62
     4
 10
18.930614
 20
92.003746
 11
18.930614
 21
91.003746
  0
LINE
  8
0
 62
     4
 10
18.930614
 20
92.003746
 11
18.530615
 21
92.003746
  0
LINE
  8
0
 62
     4
 10
20.730616
 20
91.003746
 11
18.530615
 21
91.003746
  0
LINE
  8
0
 62
     4
 10
11.330614
 20
78.803741
 11
20.730616
 21
78.803741
  0
LINE
  8
0
 62
     4
 10
11.030615
 20
96.303741
 11
11.330614
 21
96.303741
  0
LINE
  8
0
 62
     1
 10
14.530615
 20
83.803741
 11
16.030615
 21
83.803741
  0
LINE
  8
0
 62
     1
 10
14.530615
 20
83.803741
 11
14.530615
 21
78.803741
  0
LINE
  8
0
 62
     1
 10
17.530615
 20
83.803741
 11
16.030615
 21
83.803741
  0
LINE
  8
0
 62
     1
 10
17.530615
 20
83.803741
 11
17.530615
 21
78.803741
  0
LINE
  8
0
 62
     4
 10
18.424986
 20
104.844574
 11
18.680618
 21
104.403748
  0
LINE
  8
0
 62
     4
 10
13.380610
 20
104.403740
 11
13.636243
 21
104.844559
  0
LINE
  8
0
 62
     4
 10
17.174990
 20
103.594559
 11
17.430618
 21
103.153740
  0
LINE
  8
0
 62
     4
 10
18.680609
 20
104.403748
 11
17.430614
 21
103.153748
  0
LINE
  8
0
 62
     4
 10
17.174982
 20
103.594559
 11
18.424984
 21
104.844566
  0
LINE
  8
0
 62
     4
 10
14.886242
 20
103.594559
 11
14.630613
 21
103.153748
  0
LINE
  8
0
 62
     4
 10
11.030615
 20
97.712929
 11
21.030615
 21
97.712929
  0
LINE
  8
0
 62
     4
 10
14.886244
 20
103.594559
 11
13.636242
 21
104.844559
  0
LINE
  8
0
 62
     4
 10
11.030615
 20
104.844559
 11
13.636244
 21
104.844559
  0
LINE
  8
0
 62
     4
 10
18.424984
 20
104.844559
 11
21.030615
 21
104.844559
  0
LINE
  8
0
 62
     4
 10
17.174984
 20
103.594559
 11
14.886244
 21
103.594559
  0
LINE
  8
0
 62
     4
 10
11.030615
 20
104.403748
 11
13.380615
 21
104.403748
  0
LINE
  8
0
 62
     4
 10
13.380614
 20
104.403748
 11
14.630614
 21
103.153740
  0
LINE
  8
0
 62
     4
 10
17.430614
 20
103.153748
 11
14.630615
 21
103.153748
  0
LINE
  8
0
 62
     4
 10
18.680614
 20
104.403748
 11
21.030615
 21
104.403748
  0
LINE
  8
0
 62
     4
 10
21.030615
 20
96.901825
 11
11.030615
 21
96.901825
  0
LINE
  8
0
 62
     4
 10
11.030615
 20
96.403748
 11
11.330614
 21
96.403748
  0
LINE
  8
0
 62
     4
 10
12.530615
 20
100.703743
 11
11.030615
 21
100.703743
  0
LINE
  8
0
 62
     4
 10
11.030615
 20
103.903748
 11
12.530615
 21
103.903748
  0
LINE
  8
0
 62
     4
 10
19.530615
 20
103.903748
 11
21.030615
 21
103.903748
  0
LINE
  8
0
 62
     4
 10
21.030615
 20
100.703743
 11
19.530615
 21
100.703743
  0
LINE
  8
0
  6
CENTER
 62
     2
 10
13.530615
 20
100.553741
 11
18.530615
 21
100.553741
  0
LINE
  8
0
 62
     4
 10
14.205101
 20
100.853745
 11
17.856129
 21
100.853745
  0
LINE
  8
0
 62
     4
 10
16.030615
 20
100.253746
 11
17.856129
 21
100.253746
  0
LINE
  8
0
 62
     4
 10
14.205101
 20
100.253746
 11
16.030615
 21
100.253746
  0
LINE
  8
0
 62
     4
 10
20.237722
 20
103.010849
 11
18.823509
 21
101.596634
  0
LINE
  8
0
 62
     4
 10
20.237724
 20
101.596634
 11
18.823513
 21
103.010849
  0
LINE
  8
0
 62
     4
 10
11.823505
 20
101.596642
 11
13.237722
 21
103.010849
  0
LINE
  8
0
 62
     4
 10
11.823505
 20
103.010849
 11
13.237720
 21
101.596642
  0
LINE
  8
0
 62
     4
 10
11.030615
 20
79.103745
 11
11.030615
 21
110.803741
  0
LINE
  8
0
 62
     4
 10
21.030615
 20
79.103745
 11
21.030615
 21
110.803741
  0
LINE
  8
0
  6
CENTER
 62
     2
 10
16.030615
 20
151.259872
 11
16.030615
 21
72.305359
  0
LINE
  8
0
 62
     4
 10
-0.969386
 20
113.103745
 11
-0.969386
 21
143.103745
  0
LINE
  8
0
 62
     4
 10
33.030613
 20
113.103745
 11
33.030613
 21
143.103745
  0
LINE
  8
0
 62
     4
 10
33.030613
 20
113.103745
 11
-0.969386
 21
113.103745
  0
LINE
  8
0
 62
     4
 10
33.030613
 20
143.103745
 11
-0.969386
 21
143.103745
  0
LINE
  8
0
 10
7.530632
 20
112.103745
 11
7.530632
 21
113.103745
  0
LINE
  8
0
 10
24.530598
 20
112.103745
 11
24.530598
 21
113.103745
  0
LINE
  8
0
 10
156.356903
 20
-70.671806
 11
156.356903
 21
-71.171806
  0
LINE
  8
0
 10
125.056892
 20
-59.371811
 11
129.956894
 21
-59.371811
  0
LINE
  8
0
 10
157.456894
 20
-70.671814
 11
156.956894
 21
-71.171814
  0
LINE
  8
0
 62
     4
 10
155.456894
 20
-73.871811
 11
154.656891
 21
-73.871811
  0
LINE
  8
0
 62
     4
 10
154.656891
 20
-81.471809
 11
155.456894
 21
-81.471809
  0
LINE
  8
0
 62
     4
 10
154.656891
 20
-81.471809
 11
154.656891
 21
-73.871811
  0
LINE
  8
0
 62
     4
 10
156.156891
 20
-70.671806
 11
156.156891
 21
-82.171806
  0
LINE
  8
0
 62
     4
 10
155.456894
 20
-81.471809
 11
155.456894
 21
-73.871811
  0
LINE
  8
0
 10
157.256897
 20
-64.971809
 11
157.256897
 21
-66.514275
  0
LINE
  8
0
 10
157.456894
 20
-64.971809
 11
151.456894
 21
-64.971809
  0
LINE
  8
0
 10
151.656891
 20
-64.971809
 11
151.656891
 21
-66.514275
  0
LINE
  8
0
 10
151.456894
 20
-64.971809
 11
151.456894
 21
-71.171806
  0
LINE
  8
0
 10
157.456894
 20
-70.671806
 11
151.456894
 21
-70.671806
  0
LINE
  8
0
 62
     4
 10
135.856903
 20
-92.337837
 11
135.856903
 21
-98.871811
  0
LINE
  8
0
 62
     4
 10
136.356888
 20
-91.471817
 11
135.856888
 21
-92.337837
  0
LINE
  8
0
 62
     4
 10
135.856888
 20
-98.871811
 11
135.356903
 21
-99.160484
  0
LINE
  8
0
 62
     4
 10
135.356903
 20
-99.160484
 11
135.356903
 21
-99.871811
  0
LINE
  8
0
 62
     4
 10
141.656891
 20
-95.771812
 11
136.356903
 21
-95.771812
  0
LINE
  8
0
 62
     4
 10
141.656891
 20
-95.871811
 11
141.656891
 21
-99.871811
  0
LINE
  8
0
 62
     4
 10
136.856903
 20
-95.871811
 11
141.656891
 21
-95.871811
  0
LINE
  8
0
 62
     4
 10
136.856903
 20
-95.771812
 11
136.856903
 21
-100.871811
  0
LINE
  8
0
  6
PHANTOM
 62
     4
 10
136.856903
 20
-96.671806
 11
136.856903
 21
-98.170425
  0
LINE
  8
0
 62
     4
 10
136.557114
 20
-99.871811
 11
136.856873
 21
-98.171814
  0
LINE
  8
0
 62
     4
 10
142.156891
 20
-100.871811
 11
136.856903
 21
-100.871811
  0
LINE
  8
0
 62
     4
 10
140.956894
 20
-95.771812
 11
140.956894
 21
-95.871811
  0
LINE
  8
0
 62
     4
 10
142.156891
 20
-100.160484
 11
142.156891
 21
-100.871811
  0
LINE
  8
0
 62
     4
 10
141.656891
 20
-99.871811
 11
142.156891
 21
-100.160484
  0
LINE
  8
0
 62
     4
 10
136.557129
 20
-99.871811
 11
135.356903
 21
-99.871811
  0
LINE
  8
0
 62
     4
 10
136.356903
 20
-95.771812
 11
136.356903
 21
-90.271812
  0
LINE
  8
0
 62
     4
 10
141.656891
 20
-95.771812
 11
141.656891
 21
-84.371811
  0
LINE
  8
0
 62
     4
 10
136.356903
 20
-90.271812
 11
124.456894
 21
-90.271812
  0
LINE
  8
0
 62
     4
 10
124.156891
 20
-71.871811
 11
124.156891
 21
-89.971809
  0
LINE
  8
0
 62
     4
 10
146.056885
 20
-85.671806
 11
146.056885
 21
-84.671806
  0
LINE
  8
0
 62
     4
 10
146.156891
 20
-84.771812
 11
146.156891
 21
-84.671806
  0
LINE
  8
0
 62
     4
 10
148.656891
 20
-85.271812
 11
146.656891
 21
-85.271812
  0
LINE
  8
0
 62
     4
 10
150.374039
 20
-82.171806
 11
149.756897
 21
-85.671806
  0
LINE
  8
0
 62
     4
 10
149.256897
 20
-85.671806
 11
149.256897
 21
-84.671806
  0
LINE
  8
0
 62
     4
 10
149.156891
 20
-84.771812
 11
149.156891
 21
-84.671806
  0
LINE
  8
0
 62
     4
 10
149.256897
 20
-84.671806
 11
146.056885
 21
-84.671806
  0
LINE
  8
0
 62
     4
 10
124.156891
 20
-71.571808
 11
124.456894
 21
-71.871811
  0
LINE
  8
0
 62
     4
 10
124.156891
 20
-71.871811
 11
125.656891
 21
-71.871811
  0
LINE
  8
0
 62
     4
 10
124.156891
 20
-70.671806
 11
124.156891
 21
-71.571808
  0
LINE
  8
0
 62
     4
 10
125.656891
 20
-84.371811
 11
141.756897
 21
-84.371811
  0
LINE
  8
0
 62
     4
 10
149.756897
 20
-85.671806
 11
143.066071
 21
-85.671806
  0
LINE
  8
0
 62
     4
 10
125.656891
 20
-84.371811
 11
125.656891
 21
-71.871811
  0
LINE
  8
0
 62
     4
 10
141.656891
 20
-89.671806
 11
141.756897
 21
-89.671806
  0
LINE
  8
0
 62
     4
 10
142.254974
 20
-90.271812
 11
141.756897
 21
-90.271812
  0
LINE
  8
0
 62
     4
 10
141.756897
 20
-84.371811
 11
141.756897
 21
-90.271812
  0
LINE
  8
0
 62
     4
 10
143.066071
 20
-85.671814
 11
142.254974
 21
-90.271805
  0
LINE
  8
0
 10
156.156891
 20
-71.171806
 11
156.956894
 21
-71.171806
  0
LINE
  8
0
 62
     4
 10
124.156891
 20
-70.671806
 11
124.656891
 21
-70.671806
  0
LINE
  8
0
 62
     4
 10
140.071899
 20
-100.871811
 11
140.071899
 21
-105.883141
  0
LINE
  8
0
 62
     4
 10
138.641891
 20
-100.871811
 11
138.641891
 21
-105.501808
  0
LINE
  8
0
 62
     1
 10
136.316879
 20
-104.881805
 11
142.316895
 21
-106.481804
  0
LINE
  8
0
 62
     1
 10
136.316895
 20
-106.121803
 11
142.316895
 21
-107.721802
  0
LINE
  8
0
 62
     4
 10
140.071899
 20
-107.123146
 11
140.071899
 21
-111.301811
  0
LINE
  8
0
 62
     4
 10
138.641891
 20
-106.741806
 11
138.641891
 21
-111.301811
  0
LINE
  8
0
 62
     4
 10
138.956894
 20
-111.301811
 11
138.956894
 21
-116.301811
  0
LINE
  8
0
 62
     4
 10
139.756897
 20
-111.301811
 11
139.756897
 21
-116.301811
  0
LINE
  8
0
 62
     4
 10
138.641891
 20
-111.301811
 11
140.071899
 21
-111.301811
  0
LINE
  8
0
 62
     4
 10
138.956894
 20
-116.301811
 11
139.756897
 21
-116.301811
  0
LINE
  8
0
 10
125.056892
 20
-62.171814
 11
130.056885
 21
-62.171814
  0
LINE
  8
0
 62
     4
 10
156.156891
 20
-82.171806
 11
150.374039
 21
-82.171806
  0
LINE
  8
0
 10
151.456894
 20
-71.171806
 11
124.656891
 21
-71.171806
  0
LINE
  8
0
 10
124.656891
 20
-59.771812
 11
124.656891
 21
-71.171806
  0
LINE
  8
0
 10
157.456894
 20
-70.671806
 11
157.456894
 21
13.728189
  0
LINE
  8
0
 10
133.456894
 20
-15.121811
 11
130.456894
 21
-15.121811
  0
LINE
  8
0
 10
133.456894
 20
-11.811811
 11
130.456894
 21
-11.811811
  0
LINE
  8
0
 10
133.456894
 20
-15.121811
 11
133.456894
 21
-11.811811
  0
LINE
  8
0
 10
125.056892
 20
2.428188
 11
129.956894
 21
2.428188
  0
LINE
  8
0
 10
125.056892
 20
5.228189
 11
130.056885
 21
5.228189
  0
LINE
  8
0
 10
130.456894
 20
-61.771812
 11
130.456894
 21
4.828189
  0
LINE
  8
0
 10
157.456894
 20
-7.471811
 11
130.456894
 21
-7.471811
  0
LINE
  8
0
 10
157.456894
 20
-49.471809
 11
130.456894
 21
-49.471809
  0
LINE
  8
0
 62
     4
 10
138.956894
 20
59.358192
 11
139.756897
 21
59.358192
  0
LINE
  8
0
 62
     4
 10
138.641891
 20
54.358192
 11
140.071899
 21
54.358192
  0
LINE
  8
0
 62
     4
 10
139.756897
 20
54.358192
 11
139.756897
 21
59.358192
  0
LINE
  8
0
 62
     4
 10
138.956894
 20
54.358192
 11
138.956894
 21
59.358192
  0
LINE
  8
0
 62
     4
 10
138.641891
 20
50.179520
 11
138.641891
 21
54.358192
  0
LINE
  8
0
 62
     4
 10
140.071899
 20
49.798187
 11
140.071899
 21
54.358192
  0
LINE
  8
0
 62
     1
 10
142.396896
 20
49.178192
 11
136.396896
 21
50.778194
  0
LINE
  8
0
 62
     1
 10
142.396896
 20
47.938198
 11
136.396896
 21
49.538200
  0
LINE
  8
0
 62
     4
 10
138.641891
 20
43.928192
 11
138.641891
 21
48.939522
  0
LINE
  8
0
 62
     4
 10
140.071899
 20
43.928192
 11
140.071899
 21
48.558189
  0
LINE
  8
0
 62
     4
 10
124.156891
 20
13.728189
 11
124.656891
 21
13.728189
  0
LINE
  8
0
 10
124.656891
 20
14.228189
 11
130.456894
 21
14.228189
  0
LINE
  8
0
 62
     4
 10
143.066071
 20
28.728186
 11
142.254974
 21
33.328186
  0
LINE
  8
0
 62
     4
 10
141.756897
 20
27.428190
 11
141.756897
 21
33.328186
  0
LINE
  8
0
 62
     4
 10
142.254974
 20
33.328186
 11
141.756897
 21
33.328186
  0
LINE
  8
0
 62
     4
 10
141.656891
 20
32.728188
 11
141.756897
 21
32.728188
  0
LINE
  8
0
 62
     4
 10
125.656891
 20
27.428190
 11
125.656891
 21
14.928188
  0
LINE
  8
0
 62
     4
 10
149.756897
 20
28.728189
 11
143.066071
 21
28.728189
  0
LINE
  8
0
 62
     4
 10
125.656891
 20
27.428190
 11
141.756897
 21
27.428190
  0
LINE
  8
0
 62
     4
 10
124.156891
 20
13.728189
 11
124.156891
 21
14.628189
  0
LINE
  8
0
 62
     4
 10
124.156891
 20
14.928188
 11
125.656891
 21
14.928188
  0
LINE
  8
0
 62
     4
 10
124.156898
 20
14.628194
 11
124.456894
 21
14.928191
  0
LINE
  8
0
 62
     4
 10
156.156891
 20
25.228189
 11
150.374039
 21
25.228189
  0
LINE
  8
0
 62
     4
 10
149.256897
 20
27.728189
 11
146.056885
 21
27.728189
  0
LINE
  8
0
 62
     4
 10
149.156891
 20
27.828188
 11
149.156891
 21
27.728189
  0
LINE
  8
0
 62
     4
 10
149.256897
 20
28.728189
 11
149.256897
 21
27.728189
  0
LINE
  8
0
 62
     4
 10
150.374039
 20
25.228189
 11
149.756897
 21
28.728189
  0
LINE
  8
0
 62
     4
 10
148.656891
 20
28.328188
 11
146.656891
 21
28.328188
  0
LINE
  8
0
 62
     4
 10
146.156891
 20
27.828188
 11
146.156891
 21
27.728189
  0
LINE
  8
0
 62
     4
 10
146.056885
 20
28.728189
 11
146.056885
 21
27.728189
  0
LINE
  8
0
 62
     4
 10
155.456894
 20
24.528189
 11
155.456894
 21
16.928188
  0
LINE
  8
0
 62
     4
 10
156.156891
 20
14.228189
 11
156.156891
 21
25.228189
  0
LINE
  8
0
 62
     4
 10
154.656891
 20
24.528189
 11
154.656891
 21
16.928188
  0
LINE
  8
0
 62
     4
 10
154.656891
 20
24.528189
 11
155.456894
 21
24.528189
  0
LINE
  8
0
 62
     4
 10
155.456894
 20
16.928188
 11
154.656891
 21
16.928188
  0
LINE
  8
0
 62
     4
 10
124.156891
 20
14.928188
 11
124.156891
 21
33.028191
  0
LINE
  8
0
 62
     4
 10
136.356903
 20
33.328186
 11
124.456894
 21
33.328186
  0
LINE
  8
0
 62
     4
 10
141.656891
 20
38.828186
 11
141.656891
 21
27.428190
  0
LINE
  8
0
 62
     4
 10
136.356903
 20
38.828186
 11
136.356903
 21
33.328186
  0
LINE
  8
0
 62
     4
 10
136.557129
 20
42.928192
 11
135.356903
 21
42.928192
  0
LINE
  8
0
 62
     4
 10
141.656891
 20
42.928188
 11
142.156891
 21
43.216862
  0
LINE
  8
0
 62
     4
 10
142.156891
 20
43.216866
 11
142.156891
 21
43.928192
  0
LINE
  8
0
 62
     4
 10
140.956894
 20
38.828186
 11
140.956894
 21
38.928192
  0
LINE
  8
0
 62
     4
 10
142.156891
 20
43.928192
 11
136.856903
 21
43.928192
  0
LINE
  8
0
 62
     4
 10
136.557144
 20
42.928188
 11
136.856888
 21
41.228191
  0
LINE
  8
0
  6
PHANTOM
 62
     4
 10
136.856903
 20
39.728188
 11
136.856903
 21
41.226807
  0
LINE
  8
0
 62
     4
 10
136.856903
 20
38.828186
 11
136.856903
 21
43.928192
  0
LINE
  8
0
 62
     4
 10
136.856903
 20
38.928192
 11
141.656891
 21
38.928192
  0
LINE
  8
0
 62
     4
 10
141.656891
 20
38.928192
 11
141.656891
 21
42.928192
  0
LINE
  8
0
 62
     4
 10
141.656891
 20
38.828186
 11
136.356903
 21
38.828186
  0
LINE
  8
0
 62
     4
 10
135.356903
 20
42.216866
 11
135.356903
 21
42.928192
  0
LINE
  8
0
 62
     4
 10
135.856888
 20
41.928192
 11
135.356903
 21
42.216866
  0
LINE
  8
0
 62
     4
 10
136.356873
 20
34.528183
 11
135.856873
 21
35.394215
  0
LINE
  8
0
 62
     4
 10
135.856903
 20
35.394211
 11
135.856903
 21
41.928192
  0
LINE
  8
0
 10
136.456894
 20
14.228189
 11
156.956894
 21
14.228189
  0
LINE
  8
0
 10
157.456894
 20
13.728190
 11
156.956894
 21
14.228189
  0
LINE
  8
0
 10
124.656891
 20
2.828189
 11
124.656891
 21
14.228189
  0
LINE
  8
0
  6
CENTER
 62
     1
 10
163.456894
 20
-55.971809
 11
163.456894
 21
-62.971809
  0
LINE
  8
0
  6
CENTER
 62
     1
 10
159.956894
 20
2.528189
 11
166.956894
 21
2.528189
  0
LINE
  8
0
  6
CENTER
 62
     1
 10
159.956894
 20
-59.471809
 11
166.956894
 21
-59.471809
  0
LINE
  8
0
  6
CENTER
 62
     1
 10
165.456879
 20
-8.471811
 11
181.456879
 21
-8.471811
  0
LINE
  8
0
  6
CENTER
 62
     1
 10
165.456879
 20
-48.471809
 11
181.456879
 21
-48.471809
  0
LINE
  8
0
  6
CENTER
 62
     1
 10
169.252884
 20
-28.471811
 11
187.587509
 21
-28.471811
  0
LINE
  8
0
  6
CENTER
 62
     1
 10
178.456894
 20
-20.471811
 11
178.456894
 21
-36.471809
  0
LINE
  8
0
  6
CENTER
 62
     1
 10
173.456894
 20
-0.471812
 11
173.456894
 21
-56.471809
  0
LINE
  8
0
  6
CENTER
 62
     1
 10
163.456894
 20
6.028189
 11
163.456894
 21
-0.971811
  0
LINE
  8
0
 10
132.756897
 20
-15.121811
 11
132.756897
 21
-11.811811
  0
LINE
  8
0
 62
     4
 10
158.456894
 20
7.028189
 11
188.456894
 21
7.028189
  0
LINE
  8
0
 62
     4
 10
158.456894
 20
-63.971809
 11
188.456894
 21
-63.971809
  0
LINE
  8
0
 62
     4
 10
188.456894
 20
7.028189
 11
188.456894
 21
-63.971809
  0
LINE
  8
0
 62
     4
 10
158.456894
 20
7.028189
 11
158.456894
 21
-63.971809
  0
LINE
  8
0
 10
130.456894
 20
13.728189
 11
136.456894
 21
13.728189
  0
LINE
  8
0
 10
136.456894
 20
8.028189
 11
136.456894
 21
14.228189
  0
LINE
  8
0
 10
136.256897
 20
8.028189
 11
136.256897
 21
9.570652
  0
LINE
  8
0
 10
130.456894
 20
8.028189
 11
136.456894
 21
8.028189
  0
LINE
  8
0
 10
130.456894
 20
8.028189
 11
130.456894
 21
14.228189
  0
LINE
  8
0
 10
130.656891
 20
8.028189
 11
130.656891
 21
9.570652
  0
LINE
  8
0
 10
158.456894
 20
-49.471809
 11
157.456894
 21
-49.471809
  0
LINE
  8
0
 10
158.456894
 20
-7.471811
 11
157.456894
 21
-7.471811
  0
LINE
  8
0
 10
157.456894
 20
-7.471811
 11
157.456894
 21
-49.471809
  0
LINE
  8
0
 10
158.456894
 20
-0.971811
 11
157.506897
 21
-0.971811
  0
LINE
  8
0
 10
157.456894
 20
-0.841810
 11
157.506897
 21
-0.971811
  0
LINE
  8
0
 10
157.456894
 20
5.898189
 11
157.456894
 21
-0.841811
  0
LINE
  8
0
 10
157.456894
 20
5.898190
 11
157.506897
 21
6.028187
  0
LINE
  8
0
 10
158.456894
 20
6.028189
 11
157.506897
 21
6.028189
  0
LINE
  8
0
 10
158.456894
 20
-55.971809
 11
157.506897
 21
-55.971809
  0
LINE
  8
0
 10
157.456894
 20
-56.101807
 11
157.506897
 21
-55.971806
  0
LINE
  8
0
 10
157.456894
 20
-62.841812
 11
157.456894
 21
-56.101814
  0
LINE
  8
0
 10
157.456894
 20
-62.841808
 11
157.506897
 21
-62.971806
  0
LINE
  8
0
 10
158.456894
 20
-62.971809
 11
157.506897
 21
-62.971809
  0
LINE
  8
0
  6
CENTER
 62
     1
 10
184.237808
 20
-6.471811
 11
192.064285
 21
-6.471811
  0
LINE
  8
0
  6
CENTER
 62
     1
 10
184.237808
 20
-38.471809
 11
192.064285
 21
-38.471809
  0
LINE
  8
0
 62
     4
 10
-122.669388
 20
-84.771812
 11
-122.669388
 21
-84.671806
  0
LINE
  8
0
 62
     4
 10
-122.769394
 20
-85.671806
 11
-122.769394
 21
-84.671806
  0
LINE
  8
0
 10
-103.969391
 20
-64.971809
 11
-103.969391
 21
-71.171806
  0
LINE
  8
0
 10
-104.169388
 20
-64.971809
 11
-104.169388
 21
-66.514275
  0
LINE
  8
0
 10
-109.769394
 20
-64.971809
 11
-109.769394
 21
-66.514275
  0
LINE
  8
0
 10
-109.969391
 20
-64.971809
 11
-109.969391
 21
-71.171806
  0
LINE
  8
0
 62
     4
 10
-129.669388
 20
-82.171806
 11
-123.886536
 21
-82.171806
  0
LINE
  8
0
 62
     4
 10
-128.969391
 20
-81.471809
 11
-128.969391
 21
-73.871811
  0
LINE
  8
0
 62
     4
 10
-129.669388
 20
-71.171806
 11
-129.669388
 21
-82.171806
  0
LINE
  8
0
 62
     4
 10
-128.169388
 20
-81.471809
 11
-128.169388
 21
-73.871811
  0
LINE
  8
0
 62
     4
 10
-128.169388
 20
-81.471809
 11
-128.969391
 21
-81.471809
  0
LINE
  8
0
 62
     4
 10
-128.969391
 20
-73.871811
 11
-128.169388
 21
-73.871811
  0
LINE
  8
0
 10
-103.969391
 20
-71.171806
 11
-98.169388
 21
-71.171806
  0
LINE
  8
0
 10
-103.969391
 20
-70.671806
 11
-109.969391
 21
-70.671806
  0
LINE
  8
0
 62
     4
 10
-123.886528
 20
-82.171806
 11
-123.269379
 21
-85.671806
  0
LINE
  8
0
 10
-130.969391
 20
-70.671814
 11
-130.469391
 21
-71.171814
  0
LINE
  8
0
 10
-103.969391
 20
-64.971809
 11
-109.969391
 21
-64.971809
  0
LINE
  8
0
 62
     4
 10
-112.469391
 20
-116.301811
 11
-113.269394
 21
-116.301811
  0
LINE
  8
0
 62
     4
 10
-112.154388
 20
-111.301811
 11
-113.584396
 21
-111.301811
  0
LINE
  8
0
 62
     4
 10
-113.269394
 20
-111.301811
 11
-113.269394
 21
-116.301811
  0
LINE
  8
0
 62
     4
 10
-112.469391
 20
-111.301811
 11
-112.469391
 21
-116.301811
  0
LINE
  8
0
 62
     4
 10
-112.154388
 20
-107.123146
 11
-112.154388
 21
-111.301811
  0
LINE
  8
0
 62
     4
 10
-113.584396
 20
-106.741806
 11
-113.584396
 21
-111.301811
  0
LINE
  8
0
 62
     1
 10
-115.909393
 20
-106.121811
 11
-109.909393
 21
-107.721817
  0
LINE
  8
0
 62
     1
 10
-115.909386
 20
-104.881805
 11
-109.909393
 21
-106.481812
  0
LINE
  8
0
 62
     4
 10
-112.154388
 20
-100.871811
 11
-112.154388
 21
-105.883141
  0
LINE
  8
0
 62
     4
 10
-113.584396
 20
-100.871811
 11
-113.584396
 21
-105.501808
  0
LINE
  8
0
 62
     4
 10
-97.669388
 20
-70.671806
 11
-98.169388
 21
-70.671806
  0
LINE
  8
0
 10
-98.169388
 20
-59.771812
 11
-98.169388
 21
-71.171806
  0
LINE
  8
0
 10
-98.569389
 20
-59.371811
 11
-103.469391
 21
-59.371811
  0
LINE
  8
0
 62
     4
 10
-116.578575
 20
-85.671814
 11
-115.767471
 21
-90.271805
  0
LINE
  8
0
 62
     4
 10
-115.269394
 20
-84.371811
 11
-115.269394
 21
-90.271812
  0
LINE
  8
0
 62
     4
 10
-115.767471
 20
-90.271812
 11
-115.269394
 21
-90.271812
  0
LINE
  8
0
 62
     4
 10
-115.169388
 20
-89.671806
 11
-115.269394
 21
-89.671806
  0
LINE
  8
0
 62
     4
 10
-99.169388
 20
-84.371811
 11
-99.169388
 21
-71.871811
  0
LINE
  8
0
 62
     4
 10
-99.169388
 20
-84.371811
 11
-115.269394
 21
-84.371811
  0
LINE
  8
0
 62
     4
 10
-97.669388
 20
-70.671806
 11
-97.669388
 21
-71.571808
  0
LINE
  8
0
 62
     4
 10
-97.669388
 20
-71.871811
 11
-99.169388
 21
-71.871811
  0
LINE
  8
0
 62
     4
 10
-97.669388
 20
-71.571815
 11
-97.969391
 21
-71.871811
  0
LINE
  8
0
 62
     4
 10
-122.169388
 20
-85.271812
 11
-120.169388
 21
-85.271812
  0
LINE
  8
0
 62
     4
 10
-119.669388
 20
-84.771812
 11
-119.669388
 21
-84.671806
  0
LINE
  8
0
 62
     4
 10
-119.569389
 20
-85.671806
 11
-119.569389
 21
-84.671806
  0
LINE
  8
0
 62
     4
 10
-97.669388
 20
-71.871811
 11
-97.669388
 21
-89.971809
  0
LINE
  8
0
 62
     4
 10
-109.869392
 20
-90.271812
 11
-97.969391
 21
-90.271812
  0
LINE
  8
0
 62
     4
 10
-115.169388
 20
-95.771812
 11
-115.169388
 21
-84.371811
  0
LINE
  8
0
 62
     4
 10
-109.869392
 20
-95.771812
 11
-109.869392
 21
-90.271812
  0
LINE
  8
0
 62
     4
 10
-110.069633
 20
-99.871811
 11
-108.869392
 21
-99.871811
  0
LINE
  8
0
 62
     4
 10
-115.169388
 20
-99.871811
 11
-115.669388
 21
-100.160484
  0
LINE
  8
0
 62
     4
 10
-115.669388
 20
-100.160484
 11
-115.669388
 21
-100.871811
  0
LINE
  8
0
 62
     4
 10
-114.469391
 20
-95.771812
 11
-114.469391
 21
-95.871811
  0
LINE
  8
0
 62
     4
 10
-115.669388
 20
-100.871811
 11
-110.369392
 21
-100.871811
  0
LINE
  8
0
 62
     4
 10
-110.069633
 20
-99.871811
 11
-110.369385
 21
-98.171814
  0
LINE
  8
0
  6
PHANTOM
 62
     4
 10
-110.369392
 20
-96.671806
 11
-110.369392
 21
-98.170425
  0
LINE
  8
0
 62
     4
 10
-110.369392
 20
-95.771812
 11
-110.369392
 21
-100.871811
  0
LINE
  8
0
 62
     4
 10
-110.369392
 20
-95.871811
 11
-115.169388
 21
-95.871811
  0
LINE
  8
0
 62
     4
 10
-115.169388
 20
-95.871811
 11
-115.169388
 21
-99.871811
  0
LINE
  8
0
 62
     4
 10
-115.169388
 20
-95.771812
 11
-109.869392
 21
-95.771812
  0
LINE
  8
0
 62
     4
 10
-108.869392
 20
-99.160484
 11
-108.869392
 21
-99.871811
  0
LINE
  8
0
 62
     4
 10
-109.369385
 20
-98.871803
 11
-108.869385
 21
-99.160484
  0
LINE
  8
0
 62
     4
 10
-109.869385
 20
-91.471817
 11
-109.369385
 21
-92.337837
  0
LINE
  8
0
 62
     4
 10
-109.369392
 20
-92.337837
 11
-109.369392
 21
-98.871811
  0
LINE
  8
0
 10
-98.569389
 20
-62.171814
 11
-103.569389
 21
-62.171814
  0
LINE
  8
0
 62
     4
 10
-122.769394
 20
-84.671806
 11
-119.569389
 21
-84.671806
  0
LINE
  8
0
 62
     4
 10
-123.269394
 20
-85.671806
 11
-116.578575
 21
-85.671806
  0
LINE
  8
0
 10
-130.469391
 20
-71.171806
 11
-109.969391
 21
-71.171806
  0
LINE
  8
0
 10
-106.969391
 20
-41.821808
 11
-106.969391
 21
-45.131813
  0
LINE
  8
0
 10
-106.269394
 20
-41.821808
 11
-106.269394
 21
-45.131813
  0
LINE
  8
0
 10
-106.969391
 20
-41.821808
 11
-103.969391
 21
-41.821808
  0
LINE
  8
0
 10
-106.969391
 20
-45.131813
 11
-103.969391
 21
-45.131813
  0
LINE
  8
0
 10
-130.969391
 20
-70.671806
 11
-130.969391
 21
13.728189
  0
LINE
  8
0
 10
-103.969391
 20
-61.771812
 11
-103.969391
 21
4.828189
  0
LINE
  8
0
 10
-98.569389
 20
5.228189
 11
-103.569389
 21
5.228189
  0
LINE
  8
0
 10
-129.869385
 20
13.728189
 11
-124.969391
 21
13.728189
  0
LINE
  8
0
 10
-129.669388
 20
14.228189
 11
-130.469391
 21
14.228189
  0
LINE
  8
0
 62
     4
 10
-109.369392
 20
35.394211
 11
-109.369392
 21
41.928192
  0
LINE
  8
0
 62
     4
 10
-109.869392
 20
34.528191
 11
-109.369392
 21
35.394218
  0
LINE
  8
0
 62
     4
 10
-109.369392
 20
41.928192
 11
-108.869392
 21
42.216866
  0
LINE
  8
0
 62
     4
 10
-108.869392
 20
42.216866
 11
-108.869392
 21
42.928192
  0
LINE
  8
0
 62
     4
 10
-115.169388
 20
38.828186
 11
-109.869392
 21
38.828186
  0
LINE
  8
0
 62
     4
 10
-115.169388
 20
38.928192
 11
-115.169388
 21
42.928192
  0
LINE
  8
0
 62
     4
 10
-110.369392
 20
38.928192
 11
-115.169388
 21
38.928192
  0
LINE
  8
0
 62
     4
 10
-110.369392
 20
38.828186
 11
-110.369392
 21
43.928192
  0
LINE
  8
0
  6
PHANTOM
 62
     4
 10
-110.369392
 20
39.728188
 11
-110.369392
 21
41.226807
  0
LINE
  8
0
 62
     4
 10
-110.069626
 20
42.928188
 11
-110.369385
 21
41.228191
  0
LINE
  8
0
 62
     4
 10
-115.669388
 20
43.928192
 11
-110.369392
 21
43.928192
  0
LINE
  8
0
 62
     4
 10
-114.469391
 20
38.828186
 11
-114.469391
 21
38.928192
  0
LINE
  8
0
 62
     4
 10
-115.669388
 20
43.216866
 11
-115.669388
 21
43.928192
  0
LINE
  8
0
 62
     4
 10
-115.169388
 20
42.928185
 11
-115.669388
 21
43.216862
  0
LINE
  8
0
 62
     4
 10
-110.069633
 20
42.928192
 11
-108.869392
 21
42.928192
  0
LINE
  8
0
 62
     4
 10
-109.869392
 20
38.828186
 11
-109.869392
 21
33.328186
  0
LINE
  8
0
 62
     4
 10
-115.169388
 20
38.828186
 11
-115.169388
 21
27.428190
  0
LINE
  8
0
 62
     4
 10
-109.869392
 20
33.328186
 11
-97.969391
 21
33.328186
  0
LINE
  8
0
 62
     4
 10
-97.669388
 20
14.928188
 11
-97.669388
 21
33.028191
  0
LINE
  8
0
 62
     4
 10
-128.969391
 20
16.928188
 11
-128.169388
 21
16.928188
  0
LINE
  8
0
 62
     4
 10
-128.169388
 20
24.528189
 11
-128.969391
 21
24.528189
  0
LINE
  8
0
 62
     4
 10
-128.169388
 20
24.528189
 11
-128.169388
 21
16.928188
  0
LINE
  8
0
 62
     4
 10
-129.669388
 20
13.728189
 11
-129.669388
 21
25.228189
  0
LINE
  8
0
 62
     4
 10
-128.969391
 20
24.528189
 11
-128.969391
 21
16.928188
  0
LINE
  8
0
 62
     4
 10
-119.569389
 20
28.728189
 11
-119.569389
 21
27.728189
  0
LINE
  8
0
 62
     4
 10
-119.669388
 20
27.828188
 11
-119.669388
 21
27.728189
  0
LINE
  8
0
 62
     4
 10
-122.169388
 20
28.328188
 11
-120.169388
 21
28.328188
  0
LINE
  8
0
 62
     4
 10
-123.886536
 20
25.228189
 11
-123.269394
 21
28.728189
  0
LINE
  8
0
 62
     4
 10
-122.769394
 20
28.728189
 11
-122.769394
 21
27.728189
  0
LINE
  8
0
 62
     4
 10
-122.669388
 20
27.828188
 11
-122.669388
 21
27.728189
  0
LINE
  8
0
 62
     4
 10
-122.769394
 20
27.728189
 11
-119.569389
 21
27.728189
  0
LINE
  8
0
 62
     4
 10
-129.669388
 20
25.228189
 11
-123.886536
 21
25.228189
  0
LINE
  8
0
 62
     4
 10
-97.669395
 20
14.628190
 11
-97.969391
 21
14.928187
  0
LINE
  8
0
 62
     4
 10
-97.669388
 20
14.928188
 11
-99.169388
 21
14.928188
  0
LINE
  8
0
 62
     4
 10
-97.669388
 20
13.728189
 11
-97.669388
 21
14.628189
  0
LINE
  8
0
 62
     4
 10
-99.169388
 20
27.428190
 11
-115.269394
 21
27.428190
  0
LINE
  8
0
 62
     4
 10
-123.269394
 20
28.728189
 11
-116.578575
 21
28.728189
  0
LINE
  8
0
 62
     4
 10
-99.169388
 20
27.428190
 11
-99.169388
 21
14.928188
  0
LINE
  8
0
 62
     4
 10
-115.169388
 20
32.728188
 11
-115.269394
 21
32.728188
  0
LINE
  8
0
 62
     4
 10
-115.767471
 20
33.328186
 11
-115.269394
 21
33.328186
  0
LINE
  8
0
 62
     4
 10
-115.269394
 20
27.428190
 11
-115.269394
 21
33.328186
  0
LINE
  8
0
 62
     4
 10
-116.578575
 20
28.728188
 11
-115.767471
 21
33.328186
  0
LINE
  8
0
 10
-98.569389
 20
2.428188
 11
-103.469391
 21
2.428188
  0
LINE
  8
0
 10
-98.169388
 20
14.228189
 11
-124.969391
 21
14.228189
  0
LINE
  8
0
 10
-130.969391
 20
13.728190
 11
-130.469391
 21
14.228189
  0
LINE
  8
0
 10
-98.169388
 20
2.828189
 11
-98.169388
 21
14.228189
  0
LINE
  8
0
 62
     4
 10
-97.669388
 20
13.728189
 11
-98.169388
 21
13.728189
  0
LINE
  8
0
 10
-124.969391
 20
8.028189
 11
-124.969391
 21
14.228189
  0
LINE
  8
0
 10
-125.169388
 20
8.028189
 11
-125.169388
 21
9.570652
  0
LINE
  8
0
 10
-130.969391
 20
8.028189
 11
-124.969391
 21
8.028189
  0
LINE
  8
0
 10
-130.769394
 20
8.028189
 11
-130.769394
 21
9.570652
  0
LINE
  8
0
 10
-130.969391
 20
-7.471811
 11
-103.969391
 21
-7.471811
  0
LINE
  8
0
 10
-130.969391
 20
-49.471809
 11
-103.969391
 21
-49.471809
  0
LINE
  8
0
 62
     4
 10
-113.584396
 20
43.928192
 11
-113.584396
 21
48.939522
  0
LINE
  8
0
 62
     4
 10
-112.154388
 20
43.928192
 11
-112.154388
 21
48.558189
  0
LINE
  8
0
 62
     1
 10
-109.829391
 20
47.938179
 11
-115.829391
 21
49.538181
  0
LINE
  8
0
 62
     1
 10
-109.829391
 20
49.178188
 11
-115.829391
 21
50.778191
  0
LINE
  8
0
 62
     4
 10
-113.584396
 20
50.179520
 11
-113.584396
 21
54.358192
  0
LINE
  8
0
 62
     4
 10
-112.154388
 20
49.798187
 11
-112.154388
 21
54.358192
  0
LINE
  8
0
 62
     4
 10
-112.469391
 20
54.358192
 11
-112.469391
 21
59.358192
  0
LINE
  8
0
 62
     4
 10
-113.269394
 20
54.358192
 11
-113.269394
 21
59.358192
  0
LINE
  8
0
 62
     4
 10
-112.154388
 20
54.358192
 11
-113.584396
 21
54.358192
  0
LINE
  8
0
 62
     4
 10
-112.469391
 20
59.358192
 11
-113.269394
 21
59.358192
  0
LINE
  8
0
 10
-129.869385
 20
13.728189
 11
-129.869385
 21
14.228189
  0
LINE
  8
0
  6
CENTER
 62
     1
 10
-143.969406
 20
-18.471811
 11
-159.969406
 21
-18.471811
  0
LINE
  8
0
  6
CENTER
 62
     1
 10
-143.969406
 20
-38.471809
 11
-159.969406
 21
-38.471809
  0
LINE
  8
0
  6
CENTER
 62
     1
 10
-151.969391
 20
-10.471812
 11
-151.969391
 21
-46.471809
  0
LINE
  8
0
 62
     4
 10
-131.969391
 20
7.028189
 11
-131.969391
 21
-63.971809
  0
LINE
  8
0
 62
     4
 10
-161.969391
 20
7.028189
 11
-161.969391
 21
-63.971809
  0
LINE
  8
0
 62
     4
 10
-131.969391
 20
-63.971809
 11
-161.969391
 21
-63.971809
  0
LINE
  8
0
 62
     4
 10
-131.969391
 20
7.028189
 11
-161.969391
 21
7.028189
  0
LINE
  8
0
 10
-131.969391
 20
-0.971811
 11
-131.019394
 21
-0.971811
  0
LINE
  8
0
 10
-130.969391
 20
-0.841812
 11
-131.019394
 21
-0.971810
  0
LINE
  8
0
 10
-130.969391
 20
5.898186
 11
-131.019394
 21
6.028187
  0
LINE
  8
0
 10
-131.969391
 20
6.028189
 11
-131.019394
 21
6.028189
  0
LINE
  8
0
 10
-131.969391
 20
-49.471809
 11
-130.969391
 21
-49.471809
  0
LINE
  8
0
 10
-131.969391
 20
-7.471811
 11
-130.969391
 21
-7.471811
  0
LINE
  8
0
 10
-131.969391
 20
-55.971809
 11
-131.019394
 21
-55.971809
  0
LINE
  8
0
 10
-130.969391
 20
-56.101810
 11
-131.019394
 21
-55.971809
  0
LINE
  8
0
 10
-130.969391
 20
-62.841808
 11
-131.019394
 21
-62.971806
  0
LINE
  8
0
 10
-131.969391
 20
-62.971809
 11
-131.019394
 21
-62.971809
  0
LINE
  8
0
  6
CENTER
 62
     1
 10
-165.388184
 20
-6.471811
 11
-158.710556
 21
-6.471811
  0
LINE
  8
0
  6
CENTER
 62
     1
 10
-165.388184
 20
-38.471809
 11
-158.710556
 21
-38.471809
  0
LINE
  8
0
 10
-281.250000
 20
-195.000000
 11
282.099854
 21
-195.000000
  0
LINE
  8
0
 10
282.099854
 20
195.500000
 11
282.099854
 21
-195.000000
  0
LINE
  8
0
 10
-281.250000
 20
195.500000
 11
282.099854
 21
195.500000
  0
LINE
  8
0
 10
-281.250000
 20
195.500000
 11
-281.250000
 21
-195.000000
  0
LINE
  8
0
 10
162.099976
 20
-175.000000
 11
162.099976
 21
-195.000000
  0
LINE
  8
0
 10
162.099976
 20
-175.000000
 11
282.099854
 21
-175.000000
  0
LINE
  8
0
 10
162.099976
 20
175.500000
 11
282.099854
 21
175.500000
  0
LINE
  8
0
 10
-281.250000
 20
175.500000
 11
-161.250000
 21
175.500000
  0
LINE
  8
0
 10
162.099976
 20
195.500000
 11
162.099976
 21
175.500000
  0
LINE
  8
0
 10
-161.250000
 20
195.500000
 11
-161.250000
 21
175.500000
  0
ARC
  8
0
 10
19.628136
 20
-61.771812
 40
0.400001
 50
210.000046
 51
270.000000
  0
ARC
  8
0
 10
17.549675
 20
-59.771812
 40
0.400001
 50
30.000051
 51
90.000000
  0
ARC
  8
0
 10
14.511555
 20
-59.771812
 40
0.400002
 50
90.000000
 51
149.999878
  0
ARC
  8
0
 10
12.433094
 20
-61.771812
 40
0.400002
 50
270.000000
 51
329.999878
  0
CIRCLE
  8
0
 10
16.030615
 20
-62.171814
 40
2.000000
  0
ARC
  8
0
 62
     4
 10
11.330614
 20
-89.971809
 40
0.300000
 50
180.000000
 51
270.000000
  0
ARC
  8
0
 62
     4
 10
20.730616
 20
-89.971809
 40
0.300003
 50
270.000000
 51
0.000000
  0
ARC
  8
0
 10
21.580614
 20
-70.871811
 40
0.299999
 50
180.000000
 51
270.000000
  0
ARC
  8
0
 10
10.480614
 20
-70.871811
 40
0.300003
 50
270.000000
 51
0.000000
  0
CIRCLE
  8
0
 10
9.530615
 20
-43.471809
 40
2.799999
  0
CIRCLE
  8
0
 10
22.530615
 20
-13.471811
 40
2.799999
  0
ARC
  8
0
 10
22.530611
 20
-13.476811
 40
2.998173
 50
33.504513
 51
326.495483
  0
ARC
  8
0
 10
9.532909
 20
-43.472496
 40
2.997705
 50
0.013124
 51
146.588425
  0
ARC
  8
0
 10
9.530148
 20
-43.471947
 40
3.000468
 50
213.586914
 51
0.002622
  0
CIRCLE
  8
0
 10
16.030615
 20
5.228189
 40
2.000000
  0
ARC
  8
0
 10
10.480614
 20
13.928188
 40
0.300000
 50
0.000000
 51
90.000000
  0
ARC
  8
0
 10
21.580614
 20
13.928188
 40
0.300000
 50
90.000000
 51
180.000000
  0
ARC
  8
0
 10
12.433094
 20
4.828189
 40
0.400000
 50
30.000002
 51
90.000000
  0
ARC
  8
0
 10
14.511555
 20
2.828189
 40
0.400000
 50
210.000031
 51
270.000000
  0
ARC
  8
0
 10
17.549675
 20
2.828189
 40
0.400000
 50
270.000000
 51
330.000031
  0
ARC
  8
0
 10
19.628136
 20
4.828189
 40
0.400000
 50
90.000000
 51
150.000061
  0
ARC
  8
0
 62
     4
 10
20.730616
 20
33.028191
 40
0.299999
 50
0.000000
 51
90.000000
  0
ARC
  8
0
 62
     4
 10
11.330614
 20
33.028191
 40
0.299999
 50
90.000000
 51
180.000000
  0
CIRCLE
  8
0
 62
     4
 10
29.530615
 20
-38.471809
 40
1.600000
  0
CIRCLE
  8
0
 62
     4
 10
2.530614
 20
-6.471811
 40
1.600000
  0
ARC
  8
0
 10
10.030615
 20
109.103745
 40
2.799998
 50
37.383152
 51
290.924805
  0
ARC
  8
0
 10
22.030615
 20
91.103745
 40
2.800002
 50
249.075180
 51
110.924820
  0
ARC
  8
0
 10
21.730616
 20
111.303741
 40
0.299999
 50
0.000000
 51
90.000000
  0
ARC
  8
0
 10
22.030615
 20
91.103745
 40
3.000003
 50
250.528793
 51
270.000000
  0
ARC
  8
0
 10
10.030615
 20
109.103745
 40
3.000000
 50
270.000000
 51
289.471191
  0
ARC
  8
0
 10
22.030615
 20
91.103745
 40
3.000000
 50
90.000000
 51
109.471199
  0
CIRCLE
  8
0
 62
     4
 10
13.490614
 20
94.003746
 40
0.750000
  0
CIRCLE
  8
0
 62
     4
 10
18.570616
 20
94.003746
 40
0.750000
  0
ARC
  8
0
 62
     4
 10
19.446270
 20
94.903076
 40
0.200665
 50
356.761139
 51
89.901970
  0
ARC
  8
0
 62
     4
 10
17.695900
 20
94.904083
 40
0.199670
 50
89.794754
 51
183.542358
  0
ARC
  8
0
 62
     4
 10
16.906271
 20
94.903076
 40
0.200665
 50
356.761139
 51
89.901970
  0
ARC
  8
0
 62
     4
 10
15.155899
 20
94.904083
 40
0.199670
 50
89.794754
 51
183.542358
  0
ARC
  8
0
 62
     4
 10
14.366270
 20
94.903076
 40
0.200665
 50
356.761139
 51
89.901695
  0
ARC
  8
0
 62
     4
 10
12.615900
 20
94.904083
 40
0.199670
 50
89.794754
 51
183.542358
  0
ARC
  8
0
 62
     4
 10
11.330614
 20
91.303741
 40
0.300000
 50
180.000000
 51
270.000000
  0
ARC
  8
0
 62
     4
 10
20.730616
 20
91.303741
 40
0.300003
 50
270.000000
 51
0.000000
  0
ARC
  8
0
 62
     4
 10
20.730616
 20
79.103745
 40
0.300003
 50
270.000000
 51
0.000000
  0
ARC
  8
0
 62
     4
 10
11.330614
 20
79.103745
 40
0.300000
 50
180.000000
 51
270.000000
  0
CIRCLE
  8
0
 62
     4
 10
16.030615
 20
100.553741
 40
2.050000
  0
ARC
  8
0
 62
     4
 10
19.530615
 20
102.303741
 40
1.599998
 50
90.000000
 51
270.000000
  0
ARC
  8
0
 62
     4
 10
12.530615
 20
102.303741
 40
1.599998
 50
270.000000
 51
90.000000
  0
CIRCLE
  8
0
 62
     4
 10
16.030615
 20
100.553741
 40
1.900000
  0
CIRCLE
  8
0
 62
     4
 10
16.030615
 20
100.553741
 40
1.850000
  0
ARC
  8
0
 62
     4
 10
16.030615
 20
100.553741
 40
0.800001
 50
202.024506
 51
337.975464
  0
ARC
  8
0
 62
     4
 10
16.030615
 20
100.553741
 40
0.800000
 50
22.024536
 51
157.975494
  0
CIRCLE
  8
0
 62
     4
 10
19.530615
 20
102.303741
 40
1.500000
  0
CIRCLE
  8
0
 62
     4
 10
12.530615
 20
102.303741
 40
1.500000
  0
ARC
  8
0
 10
129.956894
 20
-58.871811
 40
0.500000
 50
270.000000
 51
0.000000
  0
ARC
  8
0
 10
125.056892
 20
-59.771812
 40
0.400002
 50
90.000000
 51
180.000000
  0
ARC
  8
0
 10
154.456894
 20
-62.371811
 40
5.000002
 50
235.944183
 51
304.055817
  0
ARC
  8
0
 62
     4
 10
124.456894
 20
-89.971809
 40
0.300003
 50
180.000000
 51
270.000000
  0
ARC
  8
0
 62
     4
 10
146.656891
 20
-84.771812
 40
0.500000
 50
180.000000
 51
270.000000
  0
ARC
  8
0
 62
     4
 10
148.656891
 20
-84.771812
 40
0.500000
 50
270.000000
 51
0.000000
  0
ARC
  8
0
 10
125.056892
 20
-62.571808
 40
0.400002
 50
90.000000
 51
180.000000
  0
ARC
  8
0
 10
130.056885
 20
-61.771812
 40
0.400002
 50
270.000000
 51
0.000000
  0
ARC
  8
0
 10
125.056892
 20
2.828189
 40
0.400002
 50
180.000000
 51
270.000000
  0
ARC
  8
0
 10
129.956894
 20
1.928188
 40
0.500000
 50
0.000000
 51
90.000000
  0
ARC
  8
0
 10
125.056892
 20
5.628189
 40
0.400002
 50
180.000000
 51
270.000000
  0
ARC
  8
0
 10
130.056885
 20
4.828189
 40
0.399994
 50
0.000000
 51
90.000000
  0
ARC
  8
0
 62
     4
 10
148.656891
 20
27.828188
 40
0.500000
 50
0.000000
 51
90.000000
  0
ARC
  8
0
 62
     4
 10
146.656891
 20
27.828188
 40
0.500000
 50
90.000000
 51
180.000000
  0
ARC
  8
0
 62
     4
 10
124.456894
 20
33.028191
 40
0.299999
 50
90.000000
 51
180.000000
  0
CIRCLE
  8
0
 62
     4
 10
173.456879
 20
-8.471812
 40
5.722500
  0
CIRCLE
  8
0
 62
     1
 10
173.456879
 20
-8.471812
 40
6.578500
  0
CIRCLE
  8
0
 62
     4
 10
178.456879
 20
-28.471811
 40
5.722500
  0
CIRCLE
  8
0
 62
     1
 10
178.456879
 20
-28.471811
 40
6.578500
  0
CIRCLE
  8
0
 62
     4
 10
173.456879
 20
-48.471809
 40
5.722500
  0
CIRCLE
  8
0
 62
     1
 10
173.456879
 20
-48.471809
 40
6.578500
  0
CIRCLE
  8
0
 62
     4
 10
163.456894
 20
-59.471809
 40
2.100000
  0
CIRCLE
  8
0
 62
     1
 10
163.456894
 20
-59.471809
 40
2.500000
  0
CIRCLE
  8
0
 62
     4
 10
163.456894
 20
2.528189
 40
2.100000
  0
CIRCLE
  8
0
 62
     1
 10
163.456894
 20
2.528189
 40
2.500000
  0
ARC
  8
0
 10
135.756897
 20
-13.466811
 40
5.001743
 50
160.677521
 51
199.322479
  0
ARC
  8
0
 10
133.456894
 20
5.428188
 40
5.000001
 50
55.944172
 51
124.055824
  0
ARC
  8
0
 10
-106.969391
 20
-62.371811
 40
5.000002
 50
235.944183
 51
304.055817
  0
ARC
  8
0
 10
-98.569389
 20
-59.771812
 40
0.400002
 50
0.000000
 51
90.000000
  0
ARC
  8
0
 10
-103.469391
 20
-58.871811
 40
0.500000
 50
180.000000
 51
270.000000
  0
ARC
  8
0
 62
     4
 10
-120.169388
 20
-84.771812
 40
0.500000
 50
270.000000
 51
0.000000
  0
ARC
  8
0
 62
     4
 10
-97.969391
 20
-89.971809
 40
0.300003
 50
270.000000
 51
0.000000
  0
ARC
  8
0
 10
-98.569389
 20
-62.571808
 40
0.400002
 50
0.000000
 51
90.000000
  0
ARC
  8
0
 10
-103.569389
 20
-61.771812
 40
0.400002
 50
180.000000
 51
270.000000
  0
ARC
  8
0
 62
     4
 10
-122.169388
 20
-84.771812
 40
0.500000
 50
180.000000
 51
270.000000
  0
ARC
  8
0
 10
-109.269394
 20
-43.476814
 40
5.001750
 50
340.677551
 51
19.322435
  0
ARC
  8
0
 10
-103.569389
 20
4.828189
 40
0.400000
 50
90.000000
 51
180.000000
  0
ARC
  8
0
 10
-98.569389
 20
5.628189
 40
0.400000
 50
270.000000
 51
0.000000
  0
ARC
  8
0
 62
     4
 10
-97.969391
 20
33.028191
 40
0.300003
 50
0.000000
 51
90.000000
  0
ARC
  8
0
 62
     4
 10
-120.169388
 20
27.828188
 40
0.500000
 50
0.000000
 51
90.000000
  0
ARC
  8
0
 62
     4
 10
-122.169388
 20
27.828188
 40
0.500000
 50
90.000000
 51
180.000000
  0
ARC
  8
0
 10
-103.469391
 20
1.928188
 40
0.500000
 50
90.000000
 51
180.000000
  0
ARC
  8
0
 10
-98.569389
 20
2.828189
 40
0.400000
 50
270.000000
 51
0.000000
  0
ARC
  8
0
 10
-127.969391
 20
5.428188
 40
5.000001
 50
55.944172
 51
124.055824
  0
CIRCLE
  8
0
 62
     4
 10
-151.969406
 20
-18.471813
 40
5.722500
  0
CIRCLE
  8
0
 62
     1
 10
-151.969406
 20
-18.471813
 40
6.578500
  0
CIRCLE
  8
0
 62
     4
 10
-151.969406
 20
-38.471809
 40
5.722500
  0
CIRCLE
  8
0
 62
     1
 10
-151.969406
 20
-38.471809
 40
6.578500
  0
TEXT
  8
0
 10
196.250259
 20
180.830002
 40
6.300000
  1
Ver. 1.0
 50
0.000000
 41
1.052632
 51
0.000000
  7
STANDARD
  0
TEXT
  8
0
 10
167.564651
 20
-192.100006
 40
9.000000
  1
KOGANEI CORP.
 50
0.000000
 41
1.052632
 51
0.000000
  7
STANDARD
  0
TEXT
  8
0
 10
-259.699707
 20
180.830002
 40
6.300000
  1
GA180 SERIES
 50
0.000000
 41
1.052632
 51
0.000000
  7
STANDARD
  0
TEXT
  8
0
 10
-270.049713
 20
155.830002
 40
6.300000
  1
MODEL:GA180-4E2-25-81-PSL
 50
0.000000
 41
1.052632
 51
0.000000
  7
STANDARD
  0
ENDSEC
  0
EOF
