  0
SECTION
  2
HEADER
  0
ENDSEC
  0
SECTION
  2
TABLES
  0
TABLE
  2
LTYPE
 70
     4
  0
LTYPE
  2
CONTINUOUS
 70
    64
  3
Solid line
 72
    65
 73
     0
 40
0.000000
  0
LTYPE
  2
DASHED
 70
    64
  3
__ __ __ __ __ __ __ __ __ __ __ __ __ __ __
 72
    65
 73
     2
 40
3.500000
 49
2.000000
 49
-1.500000
  0
LTYPE
  2
CENTER
 70
    64
  3
____ _ ____ _ ____ _ ____ _ ____ _ ____ _ ____
 72
    65
 73
     4
 40
17.500000
 49
13.000000
 49
-1.500000
 49
1.500000
 49
-1.500000
  0
LTYPE
  2
PHANTOM
 70
    64
  3
_____ _ _ _____ _ _ _____ _ _ _____ _ _ ____  
 72
    65
 73
     6
 40
15.500000
 49
8.000000
 49
-1.500000
 49
1.500000
 49
-1.500000
 49
1.500000
 49
-1.500000
  0
LTYPE
  2
DASHED1
 70
    64
  3
__ __ __ __ __ __ __ __ __ __ __ __ __ __ __
 72
    65
 73
     2
 40
1.500000
 49
1.000000
 49
-0.500000
  0
LTYPE
  2
DASHED2
 70
    64
  3
__ __ __ __ __ __ __ __ __ __ __ __ __ __ __
 72
    65
 73
     2
 40
3.500000
 49
2.500000
 49
-1.000000
  0
LTYPE
  2
DASHED3
 70
    64
  3
__ __ __ __ __ __ __ __ __ __ __ __ __ __ __
 72
    65
 73
     2
 40
6.000000
 49
4.000000
 49
-2.000000
  0
LTYPE
  2
DASHED4
 70
    64
  3
__ __ __ __ __ __ __ __ __ __ __ __ __ __ __
 72
    65
 73
     2
 40
12.000000
 49
10.000000
 49
-2.000000
  0
LTYPE
  2
DASHED5
 70
    64
  3
__ __ __ __ __ __ __ __ __ __ __ __ __ __ __
 72
    65
 73
     2
 40
17.000000
 49
15.000000
 49
-2.000000
  0
LTYPE
  2
DASHED6
 70
    64
  3
__ __ __ __ __ __ __ __ __ __ __ __ __ __ __
 72
    65
 73
     2
 40
29.000000
 49
27.000000
 49
-2.000000
  0
LTYPE
  2
PHANTOM1
 70
    64
  3
_____ _ _ _____ _ _ _____ _ _ _____ _ _ ____  
 72
    65
 73
     6
 40
31.000000
 49
25.000000
 49
-1.500000
 49
1.000000
 49
-1.000000
 49
1.000000
 49
-1.500000
  0
LTYPE
  2
PHANTOM2
 70
    64
  3
_____ _ _ _____ _ _ _____ _ _ _____ _ _ ____  
 72
    65
 73
     6
 40
36.000000
 49
27.000000
 49
-1.500000
 49
2.500000
 49
-1.000000
 49
2.500000
 49
-1.500000
  0
LTYPE
  2
PHANTOM3
 70
    64
  3
_____ _ _ _____ _ _ _____ _ _ _____ _ _ ____  
 72
    65
 73
     6
 40
78.000000
 49
64.000000
 49
-2.000000
 49
4.000000
 49
-2.000000
 49
4.000000
 49
-2.000000
  0
LTYPE
  2
CENTER1
 70
    64
  3
____ _ ____ _ ____ _ ____ _ ____ _ ____ _ ____
 72
    65
 73
     4
 40
19.000000
 49
14.000000
 49
-1.000000
 49
3.000000
 49
-1.000000
  0
LTYPE
  2
CENTER2
 70
    64
  3
____ _ ____ _ ____ _ ____ _ ____ _ ____ _ ____
 72
    65
 73
     4
 40
28.500000
 49
25.000000
 49
-1.000000
 49
1.500000
 49
-1.000000
  0
LTYPE
  2
CENTER3
 70
    64
  3
____ _ ____ _ ____ _ ____ _ ____ _ ____ _ ____
 72
    65
 73
     4
 40
31.500000
 49
27.000000
 49
-1.000000
 49
2.500000
 49
-1.000000
  0
LTYPE
  2
CENTER4
 70
    64
  3
____ _ ____ _ ____ _ ____ _ ____ _ ____ _ ____
 72
    65
 73
     4
 40
50.000000
 49
45.000000
 49
-1.000000
 49
3.000000
 49
-1.000000
  0
LTYPE
  2
CENTER5
 70
    64
  3
____ _ ____ _ ____ _ ____ _ ____ _ ____ _ ____
 72
    65
 73
     4
 40
100.000000
 49
92.000000
 49
-2.000000
 49
4.000000
 49
-2.000000
  0
LTYPE
  2
SBK1
 70
    64
  3
______ _ _ _ ______ _ _ _ ______ _ _ _ _____  
 72
    65
 73
     8
 40
60.500000
 49
45.000000
 49
-2.000000
 49
2.500000
 49
-2.000000
 49
2.500000
 49
-2.000000
 49
2.500000
 49
-2.000000
  0
LTYPE
  2
SBK2
 70
    64
  3
______ _ _ _ ______ _ _ _ ______ _ _ _ _____  
 72
    65
 73
     8
 40
84.000000
 49
64.000000
 49
-2.000000
 49
4.000000
 49
-2.000000
 49
4.000000
 49
-2.000000
 49
4.000000
 49
-2.000000
  0
LTYPE
  2
STCH
 70
    64
  3
__ __ __ __ __ __ __ __ __ __ __ __ __ __ __
 72
    65
 73
     2
 40
3.000000
 49
1.000000
 49
-2.000000
  0
LTYPE
  2
MTCH
 70
    64
  3
_____ _ _ _____ _ _ _____ _ _ _____ _ _ ____  
 72
    65
 73
     6
 40
80.000000
 49
66.000000
 49
-2.000000
 49
4.000000
 49
-2.000000
 49
4.000000
 49
-2.000000
  0
ENDTAB
  0
TABLE
  2
LAYER
 70
     1
  0
LAYER
  2
0
 70
     0
 62
     7
  6
CONTINUOUS
  0
ENDTAB
  0
TABLE
  2
STYLE
 70
     1
  0
STYLE
  2
STANDARD
 70
     0
 40
0.000000
 41
1.000000
 50
0.000000
 71
     0
 42
0.200000
  3
txt
  4
BIGFONT
  0
ENDTAB
  0
TABLE
  2
VIEW
 70
     0
  0
ENDTAB
  0
ENDSEC
  0
SECTION
  2
BLOCKS
  0
ENDSEC
  0
SECTION
  2
ENTITIES
  0
LINE
  8
0
  6
CENTER
 62
     2
 10
108.160088
 20
-81.909760
 11
115.560562
 21
-81.909760
  0
LINE
  8
0
  6
CENTER
 62
     2
 10
108.160088
 20
-63.909760
 11
115.560562
 21
-63.909760
  0
LINE
  8
0
  6
CENTER
 62
     1
 10
133.860153
 20
-80.409760
 11
141.396301
 21
-80.409760
  0
LINE
  8
0
  6
CENTER
 62
     1
 10
133.860153
 20
-55.409760
 11
141.396301
 21
-55.409760
  0
LINE
  8
0
 62
     4
 10
93.046982
 20
5.520241
 11
93.846985
 21
5.520241
  0
LINE
  8
0
 62
     4
 10
92.731979
 20
0.520241
 11
94.161987
 21
0.520241
  0
LINE
  8
0
 62
     4
 10
93.846985
 20
0.520241
 11
93.846985
 21
5.520241
  0
LINE
  8
0
 62
     4
 10
93.046982
 20
0.520241
 11
93.046982
 21
5.520241
  0
LINE
  8
0
 62
     4
 10
92.731979
 20
-3.658424
 11
92.731979
 21
0.520241
  0
LINE
  8
0
 62
     4
 10
94.161987
 20
-4.039761
 11
94.161987
 21
0.520241
  0
LINE
  8
0
 62
     1
 10
96.486984
 20
-5.899761
 11
90.486984
 21
-4.299761
  0
LINE
  8
0
 62
     1
 10
96.486984
 20
-4.659760
 11
90.486984
 21
-3.059760
  0
LINE
  8
0
 62
     4
 10
92.731979
 20
-9.909760
 11
92.731979
 21
-4.898426
  0
LINE
  8
0
 62
     4
 10
94.161987
 20
-9.909760
 11
94.161987
 21
-5.279758
  0
LINE
  8
0
 10
89.946983
 20
-83.719757
 11
89.946983
 21
-80.089760
  0
LINE
  8
0
 10
90.546982
 20
-83.719757
 11
90.546982
 21
-80.089760
  0
LINE
  8
0
 10
90.546982
 20
-83.719757
 11
87.546982
 21
-83.719757
  0
LINE
  8
0
 10
90.546982
 20
-80.089760
 11
87.546982
 21
-80.089760
  0
LINE
  8
0
  6
CENTER
 62
     1
 10
121.046982
 20
-95.909760
 11
114.046982
 21
-95.909760
  0
LINE
  8
0
  6
CENTER
 62
     1
 10
117.546982
 20
-99.409760
 11
117.546982
 21
-92.409760
  0
LINE
  8
0
  6
CENTER
 62
     1
 10
133.546982
 20
-57.909760
 11
119.546982
 21
-57.909760
  0
LINE
  8
0
  6
CENTER
 62
     1
 10
133.546982
 20
-87.909760
 11
119.546982
 21
-87.909760
  0
LINE
  8
0
  6
CENTER
 62
     1
 10
121.046982
 20
-49.909760
 11
114.046982
 21
-49.909760
  0
LINE
  8
0
  6
CENTER
 62
     1
 10
127.046982
 20
-72.909760
 11
113.046982
 21
-72.909760
  0
LINE
  8
0
  6
CENTER
 62
     1
 10
126.546982
 20
-50.909760
 11
126.546982
 21
-94.909760
  0
LINE
  8
0
  6
CENTER
 62
     1
 10
120.046982
 20
-65.909760
 11
120.046982
 21
-79.909760
  0
LINE
  8
0
  6
CENTER
 62
     1
 10
117.546982
 20
-46.409760
 11
117.546982
 21
-53.409760
  0
LINE
  8
0
 62
     4
 10
112.546982
 20
-45.409760
 11
112.546982
 21
-100.409760
  0
LINE
  8
0
 62
     4
 10
137.546982
 20
-45.409760
 11
137.546982
 21
-100.409760
  0
LINE
  8
0
 62
     4
 10
137.546982
 20
-45.409760
 11
112.546982
 21
-45.409760
  0
LINE
  8
0
 62
     4
 10
137.546982
 20
-100.409760
 11
112.546982
 21
-100.409760
  0
LINE
  8
0
 10
87.546982
 20
-58.909760
 11
87.546982
 21
-93.909760
  0
LINE
  8
0
 10
105.796982
 20
-89.409760
 11
111.296982
 21
-89.409760
  0
LINE
  8
0
 10
105.346985
 20
-89.909760
 11
105.346985
 21
-93.909760
  0
LINE
  8
0
 10
111.046982
 20
-94.409760
 11
88.140755
 21
-94.409760
  0
LINE
  8
0
 10
111.546982
 20
-86.909760
 11
87.546982
 21
-86.909760
  0
LINE
  8
0
 10
111.546982
 20
-58.909760
 11
87.546982
 21
-58.909760
  0
LINE
  8
0
 10
111.546982
 20
-58.909760
 11
111.546982
 21
-93.909760
  0
LINE
  8
0
 10
105.746979
 20
-90.599762
 11
105.746979
 21
-89.409760
  0
LINE
  8
0
 62
     3
 10
111.346985
 20
-90.599762
 11
111.346985
 21
-89.409760
  0
LINE
  8
0
 10
87.746979
 20
-43.609760
 11
87.746979
 21
-42.067295
  0
LINE
  8
0
 10
87.546982
 20
-43.609760
 11
87.546982
 21
-39.609760
  0
LINE
  8
0
 10
87.546982
 20
-43.609760
 11
93.546982
 21
-43.609760
  0
LINE
  8
0
 62
     4
 10
78.246979
 20
-40.109760
 11
78.746979
 21
-40.109760
  0
LINE
  8
0
 10
78.746979
 20
-51.009758
 11
78.746979
 21
-39.609760
  0
LINE
  8
0
 10
79.146980
 20
-51.409760
 11
87.046982
 21
-51.409760
  0
LINE
  8
0
 10
111.546982
 20
-40.109760
 11
111.046982
 21
-39.609760
  0
LINE
  8
0
 10
111.046982
 20
-39.609760
 11
93.546982
 21
-39.609760
  0
LINE
  8
0
 10
93.346985
 20
-43.609760
 11
93.346985
 21
-42.067295
  0
LINE
  8
0
 62
     4
 10
97.156166
 20
-25.109760
 11
96.345062
 21
-20.509760
  0
LINE
  8
0
 62
     4
 10
95.846985
 20
-26.409760
 11
95.846985
 21
-20.509758
  0
LINE
  8
0
 62
     4
 10
96.345062
 20
-20.509758
 11
95.846985
 21
-20.509758
  0
LINE
  8
0
 62
     4
 10
95.746979
 20
-21.109760
 11
95.846985
 21
-21.109760
  0
LINE
  8
0
 62
     4
 10
79.746979
 20
-26.409760
 11
79.746979
 21
-38.909760
  0
LINE
  8
0
 62
     4
 10
103.846985
 20
-25.109760
 11
97.156166
 21
-25.109760
  0
LINE
  8
0
 62
     4
 10
79.746979
 20
-26.409760
 11
95.846985
 21
-26.409760
  0
LINE
  8
0
 62
     4
 10
78.246979
 20
-40.109760
 11
78.246979
 21
-39.209759
  0
LINE
  8
0
 62
     4
 10
78.246979
 20
-38.909760
 11
79.746979
 21
-38.909760
  0
LINE
  8
0
 62
     4
 10
78.246986
 20
-39.209763
 11
78.546982
 21
-38.909763
  0
LINE
  8
0
 62
     4
 10
110.246979
 20
-28.609760
 11
104.464127
 21
-28.609760
  0
LINE
  8
0
 62
     4
 10
103.346985
 20
-26.109760
 11
100.146980
 21
-26.109760
  0
LINE
  8
0
 62
     4
 10
103.246979
 20
-26.009760
 11
103.246979
 21
-26.109760
  0
LINE
  8
0
 62
     4
 10
103.346985
 20
-25.109760
 11
103.346985
 21
-26.109760
  0
LINE
  8
0
 62
     4
 10
104.464127
 20
-28.609762
 11
103.846985
 21
-25.109760
  0
LINE
  8
0
 62
     4
 10
102.746979
 20
-25.509760
 11
100.746979
 21
-25.509760
  0
LINE
  8
0
 62
     4
 10
100.246979
 20
-26.009760
 11
100.246979
 21
-26.109760
  0
LINE
  8
0
 62
     4
 10
100.146980
 20
-25.109760
 11
100.146980
 21
-26.109760
  0
LINE
  8
0
 62
     4
 10
109.546982
 20
-29.309759
 11
109.546982
 21
-36.909760
  0
LINE
  8
0
 62
     4
 10
110.246979
 20
-39.609760
 11
110.246979
 21
-28.609760
  0
LINE
  8
0
 62
     4
 10
108.746979
 20
-29.309759
 11
108.746979
 21
-36.909760
  0
LINE
  8
0
 62
     4
 10
108.746979
 20
-29.309759
 11
109.546982
 21
-29.309759
  0
LINE
  8
0
 62
     4
 10
109.546982
 20
-36.909760
 11
108.746979
 21
-36.909760
  0
LINE
  8
0
 62
     4
 10
78.246979
 20
-38.909760
 11
78.246979
 21
-20.809761
  0
LINE
  8
0
 62
     4
 10
90.446983
 20
-20.509758
 11
78.546982
 21
-20.509758
  0
LINE
  8
0
 62
     4
 10
95.746979
 20
-15.009758
 11
95.746979
 21
-26.409760
  0
LINE
  8
0
 62
     4
 10
90.446983
 20
-15.009758
 11
90.446983
 21
-20.509758
  0
LINE
  8
0
 62
     4
 10
90.647224
 20
-10.909760
 11
89.446983
 21
-10.909760
  0
LINE
  8
0
 62
     4
 10
95.746979
 20
-10.909762
 11
96.246979
 21
-10.621085
  0
LINE
  8
0
 62
     4
 10
96.246979
 20
-10.621086
 11
96.246979
 21
-9.909760
  0
LINE
  8
0
 62
     4
 10
95.046982
 20
-15.009758
 11
95.046982
 21
-14.909760
  0
LINE
  8
0
 62
     4
 10
96.246979
 20
-9.909760
 11
90.946983
 21
-9.909760
  0
LINE
  8
0
 62
     4
 10
90.647224
 20
-10.909761
 11
90.946983
 21
-12.609762
  0
LINE
  8
0
  6
PHANTOM
 62
     4
 10
90.946983
 20
-14.109760
 11
90.946983
 21
-12.611145
  0
LINE
  8
0
 62
     4
 10
90.946983
 20
-15.009758
 11
90.946983
 21
-9.909760
  0
LINE
  8
0
 62
     4
 10
90.946983
 20
-14.909760
 11
95.746979
 21
-14.909760
  0
LINE
  8
0
 62
     4
 10
95.746979
 20
-14.909760
 11
95.746979
 21
-10.909760
  0
LINE
  8
0
 62
     4
 10
95.746979
 20
-15.009758
 11
90.446983
 21
-15.009758
  0
LINE
  8
0
 62
     4
 10
89.446983
 20
-11.621086
 11
89.446983
 21
-10.909760
  0
LINE
  8
0
 62
     4
 10
89.946983
 20
-11.909760
 11
89.446983
 21
-11.621087
  0
LINE
  8
0
 62
     4
 10
90.446983
 20
-19.309759
 11
89.946983
 21
-18.443733
  0
LINE
  8
0
 62
     4
 10
89.946983
 20
-18.443733
 11
89.946983
 21
-11.909760
  0
LINE
  8
0
 10
93.546982
 20
-43.609760
 11
93.546982
 21
-39.609760
  0
LINE
  8
0
 10
87.546982
 20
-40.109760
 11
93.546982
 21
-40.109760
  0
LINE
  8
0
 10
87.546982
 20
-39.609760
 11
78.746979
 21
-39.609760
  0
LINE
  8
0
 10
79.146980
 20
-48.609760
 11
87.146980
 21
-48.609760
  0
LINE
  8
0
 10
111.546982
 20
-58.909760
 11
111.546982
 21
-40.109760
  0
LINE
  8
0
 10
87.546982
 20
-58.909760
 11
87.546982
 21
-49.009758
  0
LINE
  8
0
 10
112.546982
 20
-46.709759
 11
111.546982
 21
-46.709759
  0
LINE
  8
0
 10
111.546982
 20
-46.709759
 11
111.546982
 21
-53.709759
  0
LINE
  8
0
 10
112.546982
 20
-46.709759
 11
112.546982
 21
-53.709759
  0
LINE
  8
0
 10
112.546982
 20
-53.709759
 11
111.546982
 21
-53.709759
  0
LINE
  8
0
 10
112.546982
 20
-58.909760
 11
111.546982
 21
-58.909760
  0
LINE
  8
0
 10
112.546982
 20
-86.909760
 11
111.546982
 21
-86.909760
  0
LINE
  8
0
 10
111.546982
 20
-58.909760
 11
111.546982
 21
-86.909760
  0
LINE
  8
0
 10
112.546982
 20
-58.909760
 11
112.546982
 21
-86.909760
  0
LINE
  8
0
 10
112.546982
 20
-92.109756
 11
111.546982
 21
-92.109756
  0
LINE
  8
0
 10
112.546982
 20
-99.109756
 11
112.546982
 21
-92.109756
  0
LINE
  8
0
 10
112.546982
 20
-99.109756
 11
111.546982
 21
-99.109756
  0
LINE
  8
0
 10
111.546982
 20
-99.109756
 11
111.046982
 21
-97.729759
  0
LINE
  8
0
 10
111.046982
 20
-94.409760
 11
111.046982
 21
-97.729759
  0
LINE
  8
0
 10
111.546982
 20
-92.109756
 11
111.546982
 21
-93.909760
  0
LINE
  8
0
  6
CENTER
 62
     2
 10
15.046980
 20
64.525696
 11
15.046980
 21
69.995712
  0
LINE
  8
0
  6
CENTER
 62
     2
 10
4.046980
 20
64.525696
 11
4.046980
 21
69.995712
  0
LINE
  8
0
  6
CENTER
 62
     1
 10
21.546980
 20
89.729683
 11
21.546980
 21
96.009277
  0
LINE
  8
0
  6
CENTER
 62
     1
 10
-2.453020
 20
89.729683
 11
-2.453020
 21
96.009277
  0
LINE
  8
0
 62
     4
 10
-5.453020
 20
67.218857
 11
-5.453020
 21
92.218857
  0
LINE
  8
0
 62
     4
 10
24.546980
 20
67.218857
 11
24.546980
 21
92.218857
  0
LINE
  8
0
 10
16.646980
 20
66.218857
 11
2.446980
 21
66.218857
  0
LINE
  8
0
  6
CENTER
 62
     2
 10
9.546980
 20
94.781731
 11
9.546980
 21
30.782925
  0
LINE
  8
0
 10
15.546976
 20
65.718857
 11
16.860916
 21
66.156837
  0
LINE
  8
0
 10
8.046980
 20
65.718857
 11
15.546980
 21
65.718857
  0
LINE
  8
0
 10
8.046980
 20
65.118858
 11
15.091084
 21
65.118858
  0
LINE
  8
0
 10
17.046980
 20
65.818855
 11
17.046980
 21
33.818855
  0
LINE
  8
0
 10
2.046980
 20
65.818855
 11
2.046980
 21
33.818855
  0
LINE
  8
0
 10
4.546980
 20
33.418858
 11
2.446980
 21
33.418858
  0
LINE
  8
0
 10
14.546980
 20
33.418858
 11
16.646980
 21
33.418858
  0
LINE
  8
0
 10
2.046980
 20
60.218857
 11
4.546980
 21
60.218857
  0
LINE
  8
0
 10
8.046980
 20
66.218857
 11
8.046980
 21
64.918854
  0
LINE
  8
0
 10
14.546980
 20
42.218857
 11
17.046980
 21
42.218857
  0
LINE
  8
0
 10
14.546980
 20
48.218857
 11
17.046980
 21
48.218857
  0
LINE
  8
0
 10
14.546980
 20
44.718861
 11
15.397782
 21
43.868057
  0
LINE
  8
0
 10
3.696180
 20
64.569656
 11
4.546980
 21
63.718857
  0
LINE
  8
0
 10
15.397778
 20
46.569656
 11
14.546981
 21
45.718861
  0
LINE
  8
0
 10
4.546981
 20
62.718857
 11
3.696182
 21
61.868057
  0
LINE
  8
0
 10
14.796980
 20
33.418858
 11
14.796980
 21
42.218857
  0
LINE
  8
0
 10
4.296980
 20
33.418858
 11
4.296980
 21
60.218857
  0
LINE
  8
0
 10
14.796980
 20
48.218857
 11
14.796980
 21
65.118858
  0
LINE
  8
0
 10
3.546980
 20
60.218857
 11
3.546980
 21
33.418858
  0
LINE
  8
0
 10
15.546980
 20
65.718857
 11
15.546980
 21
48.218857
  0
LINE
  8
0
 10
15.546980
 20
42.218857
 11
15.546980
 21
33.418858
  0
LINE
  8
0
 62
     4
 10
14.246981
 20
50.418858
 11
14.546980
 21
50.418858
  0
LINE
  8
0
 62
     4
 10
14.246981
 20
50.518856
 11
14.546980
 21
50.518856
  0
LINE
  8
0
 62
     4
 10
7.046980
 20
45.118858
 11
4.846980
 21
45.118858
  0
LINE
  8
0
 62
     4
 10
7.046980
 20
46.118858
 11
6.646980
 21
46.118858
  0
LINE
  8
0
 62
     4
 10
12.046980
 20
45.318855
 11
7.046980
 21
45.318855
  0
LINE
  8
0
 62
     4
 10
12.046980
 20
44.118858
 11
7.046980
 21
44.118858
  0
LINE
  8
0
 62
     4
 10
13.246980
 20
46.618858
 11
5.846980
 21
46.618858
  0
LINE
  8
0
 62
     4
 10
14.246981
 20
50.918858
 11
14.246981
 21
45.618858
  0
LINE
  8
0
 62
     4
 10
4.846980
 20
50.918858
 11
4.846980
 21
45.618858
  0
LINE
  8
0
 62
     4
 10
14.246981
 20
50.918858
 11
4.846980
 21
50.918858
  0
LINE
  8
0
 62
     4
 10
12.636980
 20
49.218857
 11
12.636980
 21
49.718857
  0
LINE
  8
0
 62
     4
 10
11.536980
 20
49.218857
 11
11.536980
 21
49.718857
  0
LINE
  8
0
 62
     4
 10
13.036980
 20
47.118858
 11
11.136980
 21
47.118858
  0
LINE
  8
0
 62
     4
 10
12.962980
 20
49.218857
 11
11.212980
 21
49.218857
  0
LINE
  8
0
 62
     4
 10
12.636980
 20
49.718857
 11
11.536980
 21
49.718857
  0
LINE
  8
0
 62
     4
 10
8.296980
 20
45.618858
 11
8.296980
 21
46.618858
  0
LINE
  8
0
 62
     4
 10
10.796980
 20
45.618858
 11
10.796980
 21
46.618858
  0
LINE
  8
0
 62
     4
 10
14.246981
 20
45.618858
 11
13.246980
 21
45.618858
  0
LINE
  8
0
 62
     4
 10
13.246980
 20
46.618858
 11
13.246980
 21
45.618858
  0
LINE
  8
0
 62
     4
 10
4.846980
 20
45.618858
 11
5.846980
 21
45.618858
  0
LINE
  8
0
 62
     4
 10
5.846980
 20
46.618858
 11
5.846980
 21
45.618858
  0
LINE
  8
0
 62
     4
 10
11.136979
 20
47.118855
 11
11.012980
 21
49.006859
  0
LINE
  8
0
 62
     4
 10
13.162981
 20
49.006859
 11
13.036981
 21
47.118858
  0
LINE
  8
0
 62
     4
 10
10.496980
 20
47.118858
 11
8.596980
 21
47.118858
  0
LINE
  8
0
 62
     4
 10
10.622980
 20
49.006859
 11
10.496980
 21
47.118858
  0
LINE
  8
0
 62
     4
 10
10.422980
 20
49.218857
 11
8.672980
 21
49.218857
  0
LINE
  8
0
 62
     4
 10
10.096980
 20
49.218857
 11
10.096980
 21
49.718857
  0
LINE
  8
0
 62
     4
 10
10.096980
 20
49.718857
 11
8.996980
 21
49.718857
  0
LINE
  8
0
 62
     4
 10
8.996980
 20
49.218857
 11
8.996980
 21
49.718857
  0
LINE
  8
0
 62
     4
 10
8.596980
 20
47.118858
 11
8.472980
 21
49.006855
  0
LINE
  8
0
 62
     4
 10
9.946980
 20
47.718857
 11
9.946980
 21
48.518856
  0
LINE
  8
0
 62
     4
 10
9.146980
 20
47.718857
 11
9.946980
 21
47.718857
  0
LINE
  8
0
 62
     4
 10
9.146980
 20
47.718857
 11
9.146980
 21
48.518856
  0
LINE
  8
0
 62
     4
 10
9.146980
 20
48.518856
 11
9.946980
 21
48.518856
  0
LINE
  8
0
 62
     4
 10
7.956980
 20
47.118858
 11
6.056980
 21
47.118858
  0
LINE
  8
0
 62
     4
 10
8.082980
 20
49.006859
 11
7.956980
 21
47.118858
  0
LINE
  8
0
 62
     4
 10
7.882980
 20
49.218857
 11
6.132980
 21
49.218857
  0
LINE
  8
0
 62
     4
 10
7.556980
 20
49.218857
 11
7.556980
 21
49.718857
  0
LINE
  8
0
 62
     4
 10
7.556980
 20
49.718857
 11
6.456980
 21
49.718857
  0
LINE
  8
0
 62
     4
 10
6.456980
 20
49.218857
 11
6.456980
 21
49.718857
  0
LINE
  8
0
 62
     4
 10
6.056980
 20
47.118855
 11
5.932980
 21
49.006855
  0
LINE
  8
0
 62
     4
 10
12.046980
 20
44.118858
 11
12.046980
 21
46.618858
  0
LINE
  8
0
 62
     4
 10
7.046980
 20
44.118858
 11
7.046980
 21
46.618858
  0
LINE
  8
0
 62
     4
 10
12.446980
 20
45.618858
 11
6.646980
 21
45.618858
  0
LINE
  8
0
 62
     4
 10
6.646980
 20
46.118858
 11
6.646980
 21
45.118858
  0
LINE
  8
0
 62
     4
 10
12.446980
 20
46.118858
 11
12.446980
 21
45.118858
  0
LINE
  8
0
 62
     4
 10
12.446980
 20
46.118858
 11
12.046980
 21
46.118858
  0
LINE
  8
0
 62
     4
 10
14.246981
 20
45.118858
 11
12.046980
 21
45.118858
  0
LINE
  8
0
 62
     4
 10
4.846980
 20
32.918858
 11
14.246981
 21
32.918858
  0
LINE
  8
0
 62
     4
 10
4.546980
 20
50.418858
 11
4.846980
 21
50.418858
  0
LINE
  8
0
 62
     1
 10
8.046980
 20
37.918858
 11
8.046980
 21
32.918858
  0
LINE
  8
0
 62
     1
 10
11.046980
 20
37.918858
 11
8.046980
 21
37.918858
  0
LINE
  8
0
 62
     1
 10
11.046980
 20
37.918858
 11
11.046980
 21
32.918858
  0
LINE
  8
0
 62
     4
 10
6.746980
 20
52.618858
 11
6.746980
 21
54.118858
  0
LINE
  8
0
 62
     4
 10
5.246980
 20
52.618858
 11
5.246980
 21
54.118858
  0
LINE
  8
0
 62
     4
 10
6.746980
 20
52.618858
 11
5.246980
 21
52.618858
  0
LINE
  8
0
 62
     4
 10
6.746980
 20
54.118858
 11
5.246980
 21
54.118858
  0
LINE
  8
0
 62
     4
 10
11.941351
 20
58.959675
 11
12.196981
 21
58.518852
  0
LINE
  8
0
 62
     4
 10
6.896979
 20
58.518852
 11
7.152611
 21
58.959675
  0
LINE
  8
0
 62
     4
 10
10.691350
 20
57.709675
 11
10.946979
 21
57.268860
  0
LINE
  8
0
 62
     4
 10
12.196980
 20
58.518856
 11
10.946980
 21
57.268856
  0
LINE
  8
0
 62
     4
 10
10.691351
 20
57.709675
 11
11.941353
 21
58.959675
  0
LINE
  8
0
 62
     4
 10
8.402607
 20
57.709671
 11
8.146977
 21
57.268856
  0
LINE
  8
0
 62
     4
 10
4.546980
 20
51.828041
 11
14.546980
 21
51.828041
  0
LINE
  8
0
 62
     4
 10
8.402610
 20
57.709675
 11
7.152611
 21
58.959675
  0
LINE
  8
0
 62
     4
 10
4.546980
 20
58.959675
 11
7.152610
 21
58.959675
  0
LINE
  8
0
 62
     4
 10
11.941350
 20
58.959675
 11
14.546980
 21
58.959675
  0
LINE
  8
0
 62
     4
 10
10.691350
 20
57.709675
 11
8.402610
 21
57.709675
  0
LINE
  8
0
 62
     4
 10
4.546980
 20
58.518856
 11
6.896980
 21
58.518856
  0
LINE
  8
0
 62
     4
 10
6.896979
 20
58.518852
 11
8.146977
 21
57.268856
  0
LINE
  8
0
 62
     4
 10
10.946980
 20
57.268856
 11
8.146980
 21
57.268856
  0
LINE
  8
0
 62
     4
 10
12.196980
 20
58.518856
 11
14.546980
 21
58.518856
  0
LINE
  8
0
 62
     4
 10
14.546980
 20
51.016933
 11
4.546980
 21
51.016933
  0
LINE
  8
0
 62
     4
 10
4.546980
 20
50.518856
 11
4.846980
 21
50.518856
  0
LINE
  8
0
 62
     4
 10
6.046980
 20
54.818855
 11
4.546980
 21
54.818855
  0
LINE
  8
0
 62
     4
 10
4.546980
 20
58.018856
 11
6.046980
 21
58.018856
  0
LINE
  8
0
 62
     4
 10
13.046980
 20
58.018856
 11
14.546980
 21
58.018856
  0
LINE
  8
0
 62
     4
 10
14.546980
 20
54.818855
 11
13.046980
 21
54.818855
  0
LINE
  8
0
 62
     4
 10
14.546980
 20
33.218857
 11
14.546980
 21
64.918854
  0
LINE
  8
0
  6
CENTER
 62
     2
 10
7.046980
 20
54.668858
 11
12.046980
 21
54.668858
  0
LINE
  8
0
 62
     4
 10
4.546980
 20
33.218857
 11
4.546980
 21
64.918854
  0
LINE
  8
0
 62
     4
 10
7.721466
 20
54.968857
 11
11.372494
 21
54.968857
  0
LINE
  8
0
 62
     4
 10
9.546980
 20
54.368858
 11
11.372494
 21
54.368858
  0
LINE
  8
0
 62
     4
 10
7.721466
 20
54.368858
 11
9.546980
 21
54.368858
  0
LINE
  8
0
 62
     4
 10
13.754087
 20
57.125961
 11
12.339872
 21
55.711750
  0
LINE
  8
0
 62
     4
 10
13.754086
 20
55.711750
 11
12.339873
 21
57.125961
  0
LINE
  8
0
 62
     4
 10
5.339874
 20
55.711750
 11
6.754086
 21
57.125965
  0
LINE
  8
0
 62
     4
 10
5.339876
 20
57.125965
 11
6.754088
 21
55.711750
  0
LINE
  8
0
 62
     4
 10
4.546980
 20
64.918854
 11
14.546980
 21
64.918854
  0
LINE
  8
0
 10
2.543652
 20
66.218857
 11
2.543652
 21
67.218857
  0
LINE
  8
0
 10
16.543652
 20
67.218857
 11
2.543652
 21
67.218857
  0
LINE
  8
0
 10
16.543652
 20
66.218857
 11
2.543652
 21
66.218857
  0
LINE
  8
0
 10
16.543652
 20
66.218857
 11
16.543652
 21
67.218857
  0
LINE
  8
0
 62
     4
 10
-5.453020
 20
67.218857
 11
24.546980
 21
67.218857
  0
LINE
  8
0
 62
     4
 10
-5.453020
 20
92.218857
 11
24.546980
 21
92.218857
  0
LINE
  8
0
  6
CENTER
 62
     2
 10
-105.794235
 20
-81.909760
 11
-99.372589
 21
-81.909760
  0
LINE
  8
0
  6
CENTER
 62
     2
 10
-105.794235
 20
-63.909760
 11
-99.372589
 21
-63.909760
  0
LINE
  8
0
  6
CENTER
 62
     1
 10
-131.678970
 20
-80.409760
 11
-125.217117
 21
-80.409760
  0
LINE
  8
0
  6
CENTER
 62
     1
 10
-131.678970
 20
-55.409760
 11
-125.217117
 21
-55.409760
  0
LINE
  8
0
 62
     4
 10
-109.478020
 20
-81.964539
 11
-112.428017
 21
-81.964539
  0
LINE
  8
0
 62
     4
 10
-112.428024
 20
-81.964531
 11
-113.903023
 21
-79.409760
  0
LINE
  8
0
 62
     4
 10
-113.903015
 20
-79.409760
 11
-112.428017
 21
-76.854988
  0
LINE
  8
0
 62
     4
 10
-108.003014
 20
-79.409760
 11
-109.478020
 21
-81.964531
  0
LINE
  8
0
 62
     4
 10
-109.478012
 20
-76.854980
 11
-108.003014
 21
-79.409752
  0
LINE
  8
0
 62
     4
 10
-112.428017
 20
-76.854980
 11
-109.478020
 21
-76.854980
  0
LINE
  8
0
 62
     1
 10
-81.313019
 20
-4.659758
 11
-87.313019
 21
-3.059759
  0
LINE
  8
0
 62
     1
 10
-81.313019
 20
-5.899760
 11
-87.313019
 21
-4.299759
  0
LINE
  8
0
 62
     4
 10
-83.638016
 20
-4.039761
 11
-83.638016
 21
0.520241
  0
LINE
  8
0
 62
     4
 10
-85.068024
 20
-3.658424
 11
-85.068024
 21
0.520241
  0
LINE
  8
0
 62
     4
 10
-84.753021
 20
0.520241
 11
-84.753021
 21
5.520241
  0
LINE
  8
0
 62
     4
 10
-83.953018
 20
0.520241
 11
-83.953018
 21
5.520241
  0
LINE
  8
0
 62
     4
 10
-85.068024
 20
0.520241
 11
-83.638016
 21
0.520241
  0
LINE
  8
0
 62
     4
 10
-84.753021
 20
5.520241
 11
-83.953018
 21
5.520241
  0
LINE
  8
0
 62
     4
 10
-85.068024
 20
-9.909760
 11
-85.068024
 21
-4.898426
  0
LINE
  8
0
 62
     4
 10
-83.638016
 20
-9.909760
 11
-83.638016
 21
-5.279758
  0
LINE
  8
0
 10
-80.853020
 20
-62.099758
 11
-80.853020
 21
-65.729759
  0
LINE
  8
0
 10
-81.453018
 20
-62.099758
 11
-81.453018
 21
-65.729759
  0
LINE
  8
0
 10
-81.453018
 20
-65.729759
 11
-78.453018
 21
-65.729759
  0
LINE
  8
0
 10
-81.453018
 20
-62.099758
 11
-78.453018
 21
-62.099758
  0
LINE
  8
0
  6
CENTER
 62
     1
 10
-120.953018
 20
-59.409760
 11
-120.953018
 21
-73.409760
  0
LINE
  8
0
  6
CENTER
 62
     1
 10
-110.953018
 20
-72.409760
 11
-110.953018
 21
-86.409760
  0
LINE
  8
0
  6
CENTER
 62
     1
 10
-127.953018
 20
-66.409760
 11
-113.953018
 21
-66.409760
  0
LINE
  8
0
  6
CENTER
 62
     1
 10
-117.953018
 20
-79.409760
 11
-103.953018
 21
-79.409760
  0
LINE
  8
0
 62
     4
 10
-128.453018
 20
-100.409760
 11
-103.453018
 21
-100.409760
  0
LINE
  8
0
 62
     4
 10
-128.453018
 20
-45.409760
 11
-103.453018
 21
-45.409760
  0
LINE
  8
0
 62
     4
 10
-128.453018
 20
-45.409760
 11
-128.453018
 21
-100.409760
  0
LINE
  8
0
 62
     4
 10
-103.453018
 20
-45.409760
 11
-103.453018
 21
-100.409760
  0
LINE
  8
0
 62
     4
 10
-80.853020
 20
-18.443733
 11
-80.853020
 21
-11.909760
  0
LINE
  8
0
 62
     4
 10
-81.353012
 20
-19.309757
 11
-80.853020
 21
-18.443733
  0
LINE
  8
0
 62
     4
 10
-80.853020
 20
-11.909760
 11
-80.353020
 21
-11.621086
  0
LINE
  8
0
 62
     4
 10
-80.353020
 20
-11.621086
 11
-80.353020
 21
-10.909760
  0
LINE
  8
0
 62
     4
 10
-86.653015
 20
-15.009758
 11
-81.353020
 21
-15.009758
  0
LINE
  8
0
 62
     4
 10
-86.653015
 20
-14.909760
 11
-86.653015
 21
-10.909760
  0
LINE
  8
0
 62
     4
 10
-81.853020
 20
-14.909760
 11
-86.653015
 21
-14.909760
  0
LINE
  8
0
 62
     4
 10
-81.853020
 20
-15.009758
 11
-81.853020
 21
-9.909760
  0
LINE
  8
0
  6
PHANTOM
 62
     4
 10
-81.853020
 20
-14.109760
 11
-81.853020
 21
-12.611145
  0
LINE
  8
0
 62
     4
 10
-81.553261
 20
-10.909760
 11
-81.853020
 21
-12.609762
  0
LINE
  8
0
 62
     4
 10
-87.153015
 20
-9.909760
 11
-81.853020
 21
-9.909760
  0
LINE
  8
0
 62
     4
 10
-85.953018
 20
-15.009758
 11
-85.953018
 21
-14.909760
  0
LINE
  8
0
 62
     4
 10
-87.153015
 20
-10.621086
 11
-87.153015
 21
-9.909760
  0
LINE
  8
0
 62
     4
 10
-86.653015
 20
-10.909758
 11
-87.153015
 21
-10.621085
  0
LINE
  8
0
 62
     4
 10
-81.553261
 20
-10.909760
 11
-80.353020
 21
-10.909760
  0
LINE
  8
0
 62
     4
 10
-81.353020
 20
-15.009758
 11
-81.353020
 21
-20.509758
  0
LINE
  8
0
 62
     4
 10
-86.653015
 20
-15.009758
 11
-86.653015
 21
-26.409760
  0
LINE
  8
0
 62
     4
 10
-81.353020
 20
-20.509758
 11
-69.453018
 21
-20.509758
  0
LINE
  8
0
 62
     4
 10
-69.153015
 20
-38.909760
 11
-69.153015
 21
-20.809761
  0
LINE
  8
0
 62
     4
 10
-100.453018
 20
-36.909760
 11
-99.653015
 21
-36.909760
  0
LINE
  8
0
 62
     4
 10
-99.653015
 20
-29.309759
 11
-100.453018
 21
-29.309759
  0
LINE
  8
0
 62
     4
 10
-99.653015
 20
-29.309759
 11
-99.653015
 21
-36.909760
  0
LINE
  8
0
 62
     4
 10
-101.153015
 20
-40.109760
 11
-101.153015
 21
-28.609760
  0
LINE
  8
0
 62
     4
 10
-100.453018
 20
-29.309759
 11
-100.453018
 21
-36.909760
  0
LINE
  8
0
 62
     4
 10
-91.053017
 20
-25.109760
 11
-91.053017
 21
-26.109760
  0
LINE
  8
0
 62
     4
 10
-91.153015
 20
-26.009760
 11
-91.153015
 21
-26.109760
  0
LINE
  8
0
 62
     4
 10
-93.653015
 20
-25.509760
 11
-91.653015
 21
-25.509760
  0
LINE
  8
0
 62
     4
 10
-95.370163
 20
-28.609760
 11
-94.753021
 21
-25.109760
  0
LINE
  8
0
 62
     4
 10
-94.253021
 20
-25.109760
 11
-94.253021
 21
-26.109760
  0
LINE
  8
0
 62
     4
 10
-94.153015
 20
-26.009760
 11
-94.153015
 21
-26.109760
  0
LINE
  8
0
 62
     4
 10
-94.253021
 20
-26.109760
 11
-91.053017
 21
-26.109760
  0
LINE
  8
0
 62
     4
 10
-101.153015
 20
-28.609760
 11
-95.370163
 21
-28.609760
  0
LINE
  8
0
 62
     4
 10
-69.153015
 20
-39.209759
 11
-69.453018
 21
-38.909760
  0
LINE
  8
0
 62
     4
 10
-69.153015
 20
-38.909760
 11
-70.653015
 21
-38.909760
  0
LINE
  8
0
 62
     4
 10
-69.153015
 20
-40.109760
 11
-69.153015
 21
-39.209759
  0
LINE
  8
0
 62
     4
 10
-70.653015
 20
-26.409760
 11
-86.753021
 21
-26.409760
  0
LINE
  8
0
 62
     4
 10
-94.753021
 20
-25.109760
 11
-88.062202
 21
-25.109760
  0
LINE
  8
0
 62
     4
 10
-70.653015
 20
-26.409760
 11
-70.653015
 21
-38.909760
  0
LINE
  8
0
 62
     4
 10
-86.653015
 20
-21.109760
 11
-86.753021
 21
-21.109760
  0
LINE
  8
0
 62
     4
 10
-87.251099
 20
-20.509758
 11
-86.753021
 21
-20.509758
  0
LINE
  8
0
 62
     4
 10
-86.753021
 20
-26.409760
 11
-86.753021
 21
-20.509758
  0
LINE
  8
0
 62
     4
 10
-88.062210
 20
-25.109762
 11
-87.251106
 21
-20.509760
  0
LINE
  8
0
 10
-102.253021
 20
-43.609760
 11
-102.253021
 21
-42.067295
  0
LINE
  8
0
 10
-101.353020
 20
-39.609760
 11
-101.353020
 21
-40.109760
  0
LINE
  8
0
 10
-69.653015
 20
-39.609760
 11
-96.453018
 21
-39.609760
  0
LINE
  8
0
 10
-102.453018
 20
-40.109760
 11
-101.953018
 21
-39.609760
  0
LINE
  8
0
 10
-102.453018
 20
-58.909760
 11
-102.453018
 21
-40.109760
  0
LINE
  8
0
 10
-70.053017
 20
-51.409760
 11
-77.953018
 21
-51.409760
  0
LINE
  8
0
 10
-69.653015
 20
-51.009758
 11
-69.653015
 21
-39.609760
  0
LINE
  8
0
 10
-78.453018
 20
-58.909760
 11
-102.453018
 21
-58.909760
  0
LINE
  8
0
 62
     4
 10
-69.153015
 20
-40.109760
 11
-69.653015
 21
-40.109760
  0
LINE
  8
0
 10
-78.453018
 20
-58.909760
 11
-78.453018
 21
-49.009758
  0
LINE
  8
0
 10
-96.453018
 20
-43.609760
 11
-102.453018
 21
-43.609760
  0
LINE
  8
0
 10
-96.453018
 20
-43.609760
 11
-96.453018
 21
-39.609760
  0
LINE
  8
0
 10
-96.653015
 20
-43.609760
 11
-96.653015
 21
-42.067295
  0
LINE
  8
0
 10
-70.053017
 20
-48.609760
 11
-78.053017
 21
-48.609760
  0
LINE
  8
0
 10
-96.453018
 20
-40.109760
 11
-101.353020
 21
-40.109760
  0
LINE
  8
0
 10
-101.153015
 20
-39.609760
 11
-101.953018
 21
-39.609760
  0
LINE
  8
0
 10
-78.653015
 20
-90.599762
 11
-78.653015
 21
-89.409760
  0
LINE
  8
0
 10
-84.253021
 20
-90.599762
 11
-84.253021
 21
-89.409760
  0
LINE
  8
0
 10
-102.453018
 20
-58.909760
 11
-102.453018
 21
-93.909760
  0
LINE
  8
0
 10
-102.453018
 20
-86.909760
 11
-78.453018
 21
-86.909760
  0
LINE
  8
0
 10
-101.953018
 20
-94.409760
 11
-79.046791
 21
-94.409760
  0
LINE
  8
0
 10
-84.653015
 20
-89.909760
 11
-84.653015
 21
-93.909760
  0
LINE
  8
0
 10
-84.203018
 20
-89.409760
 11
-78.703018
 21
-89.409760
  0
LINE
  8
0
 10
-78.453018
 20
-58.909760
 11
-78.453018
 21
-93.909760
  0
LINE
  8
0
 10
-103.453018
 20
-92.109756
 11
-102.453018
 21
-92.109756
  0
LINE
  8
0
 10
-103.453018
 20
-99.109756
 11
-103.453018
 21
-92.109756
  0
LINE
  8
0
 10
-103.453018
 20
-99.109756
 11
-102.453018
 21
-99.109756
  0
LINE
  8
0
 10
-102.453018
 20
-99.109756
 11
-101.953018
 21
-97.729767
  0
LINE
  8
0
 10
-101.953018
 20
-94.409760
 11
-101.953018
 21
-97.729759
  0
LINE
  8
0
 10
-102.453018
 20
-92.109756
 11
-102.453018
 21
-93.909760
  0
LINE
  8
0
 10
-103.453018
 20
-46.709759
 11
-102.453018
 21
-46.709759
  0
LINE
  8
0
 10
-102.453018
 20
-46.709759
 11
-102.453018
 21
-53.709759
  0
LINE
  8
0
 10
-103.453018
 20
-46.709759
 11
-103.453018
 21
-53.709759
  0
LINE
  8
0
 10
-103.453018
 20
-53.709759
 11
-102.453018
 21
-53.709759
  0
LINE
  8
0
 10
-103.453018
 20
-58.909760
 11
-102.453018
 21
-58.909760
  0
LINE
  8
0
 10
-103.453018
 20
-86.909760
 11
-102.453018
 21
-86.909760
  0
LINE
  8
0
 10
-102.453018
 20
-58.909760
 11
-102.453018
 21
-86.909760
  0
LINE
  8
0
 10
-103.453018
 20
-58.909760
 11
-103.453018
 21
-86.909760
  0
LINE
  8
0
  6
CENTER
 62
     2
 10
6.546980
 20
-48.609760
 11
12.546980
 21
-48.609760
  0
LINE
  8
0
 62
     4
 10
12.801980
 20
-3.949760
 11
12.801980
 21
0.620239
  0
LINE
  8
0
 62
     4
 10
11.371980
 20
-3.569759
 11
11.371980
 21
0.620239
  0
LINE
  8
0
 62
     4
 10
11.686980
 20
0.620239
 11
11.686980
 21
5.620239
  0
LINE
  8
0
 62
     4
 10
12.486979
 20
0.620239
 11
12.486979
 21
5.620239
  0
LINE
  8
0
 62
     4
 10
11.371980
 20
0.620239
 11
12.801980
 21
0.620239
  0
LINE
  8
0
 62
     4
 10
11.686980
 20
5.620239
 11
12.486979
 21
5.620239
  0
LINE
  8
0
 62
     4
 10
11.371980
 20
-9.909760
 11
11.371980
 21
-4.809761
  0
LINE
  8
0
 62
     4
 10
12.801980
 20
-9.909760
 11
12.801980
 21
-5.179760
  0
LINE
  8
0
 62
     4
 10
7.406980
 20
5.620239
 11
6.606980
 21
5.620239
  0
LINE
  8
0
 62
     4
 10
7.721980
 20
0.620239
 11
6.291980
 21
0.620239
  0
LINE
  8
0
 62
     4
 10
6.606980
 20
0.620239
 11
6.606980
 21
5.620239
  0
LINE
  8
0
 62
     4
 10
7.406980
 20
0.620239
 11
7.406980
 21
5.620239
  0
LINE
  8
0
 62
     4
 10
6.291980
 20
-2.203758
 11
6.291980
 21
0.620239
  0
LINE
  8
0
 62
     4
 10
7.721980
 20
-2.585094
 11
7.721980
 21
0.620239
  0
LINE
  8
0
 62
     1
 10
15.126981
 20
-4.559758
 11
4.028667
 21
-1.600208
  0
LINE
  8
0
 62
     1
 10
15.126980
 20
-5.799758
 11
4.028666
 21
-2.840208
  0
LINE
  8
0
 62
     4
 10
6.291980
 20
-9.909760
 11
6.291980
 21
-3.443760
  0
LINE
  8
0
 62
     4
 10
7.721980
 20
-9.909760
 11
7.721980
 21
-3.825092
  0
LINE
  8
0
 62
     4
 10
5.446980
 20
-14.909760
 11
5.446980
 21
-15.009758
  0
LINE
  8
0
 62
     4
 10
13.646980
 20
-14.909760
 11
13.646980
 21
-15.009758
  0
LINE
  8
0
 62
     4
 10
7.046980
 20
-14.909760
 11
4.846980
 21
-14.909760
  0
LINE
  8
0
 62
     4
 10
14.546980
 20
-15.009758
 11
12.046980
 21
-15.009758
  0
LINE
  8
0
 62
     4
 10
14.246981
 20
-14.909760
 11
12.046980
 21
-14.909760
  0
LINE
  8
0
 10
17.046980
 20
-83.492706
 11
17.046980
 21
-93.909760
  0
LINE
  8
0
 10
2.046980
 20
-65.505249
 11
2.046980
 21
-93.909760
  0
LINE
  8
0
 10
13.481978
 20
-83.474762
 11
16.611980
 21
-80.344757
  0
LINE
  8
0
 10
14.091976
 20
-80.954758
 11
16.001980
 21
-82.864761
  0
LINE
  8
0
 10
17.551979
 20
-82.374756
 11
17.251980
 21
-82.374756
  0
LINE
  8
0
 10
17.271980
 20
-82.204758
 11
17.581980
 21
-82.204758
  0
LINE
  8
0
 10
17.271980
 20
-81.604759
 11
17.581980
 21
-81.604759
  0
LINE
  8
0
 10
2.481982
 20
-65.474762
 11
5.611980
 21
-62.344761
  0
LINE
  8
0
 10
3.091979
 20
-62.954762
 11
5.001977
 21
-64.864761
  0
LINE
  8
0
 10
6.551980
 20
-64.374756
 11
6.251980
 21
-64.374756
  0
LINE
  8
0
 10
6.271980
 20
-64.204758
 11
6.581980
 21
-64.204758
  0
LINE
  8
0
 10
6.271980
 20
-63.604759
 11
6.581980
 21
-63.604759
  0
LINE
  8
0
  6
CENTER
 62
     1
 10
-2.453020
 20
-52.909760
 11
-2.453020
 21
-57.909760
  0
LINE
  8
0
  6
CENTER
 62
     1
 10
21.546980
 20
-77.909760
 11
21.546980
 21
-82.909760
  0
LINE
  8
0
  6
CENTER
 62
     1
 10
19.046980
 20
-80.409760
 11
24.046980
 21
-80.409760
  0
LINE
  8
0
  6
CENTER
 62
     1
 10
-4.953020
 20
-55.409760
 11
0.046980
 21
-55.409760
  0
LINE
  8
0
 62
     4
 10
17.046980
 20
-45.409760
 11
24.546980
 21
-45.409760
  0
LINE
  8
0
 62
     4
 10
24.546980
 20
-45.409760
 11
24.546980
 21
-100.409760
  0
LINE
  8
0
 62
     4
 10
-5.453020
 20
-45.409760
 11
-5.453020
 21
-100.409760
  0
LINE
  8
0
 62
     4
 10
-5.453020
 20
-100.409760
 11
24.546980
 21
-100.409760
  0
LINE
  8
0
 62
     4
 10
-5.453020
 20
-45.409760
 11
2.046980
 21
-45.409760
  0
LINE
  8
0
 62
     4
 10
7.046980
 20
-15.009758
 11
4.546980
 21
-15.009758
  0
LINE
  8
0
 62
     4
 10
7.046980
 20
-18.543736
 11
12.046980
 21
-18.543736
  0
LINE
  8
0
 62
     4
 10
4.846980
 20
-14.909760
 11
4.846980
 21
-9.909760
  0
LINE
  8
0
 62
     4
 10
7.046980
 20
-19.409760
 11
7.046980
 21
-10.909760
  0
LINE
  8
0
 62
     4
 10
5.946980
 20
-14.909760
 11
5.946980
 21
-9.909760
  0
LINE
  8
0
 62
     4
 10
13.146980
 20
-14.909760
 11
13.146980
 21
-9.909760
  0
LINE
  8
0
 62
     4
 10
7.046980
 20
-11.909760
 11
12.046980
 21
-11.909760
  0
LINE
  8
0
 62
     4
 10
7.046980
 20
-11.621086
 11
12.046980
 21
-11.621086
  0
LINE
  8
0
 62
     4
 10
12.046980
 20
-19.409760
 11
12.046980
 21
-10.909760
  0
LINE
  8
0
 62
     4
 10
14.246981
 20
-14.909760
 11
14.246981
 21
-9.909760
  0
LINE
  8
0
 62
     4
 10
12.046980
 20
-10.909760
 11
7.046980
 21
-10.909760
  0
LINE
  8
0
 62
     4
 10
14.246981
 20
-9.909760
 11
4.846980
 21
-9.909760
  0
LINE
  8
0
 62
     4
 10
12.046980
 20
-19.409760
 11
7.046980
 21
-19.409760
  0
LINE
  8
0
 62
     1
 10
8.046980
 20
-23.509760
 11
8.046980
 21
-20.509758
  0
LINE
  8
0
 62
     1
 10
11.046980
 20
-23.509760
 11
11.046980
 21
-20.509758
  0
LINE
  8
0
 62
     1
 10
8.046980
 20
-23.509760
 11
11.046980
 21
-23.509760
  0
LINE
  8
0
 62
     4
 10
6.646980
 20
-20.509758
 11
6.646980
 21
-15.009758
  0
LINE
  8
0
 62
     4
 10
12.446980
 20
-20.509758
 11
12.446980
 21
-15.009758
  0
LINE
  8
0
 62
     4
 10
14.546980
 20
-40.109760
 11
14.546980
 21
-15.009758
  0
LINE
  8
0
 62
     4
 10
4.546980
 20
-40.109760
 11
4.546980
 21
-15.009758
  0
LINE
  8
0
 62
     4
 10
4.546980
 20
-38.909760
 11
14.546980
 21
-38.909760
  0
LINE
  8
0
 62
     4
 10
4.846980
 20
-20.509758
 11
14.246981
 21
-20.509758
  0
LINE
  8
0
 62
     4
 10
14.546980
 20
-39.209759
 11
4.546980
 21
-39.209759
  0
LINE
  8
0
 10
15.096979
 20
-39.609760
 11
15.596979
 21
-39.609760
  0
LINE
  8
0
 10
6.324735
 20
-48.859760
 11
7.652641
 21
-51.159760
  0
LINE
  8
0
 10
11.383583
 20
-51.259758
 11
12.769223
 21
-48.859760
  0
LINE
  8
0
 10
8.085655
 20
-51.409760
 11
11.123775
 21
-51.409760
  0
LINE
  8
0
 10
14.796980
 20
-40.109760
 11
14.796980
 21
-39.909760
  0
LINE
  8
0
 10
4.296980
 20
-40.109760
 11
4.296980
 21
-39.909760
  0
LINE
  8
0
 10
3.546980
 20
-39.609760
 11
3.996980
 21
-39.609760
  0
LINE
  8
0
 10
2.046982
 20
-41.109760
 11
3.546980
 21
-39.609760
  0
LINE
  8
0
 10
15.546980
 20
-39.609760
 11
17.046978
 21
-41.109760
  0
LINE
  8
0
 10
17.046980
 20
-41.109760
 11
17.046980
 21
-58.909760
  0
LINE
  8
0
 10
2.046980
 20
-41.109760
 11
2.046980
 21
-58.909760
  0
LINE
  8
0
 10
13.202236
 20
-48.609760
 11
17.046980
 21
-48.609760
  0
LINE
  8
0
 10
5.891724
 20
-48.609760
 11
2.046980
 21
-48.609760
  0
LINE
  8
0
 10
17.046980
 20
-58.909760
 11
2.046980
 21
-58.909760
  0
LINE
  8
0
 10
14.796980
 20
-40.109760
 11
4.296980
 21
-40.109760
  0
LINE
  8
0
 10
16.846979
 20
-90.599762
 11
16.846979
 21
-89.409760
  0
LINE
  8
0
 10
11.246980
 20
-90.599762
 11
11.246980
 21
-89.409760
  0
LINE
  8
0
 10
17.046980
 20
-58.909760
 11
17.046980
 21
-80.316811
  0
LINE
  8
0
 10
2.046980
 20
-58.909760
 11
2.046980
 21
-62.304268
  0
LINE
  8
0
 10
17.046980
 20
-86.909760
 11
2.046980
 21
-86.909760
  0
LINE
  8
0
 10
16.546980
 20
-94.409760
 11
2.546980
 21
-94.409760
  0
LINE
  8
0
 10
10.846980
 20
-89.909760
 11
10.846980
 21
-93.909760
  0
LINE
  8
0
 10
16.796980
 20
-89.409760
 11
11.296980
 21
-89.409760
  0
LINE
  8
0
 62
     4
 10
7.587388
 20
-48.209759
 11
11.506572
 21
-48.209759
  0
LINE
  8
0
 62
     4
 10
7.587388
 20
-49.009758
 11
11.506572
 21
-49.009758
  0
LINE
  8
0
  6
CENTER
 62
     2
 10
9.546980
 20
11.349167
 11
9.546980
 21
-103.808990
  0
LINE
  8
0
  6
CENTER
 62
     2
 10
15.046980
 20
64.525696
 11
15.046980
 21
69.995712
  0
LINE
  8
0
 10
-194.250000
 20
132.600006
 11
194.800003
 21
132.600006
  0
LINE
  8
0
 10
194.800003
 20
132.600006
 11
194.800003
 21
-133.500000
  0
LINE
  8
0
 10
-194.250000
 20
132.600006
 11
-194.250000
 21
-133.500000
  0
LINE
  8
0
 10
-194.250000
 20
-133.500000
 11
194.800003
 21
-133.500000
  0
LINE
  8
0
 10
109.800003
 20
-118.500000
 11
109.800003
 21
-133.500000
  0
LINE
  8
0
 10
109.800003
 20
-118.500000
 11
194.800003
 21
-118.500000
  0
LINE
  8
0
 10
109.800003
 20
132.600006
 11
109.800003
 21
117.600006
  0
LINE
  8
0
 10
109.800003
 20
117.600006
 11
194.800003
 21
117.600006
  0
LINE
  8
0
 10
-194.250000
 20
117.600006
 11
-109.250000
 21
117.600006
  0
LINE
  8
0
 10
-109.250000
 20
132.600006
 11
-109.250000
 21
117.600006
  0
CIRCLE
  8
0
 62
     4
 10
126.546982
 20
-87.909760
 40
4.278000
  0
CIRCLE
  8
0
 62
     1
 10
126.546982
 20
-87.909760
 40
4.863999
  0
CIRCLE
  8
0
 62
     4
 10
120.046982
 20
-72.909760
 40
4.278000
  0
CIRCLE
  8
0
 62
     1
 10
120.046982
 20
-72.909760
 40
4.863999
  0
CIRCLE
  8
0
 62
     4
 10
126.546982
 20
-57.909760
 40
4.278000
  0
CIRCLE
  8
0
 62
     1
 10
126.546982
 20
-57.909760
 40
4.863999
  0
ARC
  8
0
 10
94.246994
 20
-81.904762
 40
6.008217
 50
163.812271
 51
196.187729
  0
ARC
  8
0
 10
89.242874
 20
-83.334381
 40
0.804241
 50
197.764938
 51
208.632629
  0
ARC
  8
0
 10
89.246246
 20
-80.476585
 40
0.807888
 50
151.392212
 51
162.210480
  0
CIRCLE
  8
0
 62
     4
 10
117.546982
 20
-95.909760
 40
2.100000
  0
CIRCLE
  8
0
 62
     1
 10
117.546982
 20
-95.909760
 40
2.500000
  0
CIRCLE
  8
0
 62
     4
 10
117.546982
 20
-49.909760
 40
2.100000
  0
CIRCLE
  8
0
 62
     1
 10
117.546982
 20
-49.909760
 40
2.500000
  0
ARC
  8
0
 10
111.046982
 20
-88.909760
 40
0.500000
 50
270.000000
 51
0.000000
  0
ARC
  8
0
 10
104.846970
 20
-93.909752
 40
0.500008
 50
270.000885
 51
359.999115
  0
ARC
  8
0
 10
105.843231
 20
-89.913864
 40
0.496262
 50
95.347466
 51
179.526093
  0
ARC
  8
0
 10
88.049988
 20
-93.914978
 40
0.503033
 50
179.404724
 51
280.395386
  0
ARC
  8
0
 10
111.046982
 20
-93.909760
 40
0.500000
 50
270.000000
 51
0.000000
  0
ARC
  8
0
 10
108.541985
 20
-86.847260
 40
5.002047
 50
240.475372
 51
299.524628
  0
ARC
  8
0
 10
106.416710
 20
-90.602585
 40
0.669737
 50
179.757843
 51
239.518478
  0
ARC
  8
0
 62
     3
 10
110.679726
 20
-90.598267
 40
0.667259
 50
299.369965
 51
359.871613
  0
ARC
  8
0
 10
79.146980
 20
-51.009758
 40
0.400002
 50
180.000000
 51
270.000000
  0
ARC
  8
0
 10
87.046982
 20
-51.909760
 40
0.500000
 50
0.000000
 51
90.000000
  0
ARC
  8
0
 10
90.546982
 20
-46.209759
 40
5.000002
 50
55.944176
 51
124.055824
  0
ARC
  8
0
 62
     4
 10
102.746979
 20
-26.009760
 40
0.500000
 50
0.000000
 51
90.000000
  0
ARC
  8
0
 62
     4
 10
100.746979
 20
-26.009760
 40
0.500000
 50
90.000000
 51
180.000000
  0
ARC
  8
0
 62
     4
 10
78.546982
 20
-20.809761
 40
0.299999
 50
90.000000
 51
180.000000
  0
ARC
  8
0
 10
79.146980
 20
-48.209759
 40
0.400002
 50
180.000000
 51
270.000000
  0
ARC
  8
0
 10
87.146980
 20
-49.009758
 40
0.400002
 50
0.000000
 51
90.000000
  0
ARC
  8
0
 10
111.046982
 20
-93.909760
 40
0.500000
 50
270.000000
 51
0.000000
  0
ARC
  8
0
 10
14.046980
 20
45.218857
 40
2.800002
 50
280.286560
 51
79.713448
  0
ARC
  8
0
 10
5.046980
 20
63.218857
 40
2.799998
 50
37.383152
 51
259.713440
  0
ARC
  8
0
 10
16.646980
 20
33.818855
 40
0.400002
 50
270.000000
 51
0.000000
  0
ARC
  8
0
 10
16.646980
 20
65.818855
 40
0.400000
 50
0.000000
 51
90.000000
  0
ARC
  8
0
 10
2.446980
 20
65.818855
 40
0.400002
 50
90.000000
 51
180.000000
  0
ARC
  8
0
 10
2.446980
 20
33.818855
 40
0.400000
 50
180.000000
 51
270.000000
  0
CIRCLE
  8
0
 62
     4
 10
7.006980
 20
48.118858
 40
0.750000
  0
CIRCLE
  8
0
 62
     4
 10
12.086980
 20
48.118858
 40
0.750000
  0
ARC
  8
0
 62
     4
 10
12.962636
 20
49.018192
 40
0.200665
 50
356.761139
 51
89.901695
  0
ARC
  8
0
 62
     4
 10
11.212265
 20
49.019192
 40
0.199666
 50
89.794754
 51
183.541275
  0
ARC
  8
0
 62
     4
 10
10.422636
 20
49.018192
 40
0.200665
 50
356.761139
 51
89.901695
  0
ARC
  8
0
 62
     4
 10
8.672265
 20
49.019192
 40
0.199666
 50
89.794754
 51
183.541275
  0
ARC
  8
0
 62
     4
 10
7.882636
 20
49.018192
 40
0.200665
 50
356.761139
 51
89.901695
  0
ARC
  8
0
 62
     4
 10
6.132265
 20
49.019192
 40
0.199666
 50
89.794891
 51
183.541275
  0
ARC
  8
0
 62
     4
 10
4.846980
 20
45.418858
 40
0.300000
 50
180.000000
 51
270.000000
  0
ARC
  8
0
 62
     4
 10
14.246981
 20
45.418858
 40
0.299999
 50
270.000000
 51
0.000000
  0
ARC
  8
0
 62
     4
 10
14.246981
 20
33.218857
 40
0.299999
 50
270.000000
 51
0.000000
  0
ARC
  8
0
 62
     4
 10
4.846980
 20
33.218857
 40
0.300000
 50
180.000000
 51
270.000000
  0
CIRCLE
  8
0
 62
     4
 10
9.546980
 20
54.668858
 40
2.050000
  0
ARC
  8
0
 62
     4
 10
13.046980
 20
56.418858
 40
1.599998
 50
90.000000
 51
270.000000
  0
ARC
  8
0
 62
     4
 10
6.046980
 20
56.418858
 40
1.599998
 50
270.000000
 51
90.000000
  0
CIRCLE
  8
0
 62
     4
 10
9.546980
 20
54.668858
 40
1.900000
  0
CIRCLE
  8
0
 62
     4
 10
9.546980
 20
54.668858
 40
1.850000
  0
ARC
  8
0
 62
     4
 10
9.546980
 20
54.668858
 40
0.800000
 50
202.024261
 51
337.975739
  0
ARC
  8
0
 62
     4
 10
9.546980
 20
54.668858
 40
0.800000
 50
22.024256
 51
157.975739
  0
CIRCLE
  8
0
 62
     4
 10
13.046980
 20
56.418858
 40
1.500000
  0
CIRCLE
  8
0
 62
     4
 10
6.046980
 20
56.418858
 40
1.500000
  0
CIRCLE
  8
0
 10
-110.953018
 20
-79.409760
 40
4.278000
  0
CIRCLE
  8
0
 62
     4
 10
-120.953018
 20
-66.409760
 40
4.278000
  0
CIRCLE
  8
0
 62
     1
 10
-120.953018
 20
-66.409760
 40
4.863999
  0
CIRCLE
  8
0
 62
     4
 10
-110.953018
 20
-79.409760
 40
4.278000
  0
CIRCLE
  8
0
 62
     1
 10
-110.953018
 20
-79.409760
 40
4.863999
  0
ARC
  8
0
 10
-85.153030
 20
-63.914761
 40
6.008216
 50
343.812317
 51
16.187691
  0
ARC
  8
0
 10
-80.148911
 20
-62.485142
 40
0.804240
 50
17.764685
 51
28.632387
  0
ARC
  8
0
 10
-80.152283
 20
-65.342934
 40
0.807888
 50
331.392212
 51
342.210480
  0
ARC
  8
0
 62
     4
 10
-69.453018
 20
-20.809761
 40
0.300003
 50
0.000000
 51
90.000000
  0
ARC
  8
0
 62
     4
 10
-91.653015
 20
-26.009760
 40
0.500000
 50
0.000000
 51
90.000000
  0
ARC
  8
0
 62
     4
 10
-93.653015
 20
-26.009760
 40
0.500000
 50
90.000000
 51
180.000000
  0
ARC
  8
0
 10
-99.453018
 20
-46.209759
 40
5.000002
 50
55.944176
 51
124.055824
  0
ARC
  8
0
 10
-77.953018
 20
-51.909760
 40
0.500000
 50
90.000000
 51
180.000000
  0
ARC
  8
0
 10
-70.053017
 20
-51.009758
 40
0.400002
 50
270.000000
 51
0.000000
  0
ARC
  8
0
 10
-70.053017
 20
-48.209759
 40
0.400002
 50
270.000000
 51
0.000000
  0
ARC
  8
0
 10
-78.053017
 20
-49.009758
 40
0.400002
 50
90.000000
 51
180.000000
  0
ARC
  8
0
 10
-79.320282
 20
-90.598267
 40
0.667259
 50
299.369965
 51
359.871613
  0
ARC
  8
0
 10
-83.583290
 20
-90.602585
 40
0.669737
 50
179.757843
 51
239.518478
  0
ARC
  8
0
 10
-81.458023
 20
-86.847260
 40
5.002047
 50
240.475372
 51
299.524628
  0
ARC
  8
0
 10
-101.953018
 20
-93.909760
 40
0.500000
 50
180.000000
 51
270.000000
  0
ARC
  8
0
 10
-78.956024
 20
-93.914978
 40
0.503031
 50
259.604614
 51
0.595271
  0
ARC
  8
0
 10
-84.156769
 20
-89.913864
 40
0.496262
 50
95.347466
 51
179.526093
  0
ARC
  8
0
 10
-85.153030
 20
-93.909752
 40
0.500008
 50
270.000885
 51
359.999115
  0
ARC
  8
0
 10
-78.953018
 20
-88.909760
 40
0.500000
 50
270.000000
 51
0.000000
  0
ARC
  8
0
 10
-101.953018
 20
-93.909760
 40
0.500000
 50
180.000000
 51
270.000000
  0
ARC
  8
0
 10
9.546980
 20
-95.609756
 40
3.499999
 50
159.949005
 51
20.050997
  0
ARC
  8
0
 10
16.546980
 20
-93.909760
 40
0.500000
 50
270.000000
 51
0.000000
  0
CIRCLE
  8
0
 10
15.041981
 20
-81.904762
 40
2.250000
  0
ARC
  8
0
 10
15.041981
 20
-81.904762
 40
2.557655
 50
6.736082
 51
353.263916
  0
CIRCLE
  8
0
 10
4.041980
 20
-63.904758
 40
2.250000
  0
ARC
  8
0
 10
4.041980
 20
-63.904758
 40
2.557655
 50
6.735994
 51
353.264008
  0
CIRCLE
  8
0
 62
     4
 10
21.546980
 20
-80.409760
 40
1.600000
  0
CIRCLE
  8
0
 62
     4
 10
-2.453020
 20
-55.409760
 40
1.600000
  0
ARC
  8
0
 62
     4
 10
4.846980
 20
-20.809761
 40
0.299999
 50
90.000000
 51
180.000000
  0
ARC
  8
0
 62
     4
 10
14.246981
 20
-20.809761
 40
0.300000
 50
0.000000
 51
90.000000
  0
ARC
  8
0
 10
11.123775
 20
-51.109760
 40
0.299999
 50
270.000000
 51
329.999756
  0
ARC
  8
0
 10
13.202236
 20
-49.109760
 40
0.500000
 50
90.000000
 51
150.000015
  0
ARC
  8
0
 10
8.085655
 20
-50.909760
 40
0.500000
 50
210.000015
 51
270.000000
  0
ARC
  8
0
 10
5.891724
 20
-49.109760
 40
0.500000
 50
30.000013
 51
90.000000
  0
ARC
  8
0
 10
15.096979
 20
-39.909760
 40
0.299999
 50
90.000000
 51
180.000000
  0
ARC
  8
0
 10
3.996980
 20
-39.909760
 40
0.300000
 50
0.000000
 51
90.000000
  0
CIRCLE
  8
0
 10
9.546980
 20
-48.609760
 40
2.000000
  0
ARC
  8
0
 10
11.914238
 20
-90.598267
 40
0.667260
 50
180.128403
 51
240.629822
  0
ARC
  8
0
 10
16.177252
 20
-90.602585
 40
0.669732
 50
300.481384
 51
0.242151
  0
ARC
  8
0
 10
14.051979
 20
-86.847260
 40
5.002048
 50
240.475342
 51
299.524658
  0
ARC
  8
0
 10
2.546981
 20
-93.909760
 40
0.500001
 50
180.000000
 51
269.999847
  0
ARC
  8
0
 10
15.046976
 20
-81.914757
 40
2.700787
 50
42.223728
 51
317.776276
  0
ARC
  8
0
 10
4.048264
 20
-63.910267
 40
2.698716
 50
0.010772
 51
137.865173
  0
ARC
  8
0
 10
4.044912
 20
-63.910572
 40
2.702069
 50
222.318954
 51
0.017229
  0
ARC
  8
0
 10
11.343235
 20
-89.913872
 40
0.496270
 50
95.348045
 51
179.525223
  0
ARC
  8
0
 10
16.546978
 20
-88.909760
 40
0.500000
 50
270.000214
 51
0.000000
  0
ARC
  8
0
 10
10.346980
 20
-93.909760
 40
0.500000
 50
270.000000
 51
0.000000
  0
TEXT
  8
0
 10
-186.892654
 20
94.550003
 40
4.500000
  1
     :GA110-4E1-25-PSL
 50
0.000000
 41
1.052632
 51
0.000000
  7
STANDARD
  0
TEXT
  8
0
 10
133.907150
 20
122.050003
 40
4.500000
  1
Ver. 1.0
 50
0.000000
 41
1.052632
 51
0.000000
  7
STANDARD
  0
TEXT
  8
0
 10
113.700287
 20
-130.669998
 40
6.300000
  1
KOGANEI CORP.
 50
0.000000
 41
1.052632
 51
0.000000
  7
STANDARD
  0
TEXT
  8
0
 10
-176.892654
 20
122.050003
 40
4.500000
  1
G110 SERIES
 50
0.000000
 41
1.052632
 51
0.000000
  7
STANDARD
  0
TEXT
  8
0
 10
-186.892654
 20
104.550003
 40
4.500000
  1
MODEL:GA110E1-25-PSL
 50
0.000000
 41
1.052632
 51
0.000000
  7
STANDARD
  0
LINE
  8
0
 62
     2
 10
-112.428024
 20
-81.964531
 11
-133.878571
 21
-119.117958
  0
LINE
  8
0
 62
     2
 10
-133.878571
 20
-119.117958
 11
-181.296646
 21
-119.117966
  0
LINE
  8
0
 62
     2
 10
-112.428024
 20
-81.964531
 11
-114.549347
 21
-84.085854
  0
LINE
  8
0
 62
     2
 10
-112.428024
 20
-81.964531
 11
-113.204483
 21
-84.862305
  0
TEXT
  8
0
 62
     2
 10
-181.046646
 20
-118.117966
 40
3.200000
  1
GA110E1-25-PSL  Only
 50
0.000000
 41
1.052632
 51
0.000000
  7
STANDARD
  0
ENDSEC
  0
EOF
