  0
SECTION
  2
HEADER
  0
ENDSEC
  0
SECTION
  2
TABLES
  0
TABLE
  2
LTYPE
 70
     4
  0
LTYPE
  2
CONTINUOUS
 70
    64
  3
Solid line
 72
    65
 73
     0
 40
0.000000
  0
LTYPE
  2
DASHED
 70
    64
  3
__ __ __ __ __ __ __ __ __ __ __ __ __ __ __
 72
    65
 73
     2
 40
3.500000
 49
2.000000
 49
-1.500000
  0
LTYPE
  2
CENTER
 70
    64
  3
____ _ ____ _ ____ _ ____ _ ____ _ ____ _ ____
 72
    65
 73
     4
 40
17.500000
 49
13.000000
 49
-1.500000
 49
1.500000
 49
-1.500000
  0
LTYPE
  2
PHANTOM
 70
    64
  3
_____ _ _ _____ _ _ _____ _ _ _____ _ _ ____  
 72
    65
 73
     6
 40
15.500000
 49
8.000000
 49
-1.500000
 49
1.500000
 49
-1.500000
 49
1.500000
 49
-1.500000
  0
LTYPE
  2
DASHED1
 70
    64
  3
__ __ __ __ __ __ __ __ __ __ __ __ __ __ __
 72
    65
 73
     2
 40
1.500000
 49
1.000000
 49
-0.500000
  0
LTYPE
  2
DASHED2
 70
    64
  3
__ __ __ __ __ __ __ __ __ __ __ __ __ __ __
 72
    65
 73
     2
 40
3.500000
 49
2.500000
 49
-1.000000
  0
LTYPE
  2
DASHED3
 70
    64
  3
__ __ __ __ __ __ __ __ __ __ __ __ __ __ __
 72
    65
 73
     2
 40
6.000000
 49
4.000000
 49
-2.000000
  0
LTYPE
  2
DASHED4
 70
    64
  3
__ __ __ __ __ __ __ __ __ __ __ __ __ __ __
 72
    65
 73
     2
 40
12.000000
 49
10.000000
 49
-2.000000
  0
LTYPE
  2
DASHED5
 70
    64
  3
__ __ __ __ __ __ __ __ __ __ __ __ __ __ __
 72
    65
 73
     2
 40
17.000000
 49
15.000000
 49
-2.000000
  0
LTYPE
  2
DASHED6
 70
    64
  3
__ __ __ __ __ __ __ __ __ __ __ __ __ __ __
 72
    65
 73
     2
 40
29.000000
 49
27.000000
 49
-2.000000
  0
LTYPE
  2
PHANTOM1
 70
    64
  3
_____ _ _ _____ _ _ _____ _ _ _____ _ _ ____  
 72
    65
 73
     6
 40
31.000000
 49
25.000000
 49
-1.500000
 49
1.000000
 49
-1.000000
 49
1.000000
 49
-1.500000
  0
LTYPE
  2
PHANTOM2
 70
    64
  3
_____ _ _ _____ _ _ _____ _ _ _____ _ _ ____  
 72
    65
 73
     6
 40
36.000000
 49
27.000000
 49
-1.500000
 49
2.500000
 49
-1.000000
 49
2.500000
 49
-1.500000
  0
LTYPE
  2
PHANTOM3
 70
    64
  3
_____ _ _ _____ _ _ _____ _ _ _____ _ _ ____  
 72
    65
 73
     6
 40
78.000000
 49
64.000000
 49
-2.000000
 49
4.000000
 49
-2.000000
 49
4.000000
 49
-2.000000
  0
LTYPE
  2
CENTER1
 70
    64
  3
____ _ ____ _ ____ _ ____ _ ____ _ ____ _ ____
 72
    65
 73
     4
 40
19.000000
 49
14.000000
 49
-1.000000
 49
3.000000
 49
-1.000000
  0
LTYPE
  2
CENTER2
 70
    64
  3
____ _ ____ _ ____ _ ____ _ ____ _ ____ _ ____
 72
    65
 73
     4
 40
28.500000
 49
25.000000
 49
-1.000000
 49
1.500000
 49
-1.000000
  0
LTYPE
  2
CENTER3
 70
    64
  3
____ _ ____ _ ____ _ ____ _ ____ _ ____ _ ____
 72
    65
 73
     4
 40
31.500000
 49
27.000000
 49
-1.000000
 49
2.500000
 49
-1.000000
  0
LTYPE
  2
CENTER4
 70
    64
  3
____ _ ____ _ ____ _ ____ _ ____ _ ____ _ ____
 72
    65
 73
     4
 40
50.000000
 49
45.000000
 49
-1.000000
 49
3.000000
 49
-1.000000
  0
LTYPE
  2
CENTER5
 70
    64
  3
____ _ ____ _ ____ _ ____ _ ____ _ ____ _ ____
 72
    65
 73
     4
 40
100.000000
 49
92.000000
 49
-2.000000
 49
4.000000
 49
-2.000000
  0
LTYPE
  2
SBK1
 70
    64
  3
______ _ _ _ ______ _ _ _ ______ _ _ _ _____  
 72
    65
 73
     8
 40
60.500000
 49
45.000000
 49
-2.000000
 49
2.500000
 49
-2.000000
 49
2.500000
 49
-2.000000
 49
2.500000
 49
-2.000000
  0
LTYPE
  2
SBK2
 70
    64
  3
______ _ _ _ ______ _ _ _ ______ _ _ _ _____  
 72
    65
 73
     8
 40
84.000000
 49
64.000000
 49
-2.000000
 49
4.000000
 49
-2.000000
 49
4.000000
 49
-2.000000
 49
4.000000
 49
-2.000000
  0
LTYPE
  2
STCH
 70
    64
  3
__ __ __ __ __ __ __ __ __ __ __ __ __ __ __
 72
    65
 73
     2
 40
3.000000
 49
1.000000
 49
-2.000000
  0
LTYPE
  2
MTCH
 70
    64
  3
_____ _ _ _____ _ _ _____ _ _ _____ _ _ ____  
 72
    65
 73
     6
 40
80.000000
 49
66.000000
 49
-2.000000
 49
4.000000
 49
-2.000000
 49
4.000000
 49
-2.000000
  0
ENDTAB
  0
TABLE
  2
LAYER
 70
     1
  0
LAYER
  2
0
 70
     0
 62
     7
  6
CONTINUOUS
  0
ENDTAB
  0
TABLE
  2
STYLE
 70
     1
  0
STYLE
  2
STANDARD
 70
     0
 40
0.000000
 41
1.000000
 50
0.000000
 71
     0
 42
0.200000
  3
txt
  4
BIGFONT
  0
ENDTAB
  0
TABLE
  2
VIEW
 70
     0
  0
ENDTAB
  0
ENDSEC
  0
SECTION
  2
BLOCKS
  0
ENDSEC
  0
SECTION
  2
ENTITIES
  0
POINT
  8
0
 10
-123.799995
 20
-87.200005
  0
LINE
  8
0
 10
-16.138098
 20
-81.084724
 11
48.467667
 21
-81.084724
  0
LINE
  8
0
 10
-16.138098
 20
-81.084724
 11
-16.138098
 21
-65.884727
  0
LINE
  8
0
 10
48.467667
 20
-81.084724
 11
48.467667
 21
-65.884727
  0
LINE
  8
0
  6
CENTER
 62
     2
 10
21.267666
 20
-34.623486
 11
21.267666
 21
-67.155952
  0
LINE
  8
0
 10
16.267666
 20
-48.284725
 11
26.267668
 21
-48.284725
  0
LINE
  8
0
 10
20.994333
 20
-64.184723
 11
20.994333
 21
-65.184723
  0
LINE
  8
0
 10
21.541000
 20
-64.184723
 11
21.541000
 21
-65.184723
  0
LINE
  8
0
 10
21.541000
 20
-64.184723
 11
23.967667
 21
-64.184723
  0
LINE
  8
0
 10
18.367666
 20
-64.384720
 11
18.367666
 21
-65.184723
  0
LINE
  8
0
 10
24.167665
 20
-64.384720
 11
24.167665
 21
-65.184723
  0
LINE
  8
0
 10
18.567667
 20
-64.184723
 11
20.994333
 21
-64.184723
  0
LINE
  8
0
 10
18.967667
 20
-63.084724
 11
18.967667
 21
-64.184723
  0
LINE
  8
0
 10
23.567667
 20
-63.084724
 11
23.567667
 21
-64.184723
  0
LINE
  8
0
 10
16.267666
 20
-46.284725
 11
26.267668
 21
-46.284725
  0
LINE
  8
0
 10
21.614334
 20
-63.084724
 11
21.614334
 21
-64.184723
  0
LINE
  8
0
 10
21.467667
 20
-63.084724
 11
21.467667
 21
-65.184723
  0
LINE
  8
0
 10
21.067667
 20
-63.084724
 11
21.067667
 21
-65.184723
  0
LINE
  8
0
 10
20.921000
 20
-63.084724
 11
20.921000
 21
-64.184723
  0
LINE
  8
0
 10
16.967667
 20
-64.884720
 11
16.967667
 21
-63.384724
  0
LINE
  8
0
 10
25.567667
 20
-64.884720
 11
25.567667
 21
-63.384724
  0
LINE
  8
0
 10
17.267666
 20
-63.084724
 11
25.267668
 21
-63.084724
  0
LINE
  8
0
 10
17.267666
 20
-65.184723
 11
25.267668
 21
-65.184723
  0
LINE
  8
0
 10
26.267668
 20
-65.884727
 11
26.267668
 21
-46.284725
  0
LINE
  8
0
 10
16.267666
 20
-65.884727
 11
16.267666
 21
-46.284725
  0
LINE
  8
0
 10
6.067667
 20
-65.884727
 11
6.067667
 21
-46.284725
  0
LINE
  8
0
 10
16.067667
 20
-65.884727
 11
16.067667
 21
-46.284725
  0
LINE
  8
0
 10
7.067667
 20
-65.184723
 11
15.067667
 21
-65.184723
  0
LINE
  8
0
 10
7.067667
 20
-63.084724
 11
15.067667
 21
-63.084724
  0
LINE
  8
0
 10
15.367666
 20
-64.884720
 11
15.367666
 21
-63.384724
  0
LINE
  8
0
 10
6.767666
 20
-64.884720
 11
6.767666
 21
-63.384724
  0
LINE
  8
0
 10
10.720999
 20
-63.084724
 11
10.720999
 21
-64.184723
  0
LINE
  8
0
 10
10.867666
 20
-63.084724
 11
10.867666
 21
-65.184723
  0
LINE
  8
0
 10
11.267666
 20
-63.084724
 11
11.267666
 21
-65.184723
  0
LINE
  8
0
 10
11.414333
 20
-63.084724
 11
11.414333
 21
-64.184723
  0
LINE
  8
0
 10
6.067667
 20
-46.284725
 11
16.067667
 21
-46.284725
  0
LINE
  8
0
 10
13.367666
 20
-63.084724
 11
13.367666
 21
-64.184723
  0
LINE
  8
0
 10
8.767666
 20
-63.084724
 11
8.767666
 21
-64.184723
  0
LINE
  8
0
 10
8.367666
 20
-64.184723
 11
10.794333
 21
-64.184723
  0
LINE
  8
0
 10
13.967667
 20
-64.384720
 11
13.967667
 21
-65.184723
  0
LINE
  8
0
 10
8.167667
 20
-64.384720
 11
8.167667
 21
-65.184723
  0
LINE
  8
0
 10
11.341000
 20
-64.184723
 11
13.767666
 21
-64.184723
  0
LINE
  8
0
 10
11.341000
 20
-64.184723
 11
11.341000
 21
-65.184723
  0
LINE
  8
0
 10
10.794333
 20
-64.184723
 11
10.794333
 21
-65.184723
  0
LINE
  8
0
 10
6.067667
 20
-48.284725
 11
16.067667
 21
-48.284725
  0
LINE
  8
0
  6
CENTER
 62
     2
 10
11.067667
 20
-45.704605
 11
11.067667
 21
-67.155952
  0
LINE
  8
0
 10
-4.132333
 20
-65.884727
 11
-4.132333
 21
-46.284725
  0
LINE
  8
0
 10
5.867667
 20
-65.884727
 11
5.867667
 21
-46.284725
  0
LINE
  8
0
 10
-3.132333
 20
-65.184723
 11
4.867667
 21
-65.184723
  0
LINE
  8
0
 10
-3.132333
 20
-63.084724
 11
4.867667
 21
-63.084724
  0
LINE
  8
0
 10
5.167667
 20
-64.884720
 11
5.167667
 21
-63.384724
  0
LINE
  8
0
 10
-3.432333
 20
-64.884720
 11
-3.432333
 21
-63.384724
  0
LINE
  8
0
 10
0.520999
 20
-63.084724
 11
0.520999
 21
-64.184723
  0
LINE
  8
0
 10
0.667667
 20
-63.084724
 11
0.667667
 21
-65.184723
  0
LINE
  8
0
 10
1.067667
 20
-63.084724
 11
1.067667
 21
-65.184723
  0
LINE
  8
0
 10
1.214334
 20
-63.084724
 11
1.214334
 21
-64.184723
  0
LINE
  8
0
 10
-4.132333
 20
-46.284725
 11
5.867667
 21
-46.284725
  0
LINE
  8
0
 10
3.167667
 20
-63.084724
 11
3.167667
 21
-64.184723
  0
LINE
  8
0
 10
-1.432333
 20
-63.084724
 11
-1.432333
 21
-64.184723
  0
LINE
  8
0
 10
-1.832333
 20
-64.184723
 11
0.594333
 21
-64.184723
  0
LINE
  8
0
 10
3.767666
 20
-64.384720
 11
3.767666
 21
-65.184723
  0
LINE
  8
0
 10
-2.032333
 20
-64.384720
 11
-2.032333
 21
-65.184723
  0
LINE
  8
0
 10
1.141000
 20
-64.184723
 11
3.567667
 21
-64.184723
  0
LINE
  8
0
 10
1.141000
 20
-64.184723
 11
1.141000
 21
-65.184723
  0
LINE
  8
0
 10
0.594333
 20
-64.184723
 11
0.594333
 21
-65.184723
  0
LINE
  8
0
 10
-4.132333
 20
-48.284725
 11
5.867667
 21
-48.284725
  0
LINE
  8
0
  6
CENTER
 62
     2
 10
0.867667
 20
-43.913307
 11
0.867667
 21
-67.155952
  0
LINE
  8
0
 62
     4
 10
-4.132333
 20
-45.284725
 11
5.867667
 21
-45.284725
  0
LINE
  8
0
 62
     4
 10
3.117667
 20
-40.394726
 11
3.117667
 21
-37.084724
  0
LINE
  8
0
 62
     4
 10
4.417667
 20
-40.744724
 11
4.417667
 21
-37.084724
  0
LINE
  8
0
 62
     4
 10
4.417667
 20
-37.084724
 11
3.117667
 21
-37.084724
  0
LINE
  8
0
 62
     4
 10
4.017666
 20
-33.084724
 11
3.517666
 21
-33.084724
  0
LINE
  8
0
 62
     4
 10
4.017666
 20
-37.084724
 11
4.017666
 21
-33.084724
  0
LINE
  8
0
 62
     4
 10
3.517666
 20
-37.084724
 11
3.517666
 21
-33.084724
  0
LINE
  8
0
 62
     1
 10
5.367666
 20
-41.004723
 11
2.167667
 21
-40.144726
  0
LINE
  8
0
 62
     1
 10
5.367667
 20
-42.034721
 11
2.167666
 21
-41.174721
  0
LINE
  8
0
 62
     4
 10
3.117667
 20
-45.284725
 11
3.117667
 21
-41.434723
  0
LINE
  8
0
 62
     4
 10
4.417667
 20
-45.284725
 11
4.417667
 21
-41.784725
  0
LINE
  8
0
 62
     1
 10
-0.432335
 20
-41.004726
 11
-3.632334
 21
-40.144726
  0
LINE
  8
0
 62
     1
 10
-0.432333
 20
-42.034725
 11
-3.632333
 21
-41.174725
  0
LINE
  8
0
 62
     4
 10
-2.682333
 20
-45.284725
 11
-2.682333
 21
-41.434723
  0
LINE
  8
0
 62
     4
 10
-1.382333
 20
-45.284725
 11
-1.382333
 21
-41.784725
  0
LINE
  8
0
 62
     4
 10
-2.282333
 20
-37.084724
 11
-2.282333
 21
-33.084724
  0
LINE
  8
0
 62
     4
 10
-1.782333
 20
-37.084724
 11
-1.782333
 21
-33.084724
  0
LINE
  8
0
 62
     4
 10
-1.782333
 20
-33.084724
 11
-2.282333
 21
-33.084724
  0
LINE
  8
0
 62
     4
 10
-1.382333
 20
-37.084724
 11
-2.682333
 21
-37.084724
  0
LINE
  8
0
 62
     4
 10
-1.382333
 20
-40.744724
 11
-1.382333
 21
-37.084724
  0
LINE
  8
0
 62
     4
 10
-2.682333
 20
-40.394726
 11
-2.682333
 21
-37.084724
  0
LINE
  8
0
 62
     4
 10
16.267666
 20
-40.784725
 11
26.267668
 21
-40.784725
  0
LINE
  8
0
 62
     4
 10
16.567667
 20
-40.684723
 11
25.967665
 21
-40.684723
  0
LINE
  8
0
 62
     4
 10
16.567667
 20
-35.684723
 11
25.967665
 21
-35.684723
  0
LINE
  8
0
 62
     4
 10
25.967665
 20
-35.684723
 11
25.967665
 21
-40.684723
  0
LINE
  8
0
 62
     4
 10
16.567667
 20
-35.684723
 11
16.567667
 21
-40.684723
  0
LINE
  8
0
 62
     4
 10
25.367666
 20
-40.684723
 11
25.367666
 21
-40.784725
  0
LINE
  8
0
 62
     4
 10
17.167665
 20
-40.684723
 11
17.167665
 21
-40.784725
  0
LINE
  8
0
 62
     4
 10
16.567667
 20
-36.684723
 11
25.967665
 21
-36.684723
  0
LINE
  8
0
 62
     4
 10
16.567667
 20
-36.396049
 11
25.967665
 21
-36.396049
  0
LINE
  8
0
 62
     4
 10
19.407667
 20
-29.334183
 11
19.407667
 21
-25.254723
  0
LINE
  8
0
 62
     4
 10
17.977667
 20
-28.949871
 11
17.977667
 21
-25.254723
  0
LINE
  8
0
 62
     4
 10
17.977667
 20
-35.684723
 11
17.977667
 21
-29.979870
  0
LINE
  8
0
 62
     4
 10
19.407667
 20
-35.684723
 11
19.407667
 21
-30.364182
  0
LINE
  8
0
 62
     4
 10
18.367666
 20
-25.254723
 11
18.367666
 21
-20.254723
  0
LINE
  8
0
 62
     4
 10
19.167665
 20
-25.254723
 11
19.167665
 21
-20.254723
  0
LINE
  8
0
 62
     4
 10
18.047667
 20
-25.254723
 11
19.477667
 21
-25.254723
  0
LINE
  8
0
 62
     4
 10
18.367666
 20
-20.254723
 11
19.167665
 21
-20.254723
  0
LINE
  8
0
 62
     4
 10
24.487665
 20
-30.699432
 11
24.487665
 21
-25.254723
  0
LINE
  8
0
 62
     4
 10
23.057667
 20
-30.315121
 11
23.057667
 21
-25.254723
  0
LINE
  8
0
 62
     4
 10
23.057667
 20
-35.684723
 11
23.057667
 21
-31.345119
  0
LINE
  8
0
 62
     4
 10
24.487665
 20
-35.684723
 11
24.487665
 21
-31.729431
  0
LINE
  8
0
 62
     4
 10
24.167665
 20
-25.254723
 11
24.167665
 21
-20.254723
  0
LINE
  8
0
 62
     4
 10
23.367666
 20
-25.254723
 11
23.367666
 21
-20.254723
  0
LINE
  8
0
 62
     4
 10
24.487665
 20
-25.254723
 11
23.057667
 21
-25.254723
  0
LINE
  8
0
 62
     4
 10
24.167665
 20
-20.254723
 11
23.367666
 21
-20.254723
  0
LINE
  8
0
 62
     1
 10
25.603947
 20
-32.029430
 11
16.806854
 21
-29.665213
  0
LINE
  8
0
 62
     1
 10
25.603949
 20
-30.999435
 11
16.806852
 21
-28.635218
  0
LINE
  8
0
  6
CENTER
 62
     2
 10
31.462667
 20
-61.831856
 11
31.462667
 21
-67.155952
  0
LINE
  8
0
 62
     4
 10
34.062668
 20
-62.684723
 11
35.862667
 21
-62.684723
  0
LINE
  8
0
 62
     4
 10
27.062666
 20
-62.684723
 11
28.862665
 21
-62.684723
  0
LINE
  8
0
 62
     4
 10
36.462669
 20
-63.284725
 11
36.462669
 21
-64.884720
  0
LINE
  8
0
 62
     4
 10
26.462667
 20
-63.284725
 11
26.462667
 21
-64.884720
  0
LINE
  8
0
 62
     4
 10
26.462667
 20
-63.284725
 11
36.462669
 21
-63.284725
  0
LINE
  8
0
 10
-16.138098
 20
-65.884727
 11
48.467667
 21
-65.884727
  0
LINE
  8
0
 10
26.462656
 20
-64.884705
 11
26.462656
 21
-65.884697
  0
LINE
  8
0
 10
26.462656
 20
-65.884697
 11
36.462658
 21
-65.884697
  0
LINE
  8
0
 62
     4
 10
36.462658
 20
-64.884705
 11
26.462656
 21
-64.884705
  0
LINE
  8
0
 10
36.462658
 20
-64.884705
 11
36.462658
 21
-65.884697
  0
LINE
  8
0
 62
     4
 10
5.867667
 20
-46.284725
 11
5.867667
 21
-45.284725
  0
LINE
  8
0
 62
     4
 10
-4.132333
 20
-46.284725
 11
-4.132333
 21
-45.284725
  0
LINE
  8
0
 62
     4
 10
16.267666
 20
-46.284725
 11
16.267666
 21
-40.784725
  0
LINE
  8
0
 62
     4
 10
26.267668
 20
-46.284725
 11
26.267668
 21
-40.784725
  0
LINE
  8
0
  6
CENTER
 62
     2
 10
-7.632333
 20
-83.495583
 11
-7.632333
 21
-77.731903
  0
LINE
  8
0
  6
CENTER
 62
     2
 10
39.967667
 20
-83.495583
 11
39.967667
 21
-77.731903
  0
LINE
  8
0
 62
     4
 10
-72.572334
 20
67.445274
 11
-71.772339
 21
67.445274
  0
LINE
  8
0
 10
-101.332336
 20
6.115273
 11
-99.332336
 21
9.579378
  0
LINE
  8
0
 10
-99.332336
 20
9.579375
 11
-99.332336
 21
17.651173
  0
LINE
  8
0
 10
-101.332329
 20
21.115274
 11
-99.332329
 21
17.651173
  0
LINE
  8
0
 10
-86.132339
 20
-0.884727
 11
-101.332336
 21
-0.884727
  0
LINE
  8
0
  6
CENTER
 62
     2
 10
-94.132339
 20
16.115274
 11
-94.132339
 21
28.115273
  0
LINE
  8
0
 10
-101.332336
 20
28.115273
 11
-86.132339
 21
28.115273
  0
LINE
  8
0
 10
-101.332336
 20
21.115273
 11
-101.332336
 21
28.115273
  0
LINE
  8
0
 10
-101.332336
 20
6.115273
 11
-101.332336
 21
-0.884727
  0
LINE
  8
0
  6
CENTER
 62
     2
 10
-88.132339
 20
22.115273
 11
-100.132339
 21
22.115273
  0
LINE
  8
0
  6
CENTER
 62
     2
 10
-92.132339
 20
1.615273
 11
-92.132339
 21
13.615273
  0
LINE
  8
0
  6
CENTER
 62
     2
 10
-86.132339
 20
7.615273
 11
-98.132339
 21
7.615273
  0
LINE
  8
0
 10
-71.132347
 20
10.315273
 11
-68.532333
 21
9.874455
  0
LINE
  8
0
 10
-68.532333
 20
11.106824
 11
-71.132339
 21
11.565273
  0
LINE
  8
0
 10
-68.532333
 20
11.106823
 11
-68.532333
 21
3.915274
  0
LINE
  8
0
 10
-71.532333
 20
11.415274
 11
-71.532333
 21
13.415274
  0
LINE
  8
0
 10
-72.032333
 20
13.915274
 11
-72.132339
 21
13.915274
  0
LINE
  8
0
 10
-72.032333
 20
10.915274
 11
-72.132339
 21
10.915274
  0
LINE
  8
0
 62
     4
 10
-50.642338
 20
23.265274
 11
-47.332336
 21
23.265274
  0
LINE
  8
0
 62
     4
 10
-50.992336
 20
21.965275
 11
-47.332336
 21
21.965275
  0
LINE
  8
0
 62
     4
 10
-47.332336
 20
22.365273
 11
-43.332336
 21
22.365273
  0
LINE
  8
0
 62
     4
 10
-47.332336
 20
22.865273
 11
-43.332336
 21
22.865273
  0
LINE
  8
0
 62
     4
 10
-43.332336
 20
22.865273
 11
-43.332336
 21
22.365273
  0
LINE
  8
0
 62
     1
 10
-52.098038
 20
21.701023
 11
-51.583733
 21
23.614710
  0
LINE
  8
0
 62
     1
 10
-51.081486
 20
21.651001
 11
-50.547607
 21
23.637535
  0
LINE
  8
0
 62
     4
 10
-65.532333
 20
23.265274
 11
-51.682335
 21
23.265274
  0
LINE
  8
0
 62
     4
 10
-65.532333
 20
21.965275
 11
-52.032337
 21
21.965275
  0
LINE
  8
0
 10
-71.132339
 20
10.815273
 11
-72.132339
 21
10.815273
  0
LINE
  8
0
 10
-71.132339
 20
14.015274
 11
-72.132339
 21
14.015274
  0
LINE
  8
0
 10
-72.132339
 20
10.815273
 11
-72.132339
 21
14.015274
  0
LINE
  8
0
 62
     4
 10
-84.932335
 20
35.915276
 11
-66.832336
 21
35.915276
  0
LINE
  8
0
 62
     4
 10
-72.432335
 20
34.415276
 11
-72.432335
 21
18.315273
  0
LINE
  8
0
 62
     4
 10
-66.532333
 20
18.415274
 11
-66.532333
 21
35.615273
  0
LINE
  8
0
 62
     4
 10
-84.932335
 20
35.915276
 11
-84.932335
 21
34.415276
  0
LINE
  8
0
 62
     4
 10
-72.432335
 20
18.415274
 11
-66.532333
 21
18.415274
  0
LINE
  8
0
 62
     4
 10
-65.732338
 20
24.615273
 11
-66.532333
 21
24.615273
  0
LINE
  8
0
 62
     4
 10
-65.532333
 20
20.815273
 11
-65.532333
 21
24.415274
  0
LINE
  8
0
 62
     4
 10
-65.732338
 20
20.615273
 11
-66.532333
 21
20.615273
  0
LINE
  8
0
 10
-82.932335
 20
4.615273
 11
-82.932335
 21
5.415274
  0
LINE
  8
0
 10
-75.332336
 20
5.415274
 11
-75.332336
 21
4.615273
  0
LINE
  8
0
 10
-75.332336
 20
5.415274
 11
-82.932335
 21
5.415274
  0
LINE
  8
0
 10
-71.132339
 20
10.315273
 11
-71.132339
 21
17.006092
  0
LINE
  8
0
 10
-86.132339
 20
35.915276
 11
-86.132339
 21
-0.884727
  0
LINE
  8
0
 10
-86.132339
 20
3.915274
 11
-68.532333
 21
3.915274
  0
LINE
  8
0
 10
-86.132339
 20
35.915276
 11
-85.232338
 21
35.915276
  0
LINE
  8
0
 10
-75.332336
 20
4.615273
 11
-82.932335
 21
4.615273
  0
LINE
  8
0
 10
-72.432335
 20
18.315273
 11
-66.532333
 21
18.315273
  0
LINE
  8
0
 10
-71.132339
 20
17.006090
 11
-66.532333
 21
17.817194
  0
LINE
  8
0
 10
-66.532333
 20
17.817196
 11
-66.532333
 21
18.315273
  0
LINE
  8
0
 10
-67.132339
 20
18.415274
 11
-67.132339
 21
18.315273
  0
LINE
  8
0
 10
-85.232338
 20
35.915276
 11
-84.932335
 21
35.615269
  0
LINE
  8
0
 62
     4
 10
-72.432335
 20
34.415276
 11
-84.932335
 21
34.415276
  0
LINE
  8
0
  6
CENTER
 62
     2
 10
-79.132339
 20
2.130268
 11
-79.132339
 21
38.051327
  0
LINE
  8
0
 62
     4
 10
-69.132339
 20
35.915276
 11
-69.132339
 21
41.915276
  0
LINE
  8
0
 62
     4
 10
-74.432335
 20
35.915276
 11
-74.432335
 21
41.915276
  0
LINE
  8
0
 62
     4
 10
-70.632339
 20
41.915276
 11
-70.632339
 21
42.015274
  0
LINE
  8
0
 62
     4
 10
-73.732338
 20
41.915276
 11
-73.732338
 21
42.015274
  0
LINE
  8
0
 62
     4
 10
-74.432335
 20
42.015274
 11
-74.432335
 21
46.015274
  0
LINE
  8
0
 62
     4
 10
-69.132339
 20
46.015274
 11
-68.132339
 21
46.015274
  0
LINE
  8
0
 62
     4
 10
-69.632339
 20
42.015274
 11
-74.432335
 21
42.015274
  0
LINE
  8
0
 62
     4
 10
-69.632339
 20
41.915276
 11
-69.632339
 21
47.015274
  0
LINE
  8
0
 62
     4
 10
-69.332336
 20
46.015274
 11
-69.132339
 21
46.015274
  0
LINE
  8
0
  6
PHANTOM
 62
     4
 10
-69.632339
 20
42.815273
 11
-69.632339
 21
44.313889
  0
LINE
  8
0
 62
     4
 10
-69.332329
 20
46.015270
 11
-69.632332
 21
44.313885
  0
LINE
  8
0
 62
     4
 10
-68.632339
 20
38.481300
 11
-68.632339
 21
45.015274
  0
LINE
  8
0
 62
     4
 10
-74.932335
 20
47.015274
 11
-69.632339
 21
47.015274
  0
LINE
  8
0
 62
     4
 10
-69.132332
 20
37.615273
 11
-68.632332
 21
38.481300
  0
LINE
  8
0
 62
     4
 10
-68.132339
 20
45.303947
 11
-68.132339
 21
46.015274
  0
LINE
  8
0
 62
     4
 10
-68.632339
 20
45.015274
 11
-68.132339
 21
45.303947
  0
LINE
  8
0
 62
     4
 10
-74.932335
 20
46.303947
 11
-74.932335
 21
47.015274
  0
LINE
  8
0
 62
     4
 10
-74.432335
 20
46.015274
 11
-74.932335
 21
46.303947
  0
LINE
  8
0
 62
     4
 10
-69.132339
 20
41.915276
 11
-74.432335
 21
41.915276
  0
LINE
  8
0
 62
     1
 10
-75.172325
 20
53.025272
 11
-69.172325
 21
51.125271
  0
LINE
  8
0
 62
     1
 10
-75.172333
 20
54.265274
 11
-69.172333
 21
52.365273
  0
LINE
  8
0
 62
     4
 10
-72.882339
 20
53.540108
 11
-72.882339
 21
57.445274
  0
LINE
  8
0
 62
     4
 10
-71.452339
 20
53.087273
 11
-71.452339
 21
57.445274
  0
LINE
  8
0
 62
     4
 10
-71.452339
 20
57.445274
 11
-72.882339
 21
57.445274
  0
LINE
  8
0
 62
     4
 10
-71.452339
 20
47.015274
 11
-71.452339
 21
51.847275
  0
LINE
  8
0
 62
     4
 10
-72.882339
 20
47.015274
 11
-72.882339
 21
52.300110
  0
LINE
  8
0
 62
     4
 10
-61.032337
 20
18.415274
 11
-66.532333
 21
18.415274
  0
LINE
  8
0
 62
     4
 10
-61.032337
 20
23.715275
 11
-65.532333
 21
23.715275
  0
LINE
  8
0
 62
     4
 10
-40.502335
 20
21.075274
 11
-40.502335
 21
20.275274
  0
LINE
  8
0
 62
     4
 10
-55.932335
 20
19.965275
 11
-51.312336
 21
19.965275
  0
LINE
  8
0
 62
     4
 10
-55.932335
 20
21.395273
 11
-50.932335
 21
21.395273
  0
LINE
  8
0
 62
     4
 10
-45.502335
 20
21.395273
 11
-45.502335
 21
19.965275
  0
LINE
  8
0
 62
     4
 10
-45.502335
 20
20.275274
 11
-40.502335
 21
20.275274
  0
LINE
  8
0
 62
     4
 10
-45.502335
 20
21.075274
 11
-40.502335
 21
21.075274
  0
LINE
  8
0
 62
     4
 10
-49.692337
 20
21.395273
 11
-45.502335
 21
21.395273
  0
LINE
  8
0
 62
     4
 10
-50.072338
 20
19.965275
 11
-45.502335
 21
19.965275
  0
LINE
  8
0
 62
     1
 10
-50.199703
 20
19.485159
 11
-49.611862
 21
21.689552
  0
LINE
  8
0
 62
     1
 10
-51.428017
 20
19.528984
 11
-50.849480
 21
21.698488
  0
LINE
  8
0
 62
     4
 10
-56.932339
 20
18.415276
 11
-56.643661
 21
17.915272
  0
LINE
  8
0
 62
     4
 10
-56.643661
 20
17.915274
 11
-55.932335
 21
17.915274
  0
LINE
  8
0
 62
     4
 10
-57.932339
 20
24.215273
 11
-57.643661
 21
24.715275
  0
LINE
  8
0
 62
     4
 10
-57.643661
 20
24.715275
 11
-56.932335
 21
24.715275
  0
LINE
  8
0
 62
     4
 10
-65.332336
 20
23.715273
 11
-64.466309
 21
24.215271
  0
LINE
  8
0
 10
-61.032337
 20
19.115273
 11
-60.932335
 21
19.115273
  0
LINE
  8
0
 62
     4
 10
-55.932335
 20
17.915274
 11
-55.932335
 21
21.965275
  0
LINE
  8
0
 62
     4
 10
-64.466309
 20
24.215275
 11
-57.932335
 21
24.215275
  0
LINE
  8
0
 62
     4
 10
-56.932339
 20
23.515032
 11
-58.348774
 21
23.265276
  0
LINE
  8
0
 62
     4
 10
-60.932335
 20
21.965275
 11
-60.932335
 21
18.415274
  0
LINE
  8
0
 62
     4
 10
-56.932335
 20
23.515030
 11
-56.932335
 21
24.715275
  0
LINE
  8
0
 62
     4
 10
-60.932335
 20
18.415274
 11
-56.932335
 21
18.415274
  0
LINE
  8
0
 62
     4
 10
-61.032337
 20
18.415274
 11
-61.032337
 21
21.965275
  0
LINE
  8
0
 62
     4
 10
-61.032337
 20
23.265274
 11
-61.032337
 21
23.715275
  0
LINE
  8
0
 62
     4
 10
-47.332336
 20
23.265274
 11
-47.332336
 21
21.965275
  0
LINE
  8
0
  6
CENTER
 62
     2
 10
-103.471413
 20
14.915274
 11
-99.988884
 21
14.915274
  0
LINE
  8
0
 62
     4
 10
-71.772339
 20
57.445274
 11
-71.772339
 21
67.445274
  0
LINE
  8
0
 62
     4
 10
-72.572334
 20
57.445274
 11
-72.572334
 21
67.445274
  0
LINE
  8
0
 62
     4
 10
26.472666
 20
16.420273
 11
26.472666
 21
7.420274
  0
LINE
  8
0
 62
     4
 10
34.332668
 20
11.780273
 11
35.602669
 21
13.050273
  0
LINE
  8
0
 62
     4
 10
35.602665
 20
11.780274
 11
34.332668
 21
13.050273
  0
LINE
  8
0
 62
     4
 10
36.472668
 20
13.520273
 11
35.992668
 21
13.520273
  0
LINE
  8
0
 62
     4
 10
36.472668
 20
11.320273
 11
35.992668
 21
11.320273
  0
LINE
  8
0
 62
     4
 10
28.602667
 20
11.780273
 11
27.332668
 21
13.050273
  0
LINE
  8
0
 62
     4
 10
27.332668
 20
11.780273
 11
28.602667
 21
13.050273
  0
LINE
  8
0
 62
     4
 10
27.472666
 20
6.420274
 11
35.472668
 21
6.420274
  0
LINE
  8
0
 62
     4
 10
27.472666
 20
17.420273
 11
35.472668
 21
17.420273
  0
LINE
  8
0
 62
     4
 10
36.472668
 20
16.420273
 11
36.472668
 21
7.420274
  0
LINE
  8
0
 62
     4
 10
26.472666
 20
11.320273
 11
26.952665
 21
11.320273
  0
LINE
  8
0
 62
     4
 10
26.472666
 20
13.520273
 11
26.952665
 21
13.520273
  0
LINE
  8
0
  6
CENTER
 62
     2
 10
31.472666
 20
4.650273
 11
31.472666
 21
18.980274
  0
LINE
  8
0
 10
16.267666
 20
28.115273
 11
16.067667
 21
28.115273
  0
LINE
  8
0
 10
-4.132333
 20
28.115273
 11
-16.132334
 21
28.115273
  0
LINE
  8
0
 10
6.067667
 20
28.115273
 11
5.867667
 21
28.115273
  0
LINE
  8
0
 10
-16.132334
 20
-0.884727
 11
48.467667
 21
-0.884727
  0
LINE
  8
0
 10
-16.132334
 20
-0.884727
 11
-16.132334
 21
28.115273
  0
LINE
  8
0
 10
48.467667
 20
28.115273
 11
26.267668
 21
28.115273
  0
LINE
  8
0
  6
CENTER
 62
     2
 10
42.413136
 20
14.915274
 11
37.446136
 21
14.915274
  0
LINE
  8
0
  6
CENTER
 62
     2
 10
39.967667
 20
12.254044
 11
39.967667
 21
17.930613
  0
LINE
  8
0
  6
CENTER
 62
     2
 10
-7.632333
 20
12.254044
 11
-7.632333
 21
17.930613
  0
LINE
  8
0
  6
CENTER
 62
     2
 10
-10.095140
 20
14.915274
 11
-5.364666
 21
14.915274
  0
LINE
  8
0
 10
48.467667
 20
-0.884727
 11
48.467667
 21
28.115273
  0
LINE
  8
0
  6
CENTER
 62
     2
 10
0.867667
 20
4.403522
 11
0.867667
 21
38.051327
  0
LINE
  8
0
 10
-1.526704
 20
9.874456
 11
-1.782334
 21
10.315274
  0
LINE
  8
0
 10
3.517667
 20
10.315273
 11
3.262037
 21
9.874455
  0
LINE
  8
0
 10
-0.276704
 20
11.124456
 11
-0.532334
 21
11.565273
  0
LINE
  8
0
 10
-1.782333
 20
10.315273
 11
-0.532333
 21
11.565273
  0
LINE
  8
0
 10
-0.276703
 20
11.124456
 11
-1.526703
 21
9.874456
  0
LINE
  8
0
 10
2.012037
 20
11.124456
 11
2.267667
 21
11.565273
  0
LINE
  8
0
 10
5.867667
 20
17.006092
 11
-4.132333
 21
17.006092
  0
LINE
  8
0
 10
2.012038
 20
11.124456
 11
3.262038
 21
9.874456
  0
LINE
  8
0
 10
5.867667
 20
9.874456
 11
3.262037
 21
9.874456
  0
LINE
  8
0
 10
-1.526704
 20
9.874456
 11
-4.132333
 21
9.874456
  0
LINE
  8
0
 10
-0.276704
 20
11.124456
 11
2.012037
 21
11.124456
  0
LINE
  8
0
 10
5.867667
 20
10.315273
 11
3.517666
 21
10.315273
  0
LINE
  8
0
 10
3.517667
 20
10.315274
 11
2.267667
 21
11.565274
  0
LINE
  8
0
 10
-0.532333
 20
11.565273
 11
2.267666
 21
11.565273
  0
LINE
  8
0
 10
-1.782333
 20
10.315273
 11
-4.132333
 21
10.315273
  0
LINE
  8
0
 10
-4.132333
 20
17.817196
 11
5.867667
 21
17.817196
  0
LINE
  8
0
 10
5.867667
 20
18.315273
 11
-4.132333
 21
18.315273
  0
LINE
  8
0
 10
4.367667
 20
14.015274
 11
5.867667
 21
14.015274
  0
LINE
  8
0
 10
5.867667
 20
10.815273
 11
4.367667
 21
10.815273
  0
LINE
  8
0
 10
-2.632333
 20
10.815273
 11
-4.132333
 21
10.815273
  0
LINE
  8
0
 10
-4.132333
 20
14.015274
 11
-2.632333
 21
14.015274
  0
LINE
  8
0
 62
     4
 10
-4.132333
 20
35.915276
 11
-4.132333
 21
18.315273
  0
LINE
  8
0
  6
CENTER
 62
     2
 10
3.367667
 20
14.165274
 11
-1.632333
 21
14.165274
  0
LINE
  8
0
 62
     4
 10
5.867667
 20
35.915276
 11
5.867667
 21
18.315273
  0
LINE
  8
0
 62
     4
 10
-4.132333
 20
35.915276
 11
5.867667
 21
35.915276
  0
LINE
  8
0
 62
     4
 10
5.867667
 20
18.415274
 11
-4.132333
 21
18.415274
  0
LINE
  8
0
 62
     1
 10
2.367667
 20
30.915274
 11
2.367667
 21
35.915276
  0
LINE
  8
0
 62
     1
 10
-0.632333
 20
30.915274
 11
-0.632333
 21
35.915276
  0
LINE
  8
0
 62
     1
 10
-0.632333
 20
30.915274
 11
2.367667
 21
30.915274
  0
LINE
  8
0
 62
     4
 10
3.767666
 20
20.615273
 11
-2.032333
 21
20.615273
  0
LINE
  8
0
 62
     4
 10
3.767666
 20
24.615273
 11
-2.032333
 21
24.615273
  0
LINE
  8
0
 10
2.693181
 20
13.865273
 11
-0.957847
 21
13.865273
  0
LINE
  8
0
 10
2.693181
 20
14.465274
 11
-0.957847
 21
14.465274
  0
LINE
  8
0
 10
-3.339440
 20
11.708167
 11
-1.925227
 21
13.122380
  0
LINE
  8
0
 10
-3.339440
 20
13.122380
 11
-1.925226
 21
11.708167
  0
LINE
  8
0
 10
5.074773
 20
13.122381
 11
3.660559
 21
11.708167
  0
LINE
  8
0
 10
5.074773
 20
11.708167
 11
3.660560
 21
13.122381
  0
LINE
  8
0
 10
5.867667
 20
3.915274
 11
-4.132333
 21
3.915274
  0
LINE
  8
0
  6
CENTER
 62
     2
 10
4.353974
 20
7.815274
 11
-2.780229
 21
7.815274
  0
LINE
  8
0
 62
     4
 10
8.567667
 20
41.915276
 11
6.067667
 21
41.915276
  0
LINE
  8
0
 62
     4
 10
13.567667
 20
41.049248
 11
13.967667
 21
41.049248
  0
LINE
  8
0
 62
     4
 10
13.567667
 20
39.515274
 11
13.967667
 21
39.515274
  0
LINE
  8
0
 62
     4
 10
8.567667
 20
38.381302
 11
13.567667
 21
38.381302
  0
LINE
  8
0
 62
     1
 10
9.817667
 20
42.015274
 11
9.817667
 21
43.015274
  0
LINE
  8
0
 62
     1
 10
12.317667
 20
42.015274
 11
12.317667
 21
43.015274
  0
LINE
  8
0
 62
     1
 10
9.817667
 20
43.015274
 11
8.567667
 21
43.015274
  0
LINE
  8
0
 62
     1
 10
13.567667
 20
43.015274
 11
12.317667
 21
43.015274
  0
LINE
  8
0
 62
     1
 10
9.817667
 20
42.015274
 11
8.567667
 21
42.015274
  0
LINE
  8
0
 62
     1
 10
13.567667
 20
42.015274
 11
12.317667
 21
42.015274
  0
LINE
  8
0
 62
     4
 10
7.467667
 20
42.015274
 11
6.367667
 21
42.015274
  0
LINE
  8
0
 62
     4
 10
6.367667
 20
42.015274
 11
6.367667
 21
47.015274
  0
LINE
  8
0
 62
     4
 10
8.567667
 20
37.515274
 11
8.567667
 21
46.015274
  0
LINE
  8
0
 62
     4
 10
6.967667
 20
41.915276
 11
6.967667
 21
42.015274
  0
LINE
  8
0
 62
     4
 10
7.467667
 20
41.915276
 11
7.467667
 21
47.015274
  0
LINE
  8
0
 62
     4
 10
14.667665
 20
41.915276
 11
14.667665
 21
47.015274
  0
LINE
  8
0
 62
     4
 10
15.167665
 20
41.915276
 11
15.167665
 21
42.015274
  0
LINE
  8
0
 62
     4
 10
8.567667
 20
45.015274
 11
13.567667
 21
45.015274
  0
LINE
  8
0
 62
     4
 10
8.567667
 20
45.303947
 11
13.567667
 21
45.303947
  0
LINE
  8
0
 62
     4
 10
13.567667
 20
37.515274
 11
13.567667
 21
46.015274
  0
LINE
  8
0
 62
     4
 10
15.767666
 20
42.015274
 11
15.767666
 21
47.015274
  0
LINE
  8
0
 62
     4
 10
13.567667
 20
46.015274
 11
8.567667
 21
46.015274
  0
LINE
  8
0
 62
     4
 10
14.667665
 20
42.015274
 11
15.767666
 21
42.015274
  0
LINE
  8
0
 62
     4
 10
15.767666
 20
47.015274
 11
6.367667
 21
47.015274
  0
LINE
  8
0
 62
     4
 10
13.567667
 20
37.515274
 11
8.567667
 21
37.515274
  0
LINE
  8
0
 62
     4
 10
12.927666
 20
47.015274
 11
12.927666
 21
52.015274
  0
LINE
  8
0
 62
     4
 10
14.357666
 20
47.015274
 11
14.357666
 21
51.635277
  0
LINE
  8
0
 62
     4
 10
13.247665
 20
67.445274
 11
14.047667
 21
67.445274
  0
LINE
  8
0
 62
     4
 10
12.927666
 20
57.445274
 11
14.357666
 21
57.445274
  0
LINE
  8
0
 62
     4
 10
14.047667
 20
57.445274
 11
14.047667
 21
67.445274
  0
LINE
  8
0
 62
     4
 10
13.247665
 20
57.445274
 11
13.247665
 21
67.445274
  0
LINE
  8
0
 62
     4
 10
12.927666
 20
53.255272
 11
12.927666
 21
57.445274
  0
LINE
  8
0
 62
     4
 10
14.357666
 20
52.875275
 11
14.357666
 21
57.445274
  0
LINE
  8
0
 62
     1
 10
16.647667
 20
52.265274
 11
5.549353
 21
55.224823
  0
LINE
  8
0
 62
     1
 10
16.647667
 20
51.025272
 11
5.549355
 21
53.984825
  0
LINE
  8
0
 62
     4
 10
7.847666
 20
47.015274
 11
7.847666
 21
53.371941
  0
LINE
  8
0
 62
     4
 10
9.277666
 20
47.015274
 11
9.277666
 21
52.990608
  0
LINE
  8
0
 62
     4
 10
9.277666
 20
54.230606
 11
9.277666
 21
57.445274
  0
LINE
  8
0
 62
     4
 10
7.847666
 20
54.611938
 11
7.847666
 21
57.445274
  0
LINE
  8
0
 62
     4
 10
8.887667
 20
57.445274
 11
8.887667
 21
67.445274
  0
LINE
  8
0
 62
     4
 10
8.087667
 20
57.445274
 11
8.087667
 21
67.445274
  0
LINE
  8
0
 62
     4
 10
9.207666
 20
57.445274
 11
7.777667
 21
57.445274
  0
LINE
  8
0
 62
     4
 10
8.887667
 20
67.445274
 11
8.087667
 21
67.445274
  0
LINE
  8
0
 62
     4
 10
16.067667
 20
41.915276
 11
13.567667
 21
41.915276
  0
LINE
  8
0
 62
     4
 10
16.067667
 20
35.915276
 11
6.067667
 21
35.915276
  0
LINE
  8
0
 62
     4
 10
8.167667
 20
41.049248
 11
8.567667
 21
41.049248
  0
LINE
  8
0
 62
     4
 10
8.167667
 20
39.515274
 11
8.567667
 21
39.515274
  0
LINE
  8
0
 62
     4
 10
8.167667
 20
35.915276
 11
8.167667
 21
41.915276
  0
LINE
  8
0
 62
     4
 10
13.967667
 20
35.915276
 11
13.967667
 21
41.915276
  0
LINE
  8
0
 62
     4
 10
6.067667
 20
18.415274
 11
16.067667
 21
18.415274
  0
LINE
  8
0
 62
     1
 10
12.567667
 20
30.915274
 11
12.567667
 21
35.915276
  0
LINE
  8
0
 62
     1
 10
9.567667
 20
30.915274
 11
9.567667
 21
35.915276
  0
LINE
  8
0
 62
     1
 10
9.567667
 20
30.915274
 11
12.567667
 21
30.915274
  0
LINE
  8
0
  6
CENTER
 62
     2
 10
11.067667
 20
4.403522
 11
11.067667
 21
49.333458
  0
LINE
  8
0
 10
8.673295
 20
9.874456
 11
8.417665
 21
10.315274
  0
LINE
  8
0
 10
13.717668
 20
10.315271
 11
13.462039
 21
9.874455
  0
LINE
  8
0
 10
9.923298
 20
11.124456
 11
9.667667
 21
11.565274
  0
LINE
  8
0
 10
8.417666
 20
10.315273
 11
9.667666
 21
11.565273
  0
LINE
  8
0
 10
9.923297
 20
11.124456
 11
8.673296
 21
9.874456
  0
LINE
  8
0
 10
12.212037
 20
11.124454
 11
12.467667
 21
11.565273
  0
LINE
  8
0
 10
16.067667
 20
17.006092
 11
6.067667
 21
17.006092
  0
LINE
  8
0
 10
12.212036
 20
11.124456
 11
13.462036
 21
9.874456
  0
LINE
  8
0
 10
16.067667
 20
9.874456
 11
13.462036
 21
9.874456
  0
LINE
  8
0
 10
8.673296
 20
9.874456
 11
6.067667
 21
9.874456
  0
LINE
  8
0
 10
9.923296
 20
11.124456
 11
12.212036
 21
11.124456
  0
LINE
  8
0
 10
16.067667
 20
10.315273
 11
13.717667
 21
10.315273
  0
LINE
  8
0
 10
13.717666
 20
10.315273
 11
12.467666
 21
11.565273
  0
LINE
  8
0
 10
9.667665
 20
11.565273
 11
12.467667
 21
11.565273
  0
LINE
  8
0
 10
8.417665
 20
10.315273
 11
6.067667
 21
10.315273
  0
LINE
  8
0
 10
6.067667
 20
17.817196
 11
16.067667
 21
17.817196
  0
LINE
  8
0
 10
16.067667
 20
18.315273
 11
6.067667
 21
18.315273
  0
LINE
  8
0
 10
14.567667
 20
14.015274
 11
16.067667
 21
14.015274
  0
LINE
  8
0
 10
16.067667
 20
10.815273
 11
14.567667
 21
10.815273
  0
LINE
  8
0
 10
7.567667
 20
10.815273
 11
6.067667
 21
10.815273
  0
LINE
  8
0
 10
6.067667
 20
14.015274
 11
7.567667
 21
14.015274
  0
LINE
  8
0
 62
     4
 10
6.067667
 20
41.915276
 11
6.067667
 21
18.315273
  0
LINE
  8
0
  6
CENTER
 62
     2
 10
13.567667
 20
14.165274
 11
8.567667
 21
14.165274
  0
LINE
  8
0
 62
     4
 10
16.067667
 20
41.915276
 11
16.067667
 21
18.415274
  0
LINE
  8
0
 10
12.893179
 20
13.865273
 11
9.242153
 21
13.865273
  0
LINE
  8
0
 10
12.893179
 20
14.465274
 11
9.242153
 21
14.465274
  0
LINE
  8
0
 10
6.860560
 20
11.708167
 11
8.274774
 21
13.122379
  0
LINE
  8
0
 10
6.860560
 20
13.122380
 11
8.274774
 21
11.708167
  0
LINE
  8
0
 10
15.274773
 20
13.122378
 11
13.860560
 21
11.708166
  0
LINE
  8
0
 10
15.274773
 20
11.708165
 11
13.860559
 21
13.122378
  0
LINE
  8
0
 10
16.067667
 20
3.915274
 11
6.067667
 21
3.915274
  0
LINE
  8
0
  6
CENTER
 62
     2
 10
14.553974
 20
7.815274
 11
7.419771
 21
7.815274
  0
LINE
  8
0
 62
     4
 10
16.567667
 20
18.415274
 11
16.267666
 21
18.415274
  0
LINE
  8
0
 10
16.567667
 20
18.315273
 11
16.267666
 21
18.315273
  0
LINE
  8
0
 62
     4
 10
23.767666
 20
23.715275
 11
25.967665
 21
23.715275
  0
LINE
  8
0
 62
     4
 10
23.767666
 20
22.715275
 11
24.167665
 21
22.715275
  0
LINE
  8
0
 62
     4
 10
18.767666
 20
23.515274
 11
23.767666
 21
23.515274
  0
LINE
  8
0
 62
     4
 10
18.767666
 20
24.715275
 11
23.767666
 21
24.715275
  0
LINE
  8
0
 62
     4
 10
17.567667
 20
22.215275
 11
24.967665
 21
22.215275
  0
LINE
  8
0
 62
     4
 10
16.567667
 20
17.915274
 11
16.567667
 21
23.215275
  0
LINE
  8
0
 62
     4
 10
25.967665
 20
17.915274
 11
25.967665
 21
23.215275
  0
LINE
  8
0
 62
     4
 10
16.567667
 20
17.915274
 11
25.967665
 21
17.915274
  0
LINE
  8
0
 62
     4
 10
18.177666
 20
19.615273
 11
18.177666
 21
19.115273
  0
LINE
  8
0
 62
     4
 10
19.277666
 20
19.615273
 11
19.277666
 21
19.115273
  0
LINE
  8
0
 62
     4
 10
17.777666
 20
21.715275
 11
19.677666
 21
21.715275
  0
LINE
  8
0
 62
     4
 10
17.851665
 20
19.615273
 11
19.601665
 21
19.615273
  0
LINE
  8
0
 62
     4
 10
18.177666
 20
19.115273
 11
19.277666
 21
19.115273
  0
LINE
  8
0
 62
     4
 10
22.517666
 20
23.215275
 11
22.517666
 21
22.215275
  0
LINE
  8
0
 62
     4
 10
20.017666
 20
23.215275
 11
20.017666
 21
22.215275
  0
LINE
  8
0
 62
     4
 10
16.567667
 20
23.215275
 11
17.567667
 21
23.215275
  0
LINE
  8
0
 62
     4
 10
17.567667
 20
22.215275
 11
17.567667
 21
23.215275
  0
LINE
  8
0
 62
     4
 10
25.967665
 20
23.215275
 11
24.967665
 21
23.215275
  0
LINE
  8
0
 62
     4
 10
24.967665
 20
22.215275
 11
24.967665
 21
23.215275
  0
LINE
  8
0
 62
     4
 10
19.677666
 20
21.715273
 11
19.801666
 21
19.827274
  0
LINE
  8
0
 62
     4
 10
17.651667
 20
19.827274
 11
17.777666
 21
21.715275
  0
LINE
  8
0
 62
     4
 10
20.317667
 20
21.715275
 11
22.217667
 21
21.715275
  0
LINE
  8
0
 62
     4
 10
20.191666
 20
19.827276
 11
20.317667
 21
21.715275
  0
LINE
  8
0
 62
     4
 10
20.391666
 20
19.615273
 11
22.141666
 21
19.615273
  0
LINE
  8
0
 62
     4
 10
20.717667
 20
19.615273
 11
20.717667
 21
19.115273
  0
LINE
  8
0
 62
     4
 10
20.717667
 20
19.115273
 11
21.817667
 21
19.115273
  0
LINE
  8
0
 62
     4
 10
21.817667
 20
19.615273
 11
21.817667
 21
19.115273
  0
LINE
  8
0
 62
     4
 10
22.217667
 20
21.715273
 11
22.341667
 21
19.827274
  0
LINE
  8
0
 62
     4
 10
20.867666
 20
21.115273
 11
20.867666
 21
20.315273
  0
LINE
  8
0
 62
     4
 10
21.667665
 20
21.115273
 11
20.867666
 21
21.115273
  0
LINE
  8
0
 62
     4
 10
21.667665
 20
21.115273
 11
21.667665
 21
20.315273
  0
LINE
  8
0
 62
     4
 10
21.667665
 20
20.315273
 11
20.867666
 21
20.315273
  0
LINE
  8
0
 62
     4
 10
22.857666
 20
21.715275
 11
24.757666
 21
21.715275
  0
LINE
  8
0
 62
     4
 10
22.731667
 20
19.827274
 11
22.857666
 21
21.715275
  0
LINE
  8
0
 62
     4
 10
22.931665
 20
19.615273
 11
24.681665
 21
19.615273
  0
LINE
  8
0
 62
     4
 10
23.257666
 20
19.615273
 11
23.257666
 21
19.115273
  0
LINE
  8
0
 62
     4
 10
23.257666
 20
19.115273
 11
24.357666
 21
19.115273
  0
LINE
  8
0
 62
     4
 10
24.357666
 20
19.615273
 11
24.357666
 21
19.115273
  0
LINE
  8
0
 62
     4
 10
24.757666
 20
21.715275
 11
24.881666
 21
19.827274
  0
LINE
  8
0
 62
     4
 10
18.767666
 20
24.715275
 11
18.767666
 21
22.215275
  0
LINE
  8
0
 62
     4
 10
23.767666
 20
24.715275
 11
23.767666
 21
22.215275
  0
LINE
  8
0
 62
     4
 10
18.367666
 20
23.215275
 11
24.167665
 21
23.215275
  0
LINE
  8
0
 62
     4
 10
24.167665
 20
22.715275
 11
24.167665
 21
23.715275
  0
LINE
  8
0
 62
     4
 10
18.367666
 20
22.715275
 11
18.367666
 21
23.715275
  0
LINE
  8
0
 62
     4
 10
18.367666
 20
22.715275
 11
18.767666
 21
22.715275
  0
LINE
  8
0
 62
     4
 10
16.567667
 20
23.715275
 11
18.767666
 21
23.715275
  0
LINE
  8
0
 62
     4
 10
25.967665
 20
35.915276
 11
16.567667
 21
35.915276
  0
LINE
  8
0
 62
     4
 10
26.267668
 20
18.415274
 11
25.967665
 21
18.415274
  0
LINE
  8
0
 62
     1
 10
22.767666
 20
30.915274
 11
22.767666
 21
35.915276
  0
LINE
  8
0
 62
     1
 10
19.767666
 20
30.915274
 11
22.767666
 21
30.915274
  0
LINE
  8
0
 62
     1
 10
19.767666
 20
30.915274
 11
19.767666
 21
35.915276
  0
LINE
  8
0
  6
CENTER
 62
     2
 10
21.267666
 20
4.403522
 11
21.267666
 21
38.051327
  0
LINE
  8
0
 10
18.873297
 20
9.874455
 11
18.617666
 21
10.315273
  0
LINE
  8
0
 10
23.917665
 20
10.315273
 11
23.662037
 21
9.874455
  0
LINE
  8
0
 10
20.123297
 20
11.124456
 11
19.867666
 21
11.565274
  0
LINE
  8
0
 10
18.617666
 20
10.315274
 11
19.867666
 21
11.565276
  0
LINE
  8
0
 10
20.123297
 20
11.124455
 11
18.873297
 21
9.874456
  0
LINE
  8
0
 10
22.412037
 20
11.124456
 11
22.667665
 21
11.565274
  0
LINE
  8
0
 10
26.267668
 20
17.006092
 11
16.267666
 21
17.006092
  0
LINE
  8
0
 10
22.412037
 20
11.124456
 11
23.662037
 21
9.874456
  0
LINE
  8
0
 10
26.267668
 20
9.874456
 11
23.662037
 21
9.874456
  0
LINE
  8
0
 10
18.873297
 20
9.874456
 11
16.267666
 21
9.874456
  0
LINE
  8
0
 10
20.123297
 20
11.124456
 11
22.412037
 21
11.124456
  0
LINE
  8
0
 10
26.267668
 20
10.315273
 11
23.917665
 21
10.315273
  0
LINE
  8
0
 10
23.917667
 20
10.315273
 11
22.667667
 21
11.565273
  0
LINE
  8
0
 10
19.867666
 20
11.565273
 11
22.667665
 21
11.565273
  0
LINE
  8
0
 10
18.617666
 20
10.315273
 11
16.267666
 21
10.315273
  0
LINE
  8
0
 10
16.267666
 20
17.817196
 11
26.267668
 21
17.817196
  0
LINE
  8
0
 10
26.267668
 20
18.315273
 11
25.967665
 21
18.315273
  0
LINE
  8
0
 10
24.767668
 20
14.015274
 11
26.267668
 21
14.015274
  0
LINE
  8
0
 10
26.267668
 20
10.815273
 11
24.767668
 21
10.815273
  0
LINE
  8
0
 10
17.767666
 20
10.815273
 11
16.267666
 21
10.815273
  0
LINE
  8
0
 10
16.267666
 20
14.015274
 11
17.767666
 21
14.015274
  0
LINE
  8
0
 62
     4
 10
16.267666
 20
35.615273
 11
16.267666
 21
18.415274
  0
LINE
  8
0
  6
CENTER
 62
     2
 10
23.767666
 20
14.165274
 11
18.767666
 21
14.165274
  0
LINE
  8
0
 62
     4
 10
26.267668
 20
35.615273
 11
26.267668
 21
18.415274
  0
LINE
  8
0
 10
23.093180
 20
13.865273
 11
19.442152
 21
13.865273
  0
LINE
  8
0
 10
23.093180
 20
14.465274
 11
19.442152
 21
14.465274
  0
LINE
  8
0
 10
17.060560
 20
11.708166
 11
18.474773
 21
13.122380
  0
LINE
  8
0
 10
17.060560
 20
13.122380
 11
18.474773
 21
11.708167
  0
LINE
  8
0
 10
25.474773
 20
13.122380
 11
24.060558
 21
11.708166
  0
LINE
  8
0
 10
25.474773
 20
11.708166
 11
24.060560
 21
13.122379
  0
LINE
  8
0
 10
26.267668
 20
3.915274
 11
16.267666
 21
3.915274
  0
LINE
  8
0
  6
CENTER
 62
     2
 10
24.753973
 20
7.815274
 11
17.619770
 21
7.815274
  0
LINE
  8
0
 10
26.267668
 20
18.415274
 11
26.267668
 21
3.915274
  0
LINE
  8
0
 10
16.267666
 20
18.415274
 11
16.267666
 21
3.915274
  0
LINE
  8
0
 10
16.067667
 20
18.415274
 11
16.067667
 21
3.915274
  0
LINE
  8
0
 10
5.867667
 20
18.315273
 11
5.867667
 21
3.915274
  0
LINE
  8
0
 10
-4.132333
 20
18.315273
 11
-4.132333
 21
3.915274
  0
LINE
  8
0
 10
6.067667
 20
18.315273
 11
6.067667
 21
3.915274
  0
LINE
  8
0
 10
-133.399994
 20
-32.600002
 11
-43.799995
 21
-32.600002
  0
LINE
  8
0
 10
-133.399994
 20
-37.800003
 11
-43.799995
 21
-37.800003
  0
LINE
  8
0
 10
-133.399994
 20
-43.000004
 11
-43.799995
 21
-43.000004
  0
LINE
  8
0
 10
-133.399994
 20
-48.200005
 11
-43.799995
 21
-48.200005
  0
LINE
  8
0
 10
-133.399994
 20
-53.400002
 11
-43.799995
 21
-53.400002
  0
LINE
  8
0
 10
-133.399994
 20
-58.600002
 11
-43.799995
 21
-58.600002
  0
LINE
  8
0
 10
-133.399994
 20
-63.800003
 11
-43.799995
 21
-63.800003
  0
LINE
  8
0
 10
-133.399994
 20
-69.000000
 11
-43.799995
 21
-69.000000
  0
LINE
  8
0
 10
-133.399994
 20
-74.200005
 11
-43.799995
 21
-74.200005
  0
LINE
  8
0
 10
-133.399994
 20
-79.400002
 11
-43.799995
 21
-79.400002
  0
LINE
  8
0
 10
-133.399994
 20
-84.600006
 11
-43.799995
 21
-84.600006
  0
LINE
  8
0
 10
-133.399994
 20
-89.800003
 11
-43.799995
 21
-89.800003
  0
LINE
  8
0
 10
-133.399994
 20
-32.600002
 11
-133.399994
 21
-89.800003
  0
LINE
  8
0
 10
-114.199997
 20
-32.600002
 11
-114.199997
 21
-89.800003
  0
LINE
  8
0
 10
-101.399994
 20
-32.600002
 11
-101.399994
 21
-89.800003
  0
LINE
  8
0
 10
-88.599991
 20
-32.600002
 11
-88.599991
 21
-89.800003
  0
LINE
  8
0
 10
-69.399994
 20
-32.600002
 11
-69.399994
 21
-89.800003
  0
LINE
  8
0
 10
-56.599995
 20
-32.600002
 11
-56.599995
 21
-89.800003
  0
LINE
  8
0
 10
-43.799995
 20
-32.600002
 11
-43.799995
 21
-89.800003
  0
LINE
  8
0
 10
-81.556686
 20
-87.200005
 11
-76.443298
 21
-87.200005
  0
LINE
  8
0
 10
-65.533272
 20
-87.200005
 11
-60.419884
 21
-87.200005
  0
LINE
  8
0
 10
-52.733273
 20
-87.200005
 11
-47.619884
 21
-87.200005
  0
LINE
  8
0
  6
CENTER
 62
     2
 10
-88.434563
 20
12.415274
 11
-84.197136
 21
12.415274
  0
LINE
  8
0
 10
-138.399994
 20
94.500000
 11
138.350006
 21
94.500000
  0
LINE
  8
0
 10
138.350006
 20
94.500000
 11
138.350006
 21
-94.800003
  0
LINE
  8
0
 10
-138.399994
 20
-94.800003
 11
138.350006
 21
-94.800003
  0
LINE
  8
0
 10
-138.399994
 20
94.500000
 11
-138.399994
 21
-94.800003
  0
LINE
  8
0
 10
73.350006
 20
-84.800003
 11
138.350006
 21
-84.800003
  0
LINE
  8
0
 10
-138.399994
 20
84.500000
 11
-73.399994
 21
84.500000
  0
LINE
  8
0
 10
73.350006
 20
84.500000
 11
138.350006
 21
84.500000
  0
LINE
  8
0
 10
73.350006
 20
-84.800003
 11
73.350006
 21
-94.800003
  0
LINE
  8
0
 10
73.350006
 20
94.500000
 11
73.350006
 21
84.500000
  0
LINE
  8
0
 10
-73.399994
 20
94.500000
 11
-73.399994
 21
84.500000
  0
ARC
  8
0
 10
23.967667
 20
-64.384720
 40
0.200001
 50
0.000000
 51
90.000000
  0
ARC
  8
0
 10
18.567667
 20
-64.384720
 40
0.199997
 50
90.000000
 51
180.000000
  0
ARC
  8
0
 10
17.267666
 20
-64.884720
 40
0.299999
 50
180.000000
 51
270.000000
  0
ARC
  8
0
 10
17.267666
 20
-63.384724
 40
0.299999
 50
90.000000
 51
180.000000
  0
ARC
  8
0
 10
25.267668
 20
-63.384724
 40
0.299999
 50
0.000000
 51
90.000000
  0
ARC
  8
0
 10
25.267668
 20
-64.884720
 40
0.300003
 50
270.000000
 51
0.000000
  0
ARC
  8
0
 10
15.067667
 20
-64.884720
 40
0.300003
 50
270.000000
 51
0.000000
  0
ARC
  8
0
 10
15.067667
 20
-63.384724
 40
0.300000
 50
0.000000
 51
90.000000
  0
ARC
  8
0
 10
7.067667
 20
-63.384724
 40
0.299999
 50
90.000000
 51
180.000000
  0
ARC
  8
0
 10
7.067667
 20
-64.884720
 40
0.300000
 50
180.000000
 51
270.000000
  0
ARC
  8
0
 10
8.367666
 20
-64.384720
 40
0.199997
 50
90.000000
 51
180.000000
  0
ARC
  8
0
 10
13.767666
 20
-64.384720
 40
0.200000
 50
0.000000
 51
90.000000
  0
ARC
  8
0
 10
4.867667
 20
-64.884720
 40
0.300003
 50
270.000000
 51
0.000000
  0
ARC
  8
0
 10
4.867667
 20
-63.384724
 40
0.300000
 50
0.000000
 51
90.000000
  0
ARC
  8
0
 10
-3.132333
 20
-63.384724
 40
0.299999
 50
90.000000
 51
180.000000
  0
ARC
  8
0
 10
-3.132333
 20
-64.884720
 40
0.300000
 50
180.000000
 51
270.000000
  0
ARC
  8
0
 10
-1.832333
 20
-64.384720
 40
0.199997
 50
90.000000
 51
180.000000
  0
ARC
  8
0
 10
3.567667
 20
-64.384720
 40
0.200000
 50
0.000000
 51
90.000000
  0
ARC
  8
0
 62
     4
 10
34.062668
 20
-63.284721
 40
0.599998
 50
90.000000
 51
180.000000
  0
ARC
  8
0
 62
     4
 10
35.862690
 20
-63.284702
 40
0.599976
 50
359.997803
 51
90.002182
  0
ARC
  8
0
 62
     4
 10
28.862673
 20
-63.284718
 40
0.599993
 50
359.999268
 51
90.000725
  0
ARC
  8
0
 62
     4
 10
27.062651
 20
-63.284706
 40
0.599983
 50
89.998360
 51
180.001450
  0
CIRCLE
  8
0
 10
-92.132339
 20
7.615273
 40
2.500000
  0
CIRCLE
  8
0
 10
-94.132339
 20
22.115273
 40
2.500000
  0
CIRCLE
  8
0
 10
-94.132339
 20
22.115273
 40
4.250000
  0
CIRCLE
  8
0
 62
     2
 10
-94.132339
 20
22.115273
 40
5.000000
  0
CIRCLE
  8
0
 10
-92.132339
 20
7.615273
 40
4.250000
  0
CIRCLE
  8
0
 62
     2
 10
-92.132339
 20
7.615273
 40
5.000000
  0
ARC
  8
0
 10
-72.032333
 20
11.415274
 40
0.500000
 50
270.000000
 51
0.000000
  0
ARC
  8
0
 10
-72.032333
 20
13.415274
 40
0.500000
 50
0.000000
 51
90.000000
  0
ARC
  8
0
 62
     4
 10
-66.832336
 20
35.615273
 40
0.300003
 50
0.000000
 51
90.000000
  0
ARC
  8
0
 62
     4
 10
-65.731628
 20
24.415985
 40
0.199289
 50
359.795471
 51
90.203987
  0
ARC
  8
0
 62
     4
 10
-65.731628
 20
20.814562
 40
0.199291
 50
269.796021
 51
0.204541
  0
CIRCLE
  8
0
 62
     4
 10
34.972691
 20
12.420274
 40
1.500000
  0
ARC
  8
0
 62
     4
 10
35.472672
 20
16.420277
 40
0.999996
 50
359.999786
 51
90.000221
  0
ARC
  8
0
 62
     4
 10
35.472672
 20
7.420270
 40
0.999997
 50
269.999786
 51
0.000164
  0
ARC
  8
0
 62
     4
 10
27.472670
 20
16.420271
 40
1.000004
 50
90.000221
 51
179.999786
  0
ARC
  8
0
 62
     4
 10
27.472670
 20
7.420277
 40
1.000004
 50
180.000168
 51
269.999786
  0
CIRCLE
  8
0
 62
     4
 10
27.972658
 20
12.420274
 40
1.500000
  0
CIRCLE
  8
0
 10
39.970547
 20
14.915180
 40
1.600000
  0
CIRCLE
  8
0
 10
-7.635213
 20
14.915180
 40
1.600000
  0
CIRCLE
  8
0
 10
0.867667
 20
14.165274
 40
2.050000
  0
ARC
  8
0
 10
-2.632333
 20
12.415274
 40
1.600000
 50
270.000000
 51
90.000000
  0
ARC
  8
0
 10
4.367667
 20
12.415274
 40
1.600000
 50
90.000000
 51
270.000000
  0
CIRCLE
  8
0
 10
0.867667
 20
14.165274
 40
1.900000
  0
ARC
  8
0
 62
     4
 10
-3.832333
 20
35.615273
 40
0.299999
 50
90.000000
 51
180.000000
  0
ARC
  8
0
 62
     4
 10
5.567667
 20
35.615273
 40
0.300000
 50
0.000000
 51
90.000000
  0
CIRCLE
  8
0
 62
     4
 10
-2.032333
 20
22.615273
 40
0.875000
  0
CIRCLE
  8
0
 62
     4
 10
3.767666
 20
22.615273
 40
0.875000
  0
ARC
  8
0
 62
     4
 10
3.767666
 20
22.615273
 40
2.000000
 50
270.000000
 51
90.000000
  0
ARC
  8
0
 62
     4
 10
-2.032333
 20
22.615273
 40
2.000000
 50
90.000000
 51
270.000000
  0
CIRCLE
  8
0
 10
0.867667
 20
14.165274
 40
1.850000
  0
ARC
  8
0
 10
0.867667
 20
14.165274
 40
0.800000
 50
22.024326
 51
157.975677
  0
ARC
  8
0
 10
0.867667
 20
14.165274
 40
0.800000
 50
202.024323
 51
337.975677
  0
CIRCLE
  8
0
 10
-2.632333
 20
12.415274
 40
1.500000
  0
CIRCLE
  8
0
 10
4.367667
 20
12.415274
 40
1.500000
  0
CIRCLE
  8
0
 10
0.867667
 20
7.815274
 40
2.750000
  0
CIRCLE
  8
0
 10
0.867667
 20
7.815274
 40
1.250000
  0
CIRCLE
  8
0
 62
     2
 10
0.867667
 20
7.815274
 40
1.500000
  0
CIRCLE
  8
0
 10
11.067667
 20
14.165274
 40
2.050000
  0
ARC
  8
0
 10
7.567667
 20
12.415274
 40
1.600000
 50
270.000000
 51
90.000000
  0
ARC
  8
0
 10
14.567667
 20
12.415274
 40
1.600000
 50
90.000000
 51
270.000000
  0
CIRCLE
  8
0
 10
11.067667
 20
14.165274
 40
1.900000
  0
CIRCLE
  8
0
 10
11.067667
 20
14.165274
 40
1.850000
  0
ARC
  8
0
 10
11.067667
 20
14.165274
 40
0.800000
 50
22.024321
 51
157.975677
  0
ARC
  8
0
 10
11.067667
 20
14.165274
 40
0.800000
 50
202.024323
 51
337.975677
  0
CIRCLE
  8
0
 10
7.567667
 20
12.415274
 40
1.500000
  0
CIRCLE
  8
0
 10
14.567667
 20
12.415274
 40
1.500000
  0
CIRCLE
  8
0
 10
11.067667
 20
7.815274
 40
2.750000
  0
CIRCLE
  8
0
 10
11.067667
 20
7.815274
 40
1.250000
  0
CIRCLE
  8
0
 62
     2
 10
11.067667
 20
7.815274
 40
1.500000
  0
CIRCLE
  8
0
 62
     4
 10
23.807667
 20
20.715275
 40
0.750000
  0
CIRCLE
  8
0
 62
     4
 10
18.727667
 20
20.715275
 40
0.750000
  0
ARC
  8
0
 62
     4
 10
17.852011
 20
19.815937
 40
0.200665
 50
176.761688
 51
269.901978
  0
ARC
  8
0
 62
     4
 10
19.602381
 20
19.814939
 40
0.199666
 50
269.794739
 51
3.541817
  0
ARC
  8
0
 62
     4
 10
20.392010
 20
19.815937
 40
0.200665
 50
176.761688
 51
269.901978
  0
ARC
  8
0
 62
     4
 10
22.142382
 20
19.814939
 40
0.199666
 50
269.794739
 51
3.541817
  0
ARC
  8
0
 62
     4
 10
22.932011
 20
19.815937
 40
0.200665
 50
176.761688
 51
269.901978
  0
ARC
  8
0
 62
     4
 10
24.682383
 20
19.814939
 40
0.199666
 50
269.794739
 51
3.541817
  0
ARC
  8
0
 62
     4
 10
25.967665
 20
23.415274
 40
0.299999
 50
0.000000
 51
90.000000
  0
ARC
  8
0
 62
     4
 10
16.567667
 20
23.415274
 40
0.299999
 50
90.000000
 51
180.000000
  0
ARC
  8
0
 62
     4
 10
16.567667
 20
35.615273
 40
0.299999
 50
90.000000
 51
180.000000
  0
ARC
  8
0
 62
     4
 10
25.967665
 20
35.615273
 40
0.299999
 50
0.000000
 51
90.000000
  0
CIRCLE
  8
0
 10
21.267666
 20
14.165274
 40
2.050000
  0
ARC
  8
0
 10
17.767666
 20
12.415274
 40
1.600000
 50
270.000000
 51
90.000000
  0
ARC
  8
0
 10
24.767668
 20
12.415274
 40
1.600000
 50
90.000000
 51
270.000000
  0
CIRCLE
  8
0
 10
21.267666
 20
14.165274
 40
1.900000
  0
CIRCLE
  8
0
 10
21.267666
 20
14.165274
 40
1.850000
  0
ARC
  8
0
 10
21.267666
 20
14.165274
 40
0.799999
 50
22.024345
 51
157.975662
  0
ARC
  8
0
 10
21.267666
 20
14.165274
 40
0.799999
 50
202.024338
 51
337.975647
  0
CIRCLE
  8
0
 10
17.767666
 20
12.415274
 40
1.500000
  0
CIRCLE
  8
0
 10
24.767668
 20
12.415274
 40
1.500000
  0
CIRCLE
  8
0
 10
21.267666
 20
7.815274
 40
2.750000
  0
CIRCLE
  8
0
 10
21.267666
 20
7.815274
 40
1.250000
  0
CIRCLE
  8
0
 62
     2
 10
21.267666
 20
7.815274
 40
1.500000
  0
TEXT
  8
0
 10
-109.499992
 20
-37.080006
 40
3.200000
  1
L
 50
0.000000
 41
1.052632
 51
0.000000
  7
STANDARD
  0
TEXT
  8
0
 10
-96.699989
 20
-37.080006
 40
3.200000
  1
P
 50
0.000000
 41
1.052632
 51
0.000000
  7
STANDARD
  0
TEXT
  8
0
 10
-64.699989
 20
-37.080006
 40
3.200000
  1
L
 50
0.000000
 41
1.052632
 51
0.000000
  7
STANDARD
  0
TEXT
  8
0
 10
-51.899994
 20
-37.080006
 40
3.200000
  1
P
 50
0.000000
 41
1.052632
 51
0.000000
  7
STANDARD
  0
TEXT
  8
0
 10
-55.849995
 20
-42.280003
 40
3.200000
  1
129.2
 50
0.000000
 41
0.756579
 51
0.000000
  7
STANDARD
  0
TEXT
  8
0
 10
-68.649994
 20
-42.280003
 40
3.200000
  1
146.2
 50
0.000000
 41
0.756579
 51
0.000000
  7
STANDARD
  0
TEXT
  8
0
 10
-99.499992
 20
-42.280003
 40
3.200000
  1
27.2
 50
0.000000
 41
0.756579
 51
0.000000
  7
STANDARD
  0
TEXT
  8
0
 10
-112.299995
 20
-42.280003
 40
3.200000
  1
44.2
 50
0.000000
 41
0.756579
 51
0.000000
  7
STANDARD
  0
TEXT
  8
0
 10
-55.849995
 20
-47.480003
 40
3.200000
  1
139.4
 50
0.000000
 41
0.756579
 51
0.000000
  7
STANDARD
  0
TEXT
  8
0
 10
-68.649994
 20
-47.480003
 40
3.200000
  1
156.4
 50
0.000000
 41
0.756579
 51
0.000000
  7
STANDARD
  0
TEXT
  8
0
 10
-99.499992
 20
-47.480003
 40
3.200000
  1
37.4
 50
0.000000
 41
0.756579
 51
0.000000
  7
STANDARD
  0
TEXT
  8
0
 10
-112.299995
 20
-47.480003
 40
3.200000
  1
54.4
 50
0.000000
 41
0.756579
 51
0.000000
  7
STANDARD
  0
TEXT
  8
0
 10
-55.849995
 20
-52.680004
 40
3.200000
  1
149.6
 50
0.000000
 41
0.756579
 51
0.000000
  7
STANDARD
  0
TEXT
  8
0
 10
-68.649994
 20
-52.680004
 40
3.200000
  1
166.6
 50
0.000000
 41
0.756579
 51
0.000000
  7
STANDARD
  0
TEXT
  8
0
 10
-99.499992
 20
-52.680004
 40
3.200000
  1
47.6
 50
0.000000
 41
0.756579
 51
0.000000
  7
STANDARD
  0
TEXT
  8
0
 10
-112.299995
 20
-52.680004
 40
3.200000
  1
64.6
 50
0.000000
 41
0.756579
 51
0.000000
  7
STANDARD
  0
TEXT
  8
0
 10
-55.849995
 20
-57.880005
 40
3.200000
  1
159.8
 50
0.000000
 41
0.756579
 51
0.000000
  7
STANDARD
  0
TEXT
  8
0
 10
-68.649994
 20
-57.880005
 40
3.200000
  1
176.8
 50
0.000000
 41
0.756579
 51
0.000000
  7
STANDARD
  0
TEXT
  8
0
 10
-99.499992
 20
-57.880005
 40
3.200000
  1
57.8
 50
0.000000
 41
0.756579
 51
0.000000
  7
STANDARD
  0
TEXT
  8
0
 10
-112.299995
 20
-57.880005
 40
3.200000
  1
74.8
 50
0.000000
 41
0.756579
 51
0.000000
  7
STANDARD
  0
TEXT
  8
0
 10
-53.549992
 20
-63.080002
 40
3.200000
  1
170
 50
0.000000
 41
0.756579
 51
0.000000
  7
STANDARD
  0
TEXT
  8
0
 10
-66.349991
 20
-63.080002
 40
3.200000
  1
187
 50
0.000000
 41
0.756579
 51
0.000000
  7
STANDARD
  0
TEXT
  8
0
 10
-97.199989
 20
-63.080002
 40
3.200000
  1
68
 50
0.000000
 41
0.756579
 51
0.000000
  7
STANDARD
  0
TEXT
  8
0
 10
-109.999992
 20
-63.080002
 40
3.200000
  1
85
 50
0.000000
 41
0.756579
 51
0.000000
  7
STANDARD
  0
TEXT
  8
0
 10
-55.849995
 20
-68.279999
 40
3.200000
  1
180.2
 50
0.000000
 41
0.756579
 51
0.000000
  7
STANDARD
  0
TEXT
  8
0
 10
-68.649994
 20
-68.279999
 40
3.200000
  1
197.2
 50
0.000000
 41
0.756579
 51
0.000000
  7
STANDARD
  0
TEXT
  8
0
 10
-99.499992
 20
-68.279999
 40
3.200000
  1
78.2
 50
0.000000
 41
0.756579
 51
0.000000
  7
STANDARD
  0
TEXT
  8
0
 10
-112.299995
 20
-68.279999
 40
3.200000
  1
95.2
 50
0.000000
 41
0.756579
 51
0.000000
  7
STANDARD
  0
TEXT
  8
0
 10
-55.849995
 20
-73.480003
 40
3.200000
  1
190.4
 50
0.000000
 41
0.756579
 51
0.000000
  7
STANDARD
  0
TEXT
  8
0
 10
-68.649994
 20
-73.480003
 40
3.200000
  1
207.4
 50
0.000000
 41
0.756579
 51
0.000000
  7
STANDARD
  0
TEXT
  8
0
 10
-99.499992
 20
-73.480003
 40
3.200000
  1
88.4
 50
0.000000
 41
0.756579
 51
0.000000
  7
STANDARD
  0
TEXT
  8
0
 10
-113.449997
 20
-73.480003
 40
3.200000
  1
105.4
 50
0.000000
 41
0.756579
 51
0.000000
  7
STANDARD
  0
TEXT
  8
0
 10
-55.849995
 20
-78.680000
 40
3.200000
  1
200.6
 50
0.000000
 41
0.756579
 51
0.000000
  7
STANDARD
  0
TEXT
  8
0
 10
-68.649994
 20
-78.680000
 40
3.200000
  1
217.6
 50
0.000000
 41
0.756579
 51
0.000000
  7
STANDARD
  0
TEXT
  8
0
 10
-99.499992
 20
-78.680000
 40
3.200000
  1
98.6
 50
0.000000
 41
0.756579
 51
0.000000
  7
STANDARD
  0
TEXT
  8
0
 10
-113.449997
 20
-78.680000
 40
3.200000
  1
115.6
 50
0.000000
 41
0.756579
 51
0.000000
  7
STANDARD
  0
TEXT
  8
0
 10
-55.849995
 20
-83.879997
 40
3.200000
  1
210.8
 50
0.000000
 41
0.756579
 51
0.000000
  7
STANDARD
  0
TEXT
  8
0
 10
-68.649994
 20
-83.879997
 40
3.200000
  1
227.8
 50
0.000000
 41
0.756579
 51
0.000000
  7
STANDARD
  0
TEXT
  8
0
 10
-100.649994
 20
-83.879997
 40
3.200000
  1
108.8
 50
0.000000
 41
0.756579
 51
0.000000
  7
STANDARD
  0
TEXT
  8
0
 10
-113.449997
 20
-83.879997
 40
3.200000
  1
125.8
 50
0.000000
 41
0.756579
 51
0.000000
  7
STANDARD
  0
TEXT
  8
0
 10
-98.349991
 20
-89.080002
 40
3.200000
  1
119
 50
0.000000
 41
0.756579
 51
0.000000
  7
STANDARD
  0
TEXT
  8
0
 10
-111.149994
 20
-89.080002
 40
3.200000
  1
136
 50
0.000000
 41
0.756579
 51
0.000000
  7
STANDARD
  0
TEXT
  8
0
 10
-130.299988
 20
-37.080006
 40
3.200000
  1
TYPE
 50
0.000000
 41
1.052632
 51
0.000000
  7
STANDARD
  0
TEXT
  8
0
 10
-131.699997
 20
-42.280003
 40
3.200000
  1
G010MH2F
 50
0.000000
 41
0.723684
 51
0.000000
  7
STANDARD
  0
TEXT
  8
0
 10
-131.699997
 20
-47.480003
 40
3.200000
  1
G010MH3F
 50
0.000000
 41
0.723684
 51
0.000000
  7
STANDARD
  0
TEXT
  8
0
 10
-131.699997
 20
-52.680004
 40
3.200000
  1
G010MH4F
 50
0.000000
 41
0.723684
 51
0.000000
  7
STANDARD
  0
TEXT
  8
0
 10
-131.699997
 20
-57.880005
 40
3.200000
  1
G010MH5F
 50
0.000000
 41
0.723684
 51
0.000000
  7
STANDARD
  0
TEXT
  8
0
 10
-131.699997
 20
-63.080002
 40
3.200000
  1
G010MH6F
 50
0.000000
 41
0.723684
 51
0.000000
  7
STANDARD
  0
TEXT
  8
0
 10
-131.699997
 20
-68.279999
 40
3.200000
  1
G010MH7F
 50
0.000000
 41
0.723684
 51
0.000000
  7
STANDARD
  0
TEXT
  8
0
 10
-131.699997
 20
-73.480003
 40
3.200000
  1
G010MH8F
 50
0.000000
 41
0.723684
 51
0.000000
  7
STANDARD
  0
TEXT
  8
0
 10
-131.699997
 20
-78.680000
 40
3.200000
  1
G010MH9F
 50
0.000000
 41
0.723684
 51
0.000000
  7
STANDARD
  0
TEXT
  8
0
 10
-132.549988
 20
-83.879997
 40
3.200000
  1
G010MH10F
 50
0.000000
 41
0.674342
 51
0.000000
  7
STANDARD
  0
TEXT
  8
0
 10
-132.799988
 20
-89.080002
 40
3.200000
  1
G010MH11F
 50
0.000000
 41
0.674342
 51
0.000000
  7
STANDARD
  0
TEXT
  8
0
 10
-87.899994
 20
-42.280003
 40
3.200000
  1
G010MH12F
 50
0.000000
 41
0.657895
 51
0.000000
  7
STANDARD
  0
TEXT
  8
0
 10
-87.899994
 20
-47.480003
 40
3.200000
  1
G010MH13F
 50
0.000000
 41
0.657895
 51
0.000000
  7
STANDARD
  0
TEXT
  8
0
 10
-87.899994
 20
-52.680004
 40
3.200000
  1
G010MH14F
 50
0.000000
 41
0.657895
 51
0.000000
  7
STANDARD
  0
TEXT
  8
0
 10
-87.899994
 20
-57.880005
 40
3.200000
  1
G010MH15F
 50
0.000000
 41
0.657895
 51
0.000000
  7
STANDARD
  0
TEXT
  8
0
 10
-87.899994
 20
-63.080002
 40
3.200000
  1
G010MH16F
 50
0.000000
 41
0.657895
 51
0.000000
  7
STANDARD
  0
TEXT
  8
0
 10
-87.899994
 20
-68.279999
 40
3.200000
  1
G010MH17F
 50
0.000000
 41
0.657895
 51
0.000000
  7
STANDARD
  0
TEXT
  8
0
 10
-87.899994
 20
-73.480003
 40
3.200000
  1
G010MH18F
 50
0.000000
 41
0.657895
 51
0.000000
  7
STANDARD
  0
TEXT
  8
0
 10
-87.899994
 20
-78.680000
 40
3.200000
  1
G010MH19F
 50
0.000000
 41
0.657895
 51
0.000000
  7
STANDARD
  0
TEXT
  8
0
 10
-87.899994
 20
-83.879997
 40
3.200000
  1
G010MH20F
 50
0.000000
 41
0.657895
 51
0.000000
  7
STANDARD
  0
TEXT
  8
0
 10
-85.499992
 20
-37.080006
 40
3.200000
  1
TYPE
 50
0.000000
 41
1.052632
 51
0.000000
  7
STANDARD
  0
TEXT
  8
0
 10
76.207352
 20
-92.850006
 40
4.500000
  1
KOGANEI CORP.
 50
0.000000
 41
1.052632
 51
0.000000
  7
STANDARD
  0
TEXT
  8
0
 10
92.842865
 20
87.620003
 40
3.200000
  1
Ver. 1.0
 50
0.000000
 41
1.052632
 51
0.000000
  7
STANDARD
  0
TEXT
  8
0
 10
-123.707138
 20
87.620003
 40
3.200000
  1
G010 SERIES
 50
0.000000
 41
1.052632
 51
0.000000
  7
STANDARD
  0
TEXT
  8
0
 10
-130.207001
 20
72.620003
 40
3.200000
  1
MODEL:G010MHF
 50
0.000000
 41
1.052632
 51
0.000000
  7
STANDARD
  0
LINE
  8
0
 62
     2
 10
31.462666
 20
-63.284729
 11
41.292313
 21
-46.259277
  0
LINE
  8
0
 62
     2
 10
41.292313
 20
-46.259277
 11
54.987103
 21
-46.259277
  0
LINE
  8
0
 62
     2
 10
31.462666
 20
-63.284729
 11
33.583984
 21
-61.163406
  0
LINE
  8
0
 62
     2
 10
31.462666
 20
-63.284729
 11
32.239124
 21
-60.386951
  0
TEXT
  8
0
 62
     2
 10
44.723103
 20
-45.259277
 40
3.200000
  1
-BP
 50
0.000000
 41
1.052632
 51
0.000000
  7
STANDARD
  0
LINE
  8
0
 62
     2
 10
25.967667
 20
-35.684727
 11
31.121254
 21
-26.758450
  0
LINE
  8
0
 62
     2
 10
31.121254
 20
-26.758450
 11
69.180305
 21
-26.758450
  0
LINE
  8
0
 62
     2
 10
25.967667
 20
-35.684727
 11
28.088987
 21
-33.563404
  0
LINE
  8
0
 62
     2
 10
25.967667
 20
-35.684727
 11
26.744123
 21
-32.786949
  0
TEXT
  8
0
 62
     2
 10
33.316307
 20
-25.758450
 40
3.200000
  1
GA010HE1-PL  
 50
0.000000
 41
1.052632
 51
0.000000
  7
STANDARD
  0
LINE
  8
0
 62
     2
 10
11.067666
 20
-46.284725
 11
-0.205834
 21
-26.758451
  0
LINE
  8
0
 62
     2
 10
-0.205834
 20
-26.758451
 11
-38.668915
 21
-26.758451
  0
LINE
  8
0
 62
     2
 10
11.067666
 20
-46.284725
 11
10.291208
 21
-43.386948
  0
LINE
  8
0
 62
     2
 10
11.067666
 20
-46.284725
 11
8.946345
 21
-44.163406
  0
TEXT
  8
0
 62
     2
 10
-38.418915
 20
-25.758451
 40
3.200000
  1
GA010HE1-PS  
 50
0.000000
 41
1.052632
 51
0.000000
  7
STANDARD
  0
LINE
  8
0
 62
     2
 10
-4.132333
 20
-45.284725
 11
-9.231080
 21
-36.453438
  0
LINE
  8
0
 62
     2
 10
-9.231080
 20
-36.453438
 11
-36.873562
 21
-36.453438
  0
LINE
  8
0
 62
     2
 10
-4.132333
 20
-45.284725
 11
-4.908790
 21
-42.386948
  0
LINE
  8
0
 62
     2
 10
-4.132333
 20
-45.284725
 11
-6.253653
 21
-43.163406
  0
TEXT
  8
0
 62
     2
 10
-36.623562
 20
-35.453438
 40
3.200000
  1
GA010HE1  
 50
0.000000
 41
1.052632
 51
0.000000
  7
STANDARD
  0
TEXT
  8
0
 62
     2
 10
51.073044
 20
73.445274
 40
3.200000
  1
8.5
 50
0.000000
 41
1.052632
 51
0.000000
  7
STANDARD
  0
LINE
  8
0
 62
     2
 10
48.467667
 20
72.445274
 11
60.423042
 21
72.445274
  0
LINE
  8
0
 62
     2
 10
39.967667
 20
72.445274
 11
48.467667
 21
72.445274
  0
LINE
  8
0
 62
     2
 10
39.967667
 20
72.445274
 11
37.069889
 21
71.668816
  0
LINE
  8
0
 62
     2
 10
39.967667
 20
72.445274
 11
37.069889
 21
73.221733
  0
LINE
  8
0
 62
     2
 10
39.967667
 20
72.445274
 11
33.967667
 21
72.445274
  0
LINE
  8
0
 62
     2
 10
48.467667
 20
72.445274
 11
51.365444
 21
73.221733
  0
LINE
  8
0
 62
     2
 10
48.467667
 20
72.445274
 11
51.365444
 21
71.668816
  0
LINE
  8
0
 62
     2
 10
48.467667
 20
72.445274
 11
54.467667
 21
72.445274
  0
LINE
  8
0
 62
     2
 10
39.967667
 20
14.915275
 11
39.967667
 21
73.945274
  0
LINE
  8
0
 62
     2
 10
48.467667
 20
28.115273
 11
48.467667
 21
73.945274
  0
TEXT
  8
0
 62
     2
 10
-26.986139
 20
73.445274
 40
3.200000
  1
8.5
 50
0.000000
 41
1.052632
 51
0.000000
  7
STANDARD
  0
LINE
  8
0
 62
     2
 10
-16.132334
 20
72.445274
 11
-26.322140
 21
72.445274
  0
LINE
  8
0
 62
     2
 10
-16.132334
 20
72.445274
 11
-7.632333
 21
72.445274
  0
LINE
  8
0
 62
     2
 10
-16.132334
 20
72.445274
 11
-19.030111
 21
71.668816
  0
LINE
  8
0
 62
     2
 10
-16.132334
 20
72.445274
 11
-19.030111
 21
73.221733
  0
LINE
  8
0
 62
     2
 10
-16.132334
 20
72.445274
 11
-22.132334
 21
72.445274
  0
LINE
  8
0
 62
     2
 10
-7.632333
 20
72.445274
 11
-4.734556
 21
73.221733
  0
LINE
  8
0
 62
     2
 10
-7.632333
 20
72.445274
 11
-4.734556
 21
71.668816
  0
LINE
  8
0
 62
     2
 10
-7.632333
 20
72.445274
 11
-1.632333
 21
72.445274
  0
LINE
  8
0
 62
     2
 10
-16.132334
 20
28.115273
 11
-16.132334
 21
73.945274
  0
LINE
  8
0
 62
     2
 10
-7.632333
 20
14.915275
 11
-7.632333
 21
73.945274
  0
TEXT
  8
0
 62
     2
 10
14.360665
 20
73.445274
 40
3.200000
  1
P
 50
0.000000
 41
1.052632
 51
0.000000
  7
STANDARD
  0
LINE
  8
0
 62
     2
 10
-7.632333
 20
72.445274
 11
39.967667
 21
72.445274
  0
LINE
  8
0
 62
     2
 10
-7.632333
 20
72.445274
 11
-4.734556
 21
73.221733
  0
LINE
  8
0
 62
     2
 10
-7.632333
 20
72.445274
 11
-4.734556
 21
71.668816
  0
LINE
  8
0
 62
     2
 10
39.967667
 20
72.445274
 11
37.069889
 21
71.668816
  0
LINE
  8
0
 62
     2
 10
39.967667
 20
72.445274
 11
37.069889
 21
73.221733
  0
LINE
  8
0
 62
     2
 10
-7.632333
 20
14.915275
 11
-7.632333
 21
73.945274
  0
LINE
  8
0
 62
     2
 10
39.967667
 20
14.915275
 11
39.967667
 21
73.945274
  0
TEXT
  8
0
 62
     2
 10
14.360665
 20
81.445274
 40
3.200000
  1
L
 50
0.000000
 41
1.052632
 51
0.000000
  7
STANDARD
  0
LINE
  8
0
 62
     2
 10
-16.132334
 20
80.445274
 11
48.467667
 21
80.445274
  0
LINE
  8
0
 62
     2
 10
-16.132334
 20
80.445274
 11
-13.234556
 21
81.221733
  0
LINE
  8
0
 62
     2
 10
-16.132334
 20
80.445274
 11
-13.234556
 21
79.668816
  0
LINE
  8
0
 62
     2
 10
48.467667
 20
80.445274
 11
45.569889
 21
79.668816
  0
LINE
  8
0
 62
     2
 10
48.467667
 20
80.445274
 11
45.569889
 21
81.221733
  0
LINE
  8
0
 62
     2
 10
-16.132334
 20
28.115273
 11
-16.132334
 21
81.945274
  0
LINE
  8
0
 62
     2
 10
48.467667
 20
28.115273
 11
48.467667
 21
81.945274
  0
ENDSEC
  0
EOF
