  0
SECTION
  2
HEADER
  9
$ACADVER
  1
AC1012
  9
$DWGCODEPAGE
  3
dos932
  9
$INSBASE
 10
0.0
 20
0.0
 30
0.0
  9
$EXTMIN
 10
-138.4094391564276
 20
-94.80677969792248
 30
-0.0015258207003583
  9
$EXTMAX
 10
138.3594524451544
 20
94.50677747942865
 30
0.0000000349246037
  9
$LIMMIN
 10
-138.400994
 20
-94.8010031
  9
$LIMMAX
 10
138.351006
 20
94.501
  9
$ORTHOMODE
 70
     0
  9
$REGENMODE
 70
     1
  9
$FILLMODE
 70
     1
  9
$QTEXTMODE
 70
     0
  9
$MIRRTEXT
 70
     1
  9
$DRAGMODE
 70
     2
  9
$LTSCALE
 40
4.612499999999999
  9
$OSMODE
 70
    37
  9
$ATTMODE
 70
     1
  9
$TEXTSIZE
 40
0.2
  9
$TRACEWID
 40
0.05
  9
$TEXTSTYLE
  7
STANDARD
  9
$CLAYER
  8
0
  9
$CELTYPE
  6
CONTINUOUS
  9
$CECOLOR
 62
   256
  9
$CELTSCALE
 40
1.0
  9
$DELOBJ
 70
     1
  9
$DISPSILH
 70
     0
  9
$DIMSCALE
 40
1.0
  9
$DIMASZ
 40
0.18
  9
$DIMEXO
 40
0.0625
  9
$DIMDLI
 40
0.38
  9
$DIMRND
 40
0.0
  9
$DIMDLE
 40
0.0
  9
$DIMEXE
 40
0.18
  9
$DIMTP
 40
0.0
  9
$DIMTM
 40
0.0
  9
$DIMTXT
 40
0.18
  9
$DIMCEN
 40
0.09
  9
$DIMTSZ
 40
0.0
  9
$DIMTOL
 70
     0
  9
$DIMLIM
 70
     0
  9
$DIMTIH
 70
     1
  9
$DIMTOH
 70
     1
  9
$DIMSE1
 70
     0
  9
$DIMSE2
 70
     0
  9
$DIMTAD
 70
     0
  9
$DIMZIN
 70
     0
  9
$DIMBLK
  1

  9
$DIMASO
 70
     1
  9
$DIMSHO
 70
     1
  9
$DIMPOST
  1

  9
$DIMAPOST
  1

  9
$DIMALT
 70
     0
  9
$DIMALTD
 70
     2
  9
$DIMALTF
 40
25.4
  9
$DIMLFAC
 40
1.0
  9
$DIMTOFL
 70
     0
  9
$DIMTVP
 40
0.0
  9
$DIMTIX
 70
     0
  9
$DIMSOXD
 70
     0
  9
$DIMSAH
 70
     0
  9
$DIMBLK1
  1

  9
$DIMBLK2
  1

  9
$DIMSTYLE
  2
STANDARD
  9
$DIMCLRD
 70
     0
  9
$DIMCLRE
 70
     0
  9
$DIMCLRT
 70
     0
  9
$DIMTFAC
 40
1.0
  9
$DIMGAP
 40
0.09
  9
$DIMJUST
 70
     0
  9
$DIMSD1
 70
     0
  9
$DIMSD2
 70
     0
  9
$DIMTOLJ
 70
     1
  9
$DIMTZIN
 70
     0
  9
$DIMALTZ
 70
     0
  9
$DIMALTTZ
 70
     0
  9
$DIMFIT
 70
     3
  9
$DIMUPT
 70
     0
  9
$DIMUNIT
 70
     2
  9
$DIMDEC
 70
     4
  9
$DIMTDEC
 70
     4
  9
$DIMALTU
 70
     2
  9
$DIMALTTD
 70
     2
  9
$DIMTXSTY
  7
STANDARD
  9
$DIMAUNIT
 70
     0
  9
$LUNITS
 70
     2
  9
$LUPREC
 70
     4
  9
$SKETCHINC
 40
0.1
  9
$FILLETRAD
 40
0.0
  9
$AUNITS
 70
     0
  9
$AUPREC
 70
     0
  9
$MENU
  1
.
  9
$ELEVATION
 40
0.0
  9
$PELEVATION
 40
0.0
  9
$THICKNESS
 40
0.0
  9
$LIMCHECK
 70
     0
  9
$BLIPMODE
 70
     0
  9
$CHAMFERA
 40
0.0
  9
$CHAMFERB
 40
0.0
  9
$CHAMFERC
 40
0.0
  9
$CHAMFERD
 40
0.0
  9
$SKPOLY
 70
     0
  9
$TDCREATE
 40
2451967.780874502
  9
$TDUPDATE
 40
2451967.780884710
  9
$TDINDWG
 40
0.0000109028
  9
$TDUSRTIMER
 40
0.0000109028
  9
$USRTIMER
 70
     1
  9
$ANGBASE
 50
0.0
  9
$ANGDIR
 70
     0
  9
$PDMODE
 70
     0
  9
$PDSIZE
 40
0.0
  9
$PLINEWID
 40
0.0
  9
$COORDS
 70
     0
  9
$SPLFRAME
 70
     0
  9
$SPLINETYPE
 70
     6
  9
$SPLINESEGS
 70
     8
  9
$ATTDIA
 70
     0
  9
$ATTREQ
 70
     1
  9
$HANDLING
 70
 10241
  9
$HANDSEED
  5
336
  9
$SURFTAB1
 70
     6
  9
$SURFTAB2
 70
     6
  9
$SURFTYPE
 70
     6
  9
$SURFU
 70
     6
  9
$SURFV
 70
     6
  9
$UCSNAME
  2

  9
$UCSORG
 10
0.0
 20
0.0
 30
0.0
  9
$UCSXDIR
 10
1.0
 20
0.0
 30
0.0
  9
$UCSYDIR
 10
0.0
 20
1.0
 30
0.0
  9
$PUCSNAME
  2

  9
$PUCSORG
 10
0.0
 20
0.0
 30
0.0
  9
$PUCSXDIR
 10
1.0
 20
0.0
 30
0.0
  9
$PUCSYDIR
 10
0.0
 20
1.0
 30
0.0
  9
$USERI1
 70
     0
  9
$USERI2
 70
     0
  9
$USERI3
 70
     0
  9
$USERI4
 70
     0
  9
$USERI5
 70
     0
  9
$USERR1
 40
0.0
  9
$USERR2
 40
0.0
  9
$USERR3
 40
0.0
  9
$USERR4
 40
0.0
  9
$USERR5
 40
0.0
  9
$WORLDVIEW
 70
     1
  9
$SHADEDGE
 70
     3
  9
$SHADEDIF
 70
    70
  9
$TILEMODE
 70
     1
  9
$MAXACTVP
 70
    64
  9
$PINSBASE
 10
0.0
 20
0.0
 30
0.0
  9
$PLIMCHECK
 70
     0
  9
$PEXTMIN
 10
1.000000000000000E+20
 20
1.000000000000000E+20
 30
1.000000000000000E+20
  9
$PEXTMAX
 10
-1.000000000000000E+20
 20
-1.000000000000000E+20
 30
-1.000000000000000E+20
  9
$PLIMMIN
 10
0.0
 20
0.0
  9
$PLIMMAX
 10
12.0
 20
9.0
  9
$UNITMODE
 70
     0
  9
$VISRETAIN
 70
     1
  9
$PLINEGEN
 70
     0
  9
$PSLTSCALE
 70
     1
  9
$TREEDEPTH
 70
  3020
  9
$PICKSTYLE
 70
     1
  9
$CMLSTYLE
  2
STANDARD
  9
$CMLJUST
 70
     0
  9
$CMLSCALE
 40
1.0
  9
$SAVEIMAGES
 70
     1
  0
ENDSEC
  0
SECTION
  2
CLASSES
  0
CLASS
  1
ACDBDICTIONARYWDFLT
  2
AcDbDictionaryWithDefault
  3
AutoCAD 2000
 90
    32768
280
     0
281
     0
  0
CLASS
  1
ACDBPLACEHOLDER
  2
AcDbPlaceHolder
  3
AutoCAD 2000
 90
    32768
280
     0
281
     0
  0
CLASS
  1
LAYOUT
  2
AcDbLayout
  3
AutoCAD 2000
 90
    32768
280
     0
281
     0
  0
CLASS
  1
LONG_TRANSACTION
  2
AcDbLongTransaction
  3
AutoCAD 2000
 90
    32768
280
     0
281
     0
  0
CLASS
  1
LWPOLYLINE
  2
AcDbPolyline
  3
AutoCAD 2000
 90
    32768
280
     0
281
     1
  0
CLASS
  1
HATCH
  2
AcDbHatch
  3
AutoCAD 2000
 90
    32768
280
     0
281
     1
  0
CLASS
  1
XRECORD
  2
AcDbXrecord
  3
AutoCAD 2000
 90
    32768
280
     0
281
     0
  0
ENDSEC
  0
SECTION
  2
TABLES
  0
TABLE
  2
VPORT
  5
8
330
0
100
AcDbSymbolTable
 70
     3
  0
VPORT
  5
331
330
8
100
AcDbSymbolTableRecord
100
AcDbViewportTableRecord
  2
*ACTIVE
 70
     0
 10
0.0
 20
0.0
 11
1.0
 21
1.0
 12
-0.0249933556366102
 22
-0.1500011092469151
 13
0.0
 23
0.0
 14
1.0
 24
1.0
 15
0.0
 25
0.0
 16
0.0
 26
0.0
 36
1.0
 17
0.0
 27
0.0
 37
0.0
 40
191.7510707890766
 41
1.916129032258064
 42
50.0
 43
0.0
 44
0.0
 50
0.0
 51
0.0
 71
     0
 72
   100
 73
     1
 74
     1
 75
     0
 76
     0
 77
     0
 78
     0
  0
ENDTAB
  0
TABLE
  2
LTYPE
  5
5
330
0
100
AcDbSymbolTable
 70
     5
  0
LTYPE
  5
13
330
5
100
AcDbSymbolTableRecord
100
AcDbLinetypeTableRecord
  2
BYBLOCK
 70
     0
  3

 72
    65
 73
     0
 40
0.0
  0
LTYPE
  5
14
330
5
100
AcDbSymbolTableRecord
100
AcDbLinetypeTableRecord
  2
BYLAYER
 70
     0
  3

 72
    65
 73
     0
 40
0.0
  0
LTYPE
  5
15
330
5
100
AcDbSymbolTableRecord
100
AcDbLinetypeTableRecord
  2
CONTINUOUS
 70
     0
  3
Solid-Line
 72
    65
 73
     0
 40
0.0
  0
LTYPE
  5
22
330
5
100
AcDbSymbolTableRecord
100
AcDbLinetypeTableRecord
  2
DASHED
 70
     0
  3
DASHED
 72
    65
 73
     2
 40
0.75
 49
0.5
 74
     0
 49
-0.25
 74
     0
  0
LTYPE
  5
23
330
5
100
AcDbSymbolTableRecord
100
AcDbLinetypeTableRecord
  2
HIDDEN
 70
     0
  3
HIDDEN
 72
    65
 73
     2
 40
0.375
 49
0.25
 74
     0
 49
-0.125
 74
     0
  0
LTYPE
  5
24
330
5
100
AcDbSymbolTableRecord
100
AcDbLinetypeTableRecord
  2
CENTER
 70
     0
  3
CENTER
 72
    65
 73
     4
 40
2.0
 49
1.25
 74
     0
 49
-0.25
 74
     0
 49
0.25
 74
     0
 49
-0.25
 74
     0
  0
LTYPE
  5
25
330
5
100
AcDbSymbolTableRecord
100
AcDbLinetypeTableRecord
  2
PHANTOM
 70
     0
  3
PHANTOM
 72
    65
 73
     6
 40
2.5
 49
1.25
 74
     0
 49
-0.25
 74
     0
 49
0.25
 74
     0
 49
-0.25
 74
     0
 49
0.25
 74
     0
 49
-0.25
 74
     0
  0
ENDTAB
  0
TABLE
  2
LAYER
  5
2
330
0
100
AcDbSymbolTable
 70
     1
  0
LAYER
  5
10
330
2
100
AcDbSymbolTableRecord
100
AcDbLayerTableRecord
  2
0
 70
     0
 62
     7
  6
CONTINUOUS
  0
ENDTAB
  0
TABLE
  2
STYLE
  5
3
330
0
100
AcDbSymbolTable
 70
     3
  0
STYLE
  5
11
330
3
100
AcDbSymbolTableRecord
100
AcDbTextStyleTableRecord
  2
STANDARD
 70
     0
 40
0.0
 41
1.0
 50
0.0
 71
     0
 42
0.2
  3
txt
  4

  0
STYLE
  5
26
330
3
100
AcDbSymbolTableRecord
100
AcDbTextStyleTableRecord
  2
MONOTXT
 70
     0
 40
0.0
 41
1.0
 50
0.0
 71
     0
 42
0.2
  3
monotxt
  4

  0
STYLE
  5
27
330
3
100
AcDbSymbolTableRecord
100
AcDbTextStyleTableRecord
  2
BIGFONT
 70
     0
 40
0.0
 41
1.0
 50
0.0
 71
     0
 42
0.2
  3
txt
  4
bigfont
  0
ENDTAB
  0
TABLE
  2
VIEW
  5
6
330
0
100
AcDbSymbolTable
 70
     0
  0
ENDTAB
  0
TABLE
  2
UCS
  5
7
330
0
100
AcDbSymbolTable
 70
     0
  0
ENDTAB
  0
TABLE
  2
APPID
  5
9
330
0
100
AcDbSymbolTable
 70
     1
  0
APPID
  5
12
330
9
100
AcDbSymbolTableRecord
100
AcDbRegAppTableRecord
  2
ACAD
 70
     0
  0
ENDTAB
  0
TABLE
  2
DIMSTYLE
  5
A
330
0
100
AcDbSymbolTable
 70
     1
  0
DIMSTYLE
105
2FA
330
A
100
AcDbSymbolTableRecord
100
AcDbDimStyleTableRecord
  2
STANDARD
 70
     0
  3

  4

  5

  6

  7

 40
1.0
 41
0.18
 42
0.0625
 43
0.38
 44
0.18
 45
0.0
 46
0.0
 47
0.0
 48
0.0
140
0.18
141
0.09
142
0.0
143
25.4
144
1.0
145
0.0
146
1.0
147
0.09
 71
     0
 72
     0
 73
     1
 74
     1
 75
     0
 76
     0
 77
     0
 78
     0
170
     0
171
     2
172
     0
173
     0
174
     0
175
     0
176
     0
177
     0
178
     0
270
     2
271
     4
272
     4
273
     2
274
     2
340
11
275
     0
280
     0
281
     0
282
     0
283
     1
284
     0
285
     0
286
     0
287
     3
288
     0
  0
ENDTAB
  0
TABLE
  2
BLOCK_RECORD
  5
1
330
0
100
AcDbSymbolTable
 70
     0
  0
BLOCK_RECORD
  5
1E
102
{ACAD_XDICTIONARY
360
334
102
}
330
1
100
AcDbSymbolTableRecord
100
AcDbBlockTableRecord
  2
*MODEL_SPACE
  0
BLOCK_RECORD
  5
1A
102
{ACAD_XDICTIONARY
360
332
102
}
330
1
100
AcDbSymbolTableRecord
100
AcDbBlockTableRecord
  2
*PAPER_SPACE
  0
ENDTAB
  0
ENDSEC
  0
SECTION
  2
BLOCKS
  0
BLOCK
  5
1F
330
1E
100
AcDbEntity
  8
0
100
AcDbBlockBegin
  2
*MODEL_SPACE
 70
     0
 10
0.0
 20
0.0
 30
0.0
  3
*MODEL_SPACE
  1

  0
ENDBLK
  5
20
330
1E
100
AcDbEntity
  8
0
100
AcDbBlockEnd
  0
BLOCK
  5
1B
330
1A
100
AcDbEntity
 67
     1
  8
0
100
AcDbBlockBegin
  2
*PAPER_SPACE
 70
     0
 10
0.0
 20
0.0
 30
0.0
  3
*PAPER_SPACE
  1

  0
ENDBLK
  5
1C
330
1A
100
AcDbEntity
 67
     1
  8
0
100
AcDbBlockEnd
  0
ENDSEC
  0
SECTION
  2
ENTITIES
  0
LINE
  5
2C
330
1E
100
AcDbEntity
  8
0
 62
     7
100
AcDbLine
 10
-89.52499389999999
 20
-66.1500015
 30
0.0
 11
-89.52499389999999
 21
-61.6500015
 31
0.0
  0
LINE
  5
2D
330
1E
100
AcDbEntity
  8
0
 62
     7
100
AcDbLine
 10
-66.5249939
 20
-66.1500015
 30
0.0
 11
-66.5249939
 21
-61.6500015
 31
0.0
  0
LINE
  5
2E
330
1E
100
AcDbEntity
  8
0
 62
     7
100
AcDbLine
 10
-64.0249939
 20
-61.6500015
 30
0.0
 11
-66.5249939
 21
-61.6500015
 31
0.0
  0
LINE
  5
2F
330
1E
100
AcDbEntity
  8
0
 62
     7
100
AcDbLine
 10
-89.52499389999999
 20
-66.1500015
 30
0.0
 11
-66.5249939
 21
-66.1500015
 31
0.0
  0
LINE
  5
30
330
1E
100
AcDbEntity
  8
0
 62
     7
100
AcDbLine
 10
-84.2823532
 20
-79.4500015
 30
0.0
 11
-71.7676346
 21
-79.4500015
 31
0.0
  0
LINE
  5
31
330
1E
100
AcDbEntity
  8
0
 62
     7
100
AcDbLine
 10
-89.52499389999999
 20
-66.1500015
 30
0.0
 11
-89.52499389999999
 21
-74.20736080000001
 31
0.0
  0
LINE
  5
32
330
1E
100
AcDbEntity
  8
0
 62
     7
100
AcDbLine
 10
-66.5249939
 20
-66.1500015
 30
0.0
 11
-66.5249939
 21
-74.20736080000001
 31
0.0
  0
LINE
  5
33
330
1E
100
AcDbEntity
  8
0
 62
     7
100
AcDbLine
 10
-88.6463142
 20
-76.32868120000001
 30
0.0
 11
-86.40367359999999
 21
-78.5713219
 31
0.0
  0
LINE
  5
34
330
1E
100
AcDbEntity
  8
0
 62
     7
100
AcDbLine
 10
-69.6463142
 20
-78.5713219
 30
0.0
 11
-67.40367359999999
 21
-76.32868120000001
 31
0.0
  0
ARC
  5
35
330
1E
100
AcDbEntity
  8
0
 62
     7
100
AcDbCircle
 10
-86.5249939
 20
-74.20736080000001
 30
0.0
 40
3.0
100
AcDbArc
 50
180.0
 51
225.0
  0
ARC
  5
36
330
1E
100
AcDbEntity
  8
0
 62
     7
100
AcDbCircle
 10
-84.2823532
 20
-76.4500015
 30
0.0
 40
3.0
100
AcDbArc
 50
225.0
 51
270.0
  0
ARC
  5
37
330
1E
100
AcDbEntity
  8
0
 62
     7
100
AcDbCircle
 10
-71.7676346
 20
-76.4500015
 30
0.0
 40
3.0
100
AcDbArc
 50
270.0
 51
315.0
  0
ARC
  5
38
330
1E
100
AcDbEntity
  8
0
 62
     7
100
AcDbCircle
 10
-69.52499389999999
 20
-74.20736080000001
 30
0.0
 40
3.0
100
AcDbArc
 50
315.0
 51
0.0
  0
LINE
  5
39
330
1E
100
AcDbEntity
  8
0
 62
     7
100
AcDbLine
 10
-76.5249939
 20
-68.05000150000001
 30
0.0
 11
-66.62323960000001
 21
-68.05000150000001
 31
0.0
  0
LINE
  5
3A
330
1E
100
AcDbEntity
  8
0
 62
     7
100
AcDbLine
 10
-79.52499389999999
 20
-75.45000149999999
 30
0.0
 11
-76.5249939
 21
-75.45000149999999
 31
0.0
  0
LINE
  5
3B
330
1E
100
AcDbEntity
  8
0
 62
     7
100
AcDbLine
 10
-75.1742438
 20
-77.887815
 30
0.0
 11
-75.1742438
 21
-70.38956929999999
 31
0.0
  0
LINE
  5
3C
330
1E
100
AcDbEntity
  8
0
 62
     7
100
AcDbLine
 10
-76.5249939
 20
-75.45000149999999
 30
0.0
 11
-75.1742438
 21
-77.887815
 31
0.0
  0
LINE
  5
3D
330
1E
100
AcDbEntity
  8
0
 62
     7
100
AcDbLine
 10
-66.62323960000001
 20
-68.05000150000001
 30
0.0
 11
-68.9628074
 21
-70.38956929999999
 31
0.0
  0
LINE
  5
3E
330
1E
100
AcDbEntity
  8
0
 62
     7
100
AcDbLine
 10
-69.109254
 20
-77.7413684
 30
0.0
 11
-67.50191929999999
 21
-76.1340337
 31
0.0
  0
ARC
  5
3F
330
1E
100
AcDbEntity
  8
0
 62
     7
100
AcDbCircle
 10
-69.4628074
 20
-77.387815
 30
0.0
 40
0.5
100
AcDbArc
 50
270.0
 51
0.0
  0
LINE
  5
40
330
1E
100
AcDbEntity
  8
0
 62
     7
100
AcDbLine
 10
-68.9628074
 20
-70.38956929999999
 30
0.0
 11
-75.1742438
 21
-70.38956929999999
 31
0.0
  0
LINE
  5
41
330
1E
100
AcDbEntity
  8
0
 62
     7
100
AcDbLine
 10
-68.9628074
 20
-77.387815
 30
0.0
 11
-68.9628074
 21
-70.38956929999999
 31
0.0
  0
LINE
  5
42
330
1E
100
AcDbEntity
  8
0
 62
     7
100
AcDbLine
 10
-76.5249939
 20
-75.45000149999999
 30
0.0
 11
-76.5249939
 21
-68.05000150000001
 31
0.0
  0
LINE
  5
43
330
1E
100
AcDbEntity
  8
0
 62
     7
100
AcDbLine
 10
-75.1742438
 20
-70.38956929999999
 30
0.0
 11
-76.5249939
 21
-68.05000150000001
 31
0.0
  0
LINE
  5
44
330
1E
100
AcDbEntity
  8
0
 62
     7
100
AcDbLine
 10
-69.4628074
 20
-77.887815
 30
0.0
 11
-75.1742438
 21
-77.887815
 31
0.0
  0
ARC
  5
45
330
1E
100
AcDbEntity
  8
0
 62
     7
100
AcDbCircle
 10
-69.62323959999999
 20
-74.0127134
 30
0.0
 40
3.0
100
AcDbArc
 50
315.0
 51
0.0
  0
LINE
  5
46
330
1E
100
AcDbEntity
  8
0
 62
     7
100
AcDbLine
 10
-66.62323960000001
 20
-74.0127134
 30
0.0
 11
-66.62323960000001
 21
-68.05000150000001
 31
0.0
  0
LINE
  5
47
330
1E
100
AcDbEntity
  8
0
 62
     7
100
AcDbLine
 10
-79.52499389999999
 20
-75.45000149999999
 30
0.0
 11
-79.52499389999999
 21
-68.05000150000001
 31
0.0
  0
LINE
  5
48
330
1E
100
AcDbEntity
  8
0
 62
     7
100
AcDbLine
 10
-89.42674809999999
 20
-68.05000150000001
 30
0.0
 11
-79.52499389999999
 21
-68.05000150000001
 31
0.0
  0
LINE
  5
49
330
1E
100
AcDbEntity
  8
0
 62
     7
100
AcDbLine
 10
-80.87574399999999
 20
-77.887815
 30
0.0
 11
-80.87574399999999
 21
-70.38956929999999
 31
0.0
  0
LINE
  5
4A
330
1E
100
AcDbEntity
  8
0
 62
     7
100
AcDbLine
 10
-87.08718039999999
 20
-77.387815
 30
0.0
 11
-87.08718039999999
 21
-70.38956929999999
 31
0.0
  0
LINE
  5
4B
330
1E
100
AcDbEntity
  8
0
 62
     7
100
AcDbLine
 10
-89.42674809999999
 20
-68.05000150000001
 30
0.0
 11
-87.08718039999999
 21
-70.38956929999999
 31
0.0
  0
LINE
  5
4C
330
1E
100
AcDbEntity
  8
0
 62
     7
100
AcDbLine
 10
-80.87574399999999
 20
-70.38956929999999
 30
0.0
 11
-79.52499389999999
 21
-68.05000150000001
 31
0.0
  0
LINE
  5
4D
330
1E
100
AcDbEntity
  8
0
 62
     7
100
AcDbLine
 10
-87.08718039999999
 20
-70.38956929999999
 30
0.0
 11
-80.87574399999999
 21
-70.38956929999999
 31
0.0
  0
LINE
  5
4E
330
1E
100
AcDbEntity
  8
0
 62
     7
100
AcDbLine
 10
-79.52499389999999
 20
-75.45000149999999
 30
0.0
 11
-80.87574399999999
 21
-77.887815
 31
0.0
  0
LINE
  5
4F
330
1E
100
AcDbEntity
  8
0
 62
     7
100
AcDbLine
 10
-86.5871804
 20
-77.887815
 30
0.0
 11
-80.87574399999999
 21
-77.887815
 31
0.0
  0
LINE
  5
50
330
1E
100
AcDbEntity
  8
0
 62
     7
100
AcDbLine
 10
-86.9407338
 20
-77.7413684
 30
0.0
 11
-88.54806850000001
 21
-76.1340337
 31
0.0
  0
ARC
  5
51
330
1E
100
AcDbEntity
  8
0
 62
     7
100
AcDbCircle
 10
-86.5871804
 20
-77.387815
 30
0.0
 40
0.5
100
AcDbArc
 50
180.0
 51
270.0
  0
ARC
  5
52
330
1E
100
AcDbEntity
  8
0
 62
     7
100
AcDbCircle
 10
-86.4267481
 20
-74.0127134
 30
0.0
 40
3.0
100
AcDbArc
 50
180.0
 51
225.0
  0
LINE
  5
53
330
1E
100
AcDbEntity
  8
0
 62
     7
100
AcDbLine
 10
-89.42674809999999
 20
-74.0127134
 30
0.0
 11
-89.42674809999999
 21
-68.05000150000001
 31
0.0
  0
LINE
  5
54
330
1E
100
AcDbEntity
  8
0
 62
     7
100
AcDbLine
 10
-78.0249939
 20
-63.1500015
 30
0.0
 11
-74.52499389999999
 21
-62.8437912
 31
0.0
  0
LINE
  5
55
330
1E
100
AcDbEntity
  8
0
 62
     7
100
AcDbLine
 10
-83.3249939
 20
-63.1500015
 30
0.0
 11
-74.4249939
 21
-63.1500015
 31
0.0
  0
LINE
  5
56
330
1E
100
AcDbEntity
  8
0
 62
     7
100
AcDbLine
 10
-92.02499389999999
 20
-61.6500015
 30
0.0
 11
-89.52499389999999
 21
-61.6500015
 31
0.0
  0
LINE
  5
57
330
1E
100
AcDbEntity
  8
0
  6
PHANTOM
 62
     6
100
AcDbLine
 10
-100.024994
 20
-53.1500015
 30
0.0
 11
-100.024994
 21
-58.1500015
 31
0.0
  0
LINE
  5
58
330
1E
100
AcDbEntity
  8
0
  6
PHANTOM
 62
     6
100
AcDbLine
 10
-56.0249939
 20
-53.1500015
 30
0.0
 11
-56.0249939
 21
-58.1500015
 31
0.0
  0
LINE
  5
59
330
1E
100
AcDbEntity
  8
0
  6
PHANTOM
 62
     6
100
AcDbLine
 10
-63.0249939
 20
-42.1500015
 30
0.0
 11
-56.0249939
 21
-42.1500015
 31
0.0
  0
LINE
  5
5A
330
1E
100
AcDbEntity
  8
0
  6
PHANTOM
 62
     6
100
AcDbLine
 10
-63.0249939
 20
-58.1500015
 30
0.0
 11
-56.0249939
 21
-58.1500015
 31
0.0
  0
LINE
  5
5B
330
1E
100
AcDbEntity
  8
0
  6
PHANTOM
 62
     6
100
AcDbLine
 10
-63.0249939
 20
-44.7472245
 30
0.0
 11
-56.0249939
 21
-44.7472245
 31
0.0
  0
LINE
  5
5C
330
1E
100
AcDbEntity
  8
0
  6
PHANTOM
 62
     6
100
AcDbLine
 10
-63.0249939
 20
-46.0530355
 30
0.0
 11
-56.0249939
 21
-46.0530355
 31
0.0
  0
LINE
  5
5D
330
1E
100
AcDbEntity
  8
0
  6
PHANTOM
 62
     6
100
AcDbLine
 10
-63.0249939
 20
-55.5527785
 30
0.0
 11
-56.0249939
 21
-55.5527785
 31
0.0
  0
LINE
  5
5E
330
1E
100
AcDbEntity
  8
0
  6
PHANTOM
 62
     6
100
AcDbLine
 10
-63.0249939
 20
-54.2469675
 30
0.0
 11
-56.0249939
 21
-54.2469675
 31
0.0
  0
LINE
  5
5F
330
1E
100
AcDbEntity
  8
0
  6
PHANTOM
 62
     6
100
AcDbLine
 10
-100.024994
 20
-55.5527785
 30
0.0
 11
-93.02499389999999
 21
-55.5527785
 31
0.0
  0
LINE
  5
60
330
1E
100
AcDbEntity
  8
0
  6
PHANTOM
 62
     6
100
AcDbLine
 10
-100.024994
 20
-44.7472245
 30
0.0
 11
-93.02499389999999
 21
-44.7472245
 31
0.0
  0
LINE
  5
61
330
1E
100
AcDbEntity
  8
0
  6
PHANTOM
 62
     6
100
AcDbLine
 10
-100.024994
 20
-54.2469675
 30
0.0
 11
-93.02499389999999
 21
-54.2469675
 31
0.0
  0
LINE
  5
62
330
1E
100
AcDbEntity
  8
0
  6
PHANTOM
 62
     6
100
AcDbLine
 10
-100.024994
 20
-46.0530355
 30
0.0
 11
-93.02499389999999
 21
-46.0530355
 31
0.0
  0
LINE
  5
63
330
1E
100
AcDbEntity
  8
0
  6
PHANTOM
 62
     6
100
AcDbLine
 10
-63.0249939
 20
-53.1500015
 30
0.0
 11
-56.0249939
 21
-53.1500015
 31
0.0
  0
LINE
  5
64
330
1E
100
AcDbEntity
  8
0
  6
PHANTOM
 62
     6
100
AcDbLine
 10
-63.0249939
 20
-47.1500015
 30
0.0
 11
-56.0249939
 21
-47.1500015
 31
0.0
  0
LINE
  5
65
330
1E
100
AcDbEntity
  8
0
  6
PHANTOM
 62
     6
100
AcDbLine
 10
-100.024994
 20
-53.1500015
 30
0.0
 11
-93.02499389999999
 21
-53.1500015
 31
0.0
  0
LINE
  5
66
330
1E
100
AcDbEntity
  8
0
  6
PHANTOM
 62
     6
100
AcDbLine
 10
-100.024994
 20
-47.1500015
 30
0.0
 11
-93.02499389999999
 21
-47.1500015
 31
0.0
  0
LINE
  5
67
330
1E
100
AcDbEntity
  8
0
  6
PHANTOM
 62
     6
100
AcDbLine
 10
-56.0249939
 20
-42.1500015
 30
0.0
 11
-56.0249939
 21
-47.1500015
 31
0.0
  0
LINE
  5
68
330
1E
100
AcDbEntity
  8
0
  6
PHANTOM
 62
     6
100
AcDbLine
 10
-100.024994
 20
-42.1500015
 30
0.0
 11
-100.024994
 21
-47.1500015
 31
0.0
  0
LINE
  5
69
330
1E
100
AcDbEntity
  8
0
  6
PHANTOM
 62
     6
100
AcDbLine
 10
-100.024994
 20
-58.1500015
 30
0.0
 11
-93.02499389999999
 21
-58.1500015
 31
0.0
  0
LINE
  5
6A
330
1E
100
AcDbEntity
  8
0
  6
PHANTOM
 62
     6
100
AcDbLine
 10
-100.024994
 20
-42.1500015
 30
0.0
 11
-93.02499389999999
 21
-42.1500015
 31
0.0
  0
ARC
  5
6B
330
1E
100
AcDbEntity
  8
0
 62
     7
100
AcDbCircle
 10
-102.224994
 20
-45.45000149999999
 30
0.0
 40
0.2
100
AcDbArc
 50
90.00000020000001
 51
180.0
  0
ARC
  5
6C
330
1E
100
AcDbEntity
  8
0
 62
     7
100
AcDbCircle
 10
-102.224994
 20
-54.85000150000001
 30
0.0
 40
0.2
100
AcDbArc
 50
180.0
 51
270.0
  0
LINE
  5
6D
330
1E
100
AcDbEntity
  8
0
  6
DASHED
 62
     2
100
AcDbLine
 10
-102.424994
 20
-47.1500015
 30
0.0
 11
-99.3249939
 21
-47.1500015
 31
0.0
  0
LINE
  5
6E
330
1E
100
AcDbEntity
  8
0
  6
DASHED
 62
     2
100
AcDbLine
 10
-102.424994
 20
-53.1500015
 30
0.0
 11
-99.3249939
 21
-53.1500015
 31
0.0
  0
LINE
  5
6F
330
1E
100
AcDbEntity
  8
0
 62
     7
100
AcDbLine
 10
-100.3249939999999
 20
-45.6000015
 30
0.0
 11
-99.63217359999999
 21
-45.2000015
 31
0.0
  0
LINE
  5
70
330
1E
100
AcDbEntity
  8
0
 62
     7
100
AcDbLine
 10
-100.3249939999999
 20
-54.7000015
 30
0.0
 11
-99.63217359999999
 21
-55.1000015
 31
0.0
  0
LINE
  5
71
330
1E
100
AcDbEntity
  8
0
 62
     7
100
AcDbLine
 10
-102.424994
 20
-54.85000150000001
 30
0.0
 11
-102.424994
 21
-45.45000149999999
 31
0.0
  0
LINE
  5
72
330
1E
100
AcDbEntity
  8
0
 62
     7
100
AcDbLine
 10
-99.63217359999999
 20
-45.2000015
 30
0.0
 11
-93.02499389999999
 21
-45.2000015
 31
0.0
  0
LINE
  5
73
330
1E
100
AcDbEntity
  8
0
 62
     7
100
AcDbLine
 10
-102.224994
 20
-45.2500015
 30
0.0
 11
-101.424994
 21
-45.2500015
 31
0.0
  0
LINE
  5
74
330
1E
100
AcDbEntity
  8
0
 62
     7
100
AcDbLine
 10
-101.424994
 20
-45.2500015
 30
0.0
 11
-100.9249939999999
 21
-46.11602689999999
 31
0.0
  0
LINE
  5
75
330
1E
100
AcDbEntity
  8
0
 62
     7
100
AcDbLine
 10
-100.9249939999999
 20
-46.6500015
 30
0.0
 11
-100.3249939999999
 21
-46.6500015
 31
0.0
  0
LINE
  5
76
330
1E
100
AcDbEntity
  8
0
 62
     7
100
AcDbLine
 10
-101.424994
 20
-45.2500015
 30
0.0
 11
-101.424994
 21
-55.0500015
 31
0.0
  0
LINE
  5
77
330
1E
100
AcDbEntity
  8
0
 62
     7
100
AcDbLine
 10
-100.9249939999999
 20
-46.11602689999999
 30
0.0
 11
-100.9249939999999
 21
-54.1839761
 31
0.0
  0
LINE
  5
78
330
1E
100
AcDbEntity
  8
0
 62
     7
100
AcDbLine
 10
-100.3249939999999
 20
-45.6000015
 30
0.0
 11
-100.3249939999999
 21
-54.7000015
 31
0.0
  0
LINE
  5
79
330
1E
100
AcDbEntity
  8
0
 62
     7
100
AcDbLine
 10
-100.9249939999999
 20
-53.6500015
 30
0.0
 11
-100.3249939999999
 21
-53.6500015
 31
0.0
  0
LINE
  5
7A
330
1E
100
AcDbEntity
  8
0
 62
     7
100
AcDbLine
 10
-101.424994
 20
-55.0500015
 30
0.0
 11
-100.9249939999999
 21
-54.1839761
 31
0.0
  0
LINE
  5
7B
330
1E
100
AcDbEntity
  8
0
 62
     7
100
AcDbLine
 10
-102.224994
 20
-55.0500015
 30
0.0
 11
-101.424994
 21
-55.0500015
 31
0.0
  0
LINE
  5
7C
330
1E
100
AcDbEntity
  8
0
 62
     7
100
AcDbLine
 10
-99.63217359999999
 20
-55.1000015
 30
0.0
 11
-93.02499389999999
 21
-55.1000015
 31
0.0
  0
LINE
  5
7D
330
1E
100
AcDbEntity
  8
0
 62
     7
100
AcDbLine
 10
-56.4178142
 20
-55.1000015
 30
0.0
 11
-63.0249939
 21
-55.1000015
 31
0.0
  0
LINE
  5
7E
330
1E
100
AcDbEntity
  8
0
 62
     7
100
AcDbLine
 10
-53.8249939
 20
-55.0500015
 30
0.0
 11
-54.6249939
 21
-55.0500015
 31
0.0
  0
LINE
  5
7F
330
1E
100
AcDbEntity
  8
0
 62
     7
100
AcDbLine
 10
-54.6249939
 20
-55.0500015
 30
0.0
 11
-55.1249939
 21
-54.1839761
 31
0.0
  0
LINE
  5
80
330
1E
100
AcDbEntity
  8
0
 62
     7
100
AcDbLine
 10
-55.1249939
 20
-53.6500015
 30
0.0
 11
-55.7249939
 21
-53.6500015
 31
0.0
  0
LINE
  5
81
330
1E
100
AcDbEntity
  8
0
 62
     7
100
AcDbLine
 10
-55.7249939
 20
-45.6000015
 30
0.0
 11
-55.7249939
 21
-54.7000015
 31
0.0
  0
LINE
  5
82
330
1E
100
AcDbEntity
  8
0
 62
     7
100
AcDbLine
 10
-55.1249939
 20
-46.11602689999999
 30
0.0
 11
-55.1249939
 21
-54.1839761
 31
0.0
  0
LINE
  5
83
330
1E
100
AcDbEntity
  8
0
 62
     7
100
AcDbLine
 10
-54.6249939
 20
-45.2500015
 30
0.0
 11
-54.6249939
 21
-55.0500015
 31
0.0
  0
LINE
  5
84
330
1E
100
AcDbEntity
  8
0
 62
     7
100
AcDbLine
 10
-55.1249939
 20
-46.6500015
 30
0.0
 11
-55.7249939
 21
-46.6500015
 31
0.0
  0
LINE
  5
85
330
1E
100
AcDbEntity
  8
0
 62
     7
100
AcDbLine
 10
-54.6249939
 20
-45.2500015
 30
0.0
 11
-55.1249939
 21
-46.11602689999999
 31
0.0
  0
LINE
  5
86
330
1E
100
AcDbEntity
  8
0
 62
     7
100
AcDbLine
 10
-53.8249939
 20
-45.2500015
 30
0.0
 11
-54.6249939
 21
-45.2500015
 31
0.0
  0
LINE
  5
87
330
1E
100
AcDbEntity
  8
0
 62
     7
100
AcDbLine
 10
-56.4178142
 20
-45.2000015
 30
0.0
 11
-63.0249939
 21
-45.2000015
 31
0.0
  0
LINE
  5
88
330
1E
100
AcDbEntity
  8
0
 62
     7
100
AcDbLine
 10
-53.62499389999999
 20
-54.85000150000001
 30
0.0
 11
-53.62499389999999
 21
-45.45000149999999
 31
0.0
  0
LINE
  5
89
330
1E
100
AcDbEntity
  8
0
 62
     7
100
AcDbLine
 10
-55.7249939
 20
-54.7000015
 30
0.0
 11
-56.4178142
 21
-55.1000015
 31
0.0
  0
LINE
  5
8A
330
1E
100
AcDbEntity
  8
0
 62
     7
100
AcDbLine
 10
-55.7249939
 20
-45.6000015
 30
0.0
 11
-56.4178142
 21
-45.2000015
 31
0.0
  0
LINE
  5
8B
330
1E
100
AcDbEntity
  8
0
  6
DASHED
 62
     2
100
AcDbLine
 10
-53.62499389999999
 20
-53.1500015
 30
0.0
 11
-56.7249939
 21
-53.1500015
 31
0.0
  0
LINE
  5
8C
330
1E
100
AcDbEntity
  8
0
  6
DASHED
 62
     2
100
AcDbLine
 10
-53.62499389999999
 20
-47.1500015
 30
0.0
 11
-56.7249939
 21
-47.1500015
 31
0.0
  0
ARC
  5
8D
330
1E
100
AcDbEntity
  8
0
 62
     7
100
AcDbCircle
 10
-53.8249939
 20
-54.85000150000001
 30
0.0
 40
0.2
100
AcDbArc
 50
270.0
 51
0.0
  0
ARC
  5
8E
330
1E
100
AcDbEntity
  8
0
 62
     7
100
AcDbCircle
 10
-53.8249939
 20
-45.45000149999999
 30
0.0
 40
0.2
100
AcDbArc
 50
0.0
 51
90.00000020000001
  0
LINE
  5
8F
330
1E
100
AcDbEntity
  8
0
 62
     7
100
AcDbLine
 10
-86.0249939
 20
-25.1500015
 30
0.0
 11
-70.0249939
 21
-25.1500015
 31
0.0
  0
LINE
  5
90
330
1E
100
AcDbEntity
  8
0
 62
     7
100
AcDbLine
 10
-84.27499389999999
 20
-25.1500015
 30
0.0
 11
-84.27499389999999
 21
-22.4500015
 31
0.0
  0
LINE
  5
91
330
1E
100
AcDbEntity
  8
0
 62
     7
100
AcDbLine
 10
-71.7749939
 20
-25.1500015
 30
0.0
 11
-71.7749939
 21
-22.4500015
 31
0.0
  0
LINE
  5
92
330
1E
100
AcDbEntity
  8
0
 62
     7
100
AcDbLine
 10
-69.9749939
 20
-22.4500015
 30
0.0
 11
-86.07499389999999
 21
-22.4500015
 31
0.0
  0
LINE
  5
93
330
1E
100
AcDbEntity
  8
0
 62
     7
100
AcDbLine
 10
-69.7749939
 20
-22.2500015
 30
0.0
 11
-69.9749939
 21
-22.4500015
 31
0.0
  0
LINE
  5
94
330
1E
100
AcDbEntity
  8
0
 62
     7
100
AcDbLine
 10
-84.7581665
 20
-7.450001529999999
 30
0.0
 11
-71.3286372
 21
-7.450001529999999
 31
0.0
  0
LINE
  5
95
330
1E
100
AcDbEntity
  8
0
 62
     7
100
AcDbLine
 10
-86.2749939
 20
-22.2500015
 30
0.0
 11
-86.07499389999999
 21
-22.4500015
 31
0.0
  0
LINE
  5
96
330
1E
100
AcDbEntity
  8
0
 62
     7
100
AcDbLine
 10
-86.2749939
 20
-22.2500015
 30
0.0
 11
-85.79435090000002
 21
-8.48618588
 31
0.0
  0
LINE
  5
97
330
1E
100
AcDbEntity
  8
0
 62
     7
100
AcDbLine
 10
-69.7749939
 20
-22.2500015
 30
0.0
 11
-70.2569218
 21
-8.44939235
 31
0.0
  0
LINE
  5
98
330
1E
100
AcDbEntity
  8
0
 62
     7
100
AcDbLine
 10
-70.2569218
 20
-8.44939235
 30
0.0
 11
-71.3286372
 21
-7.450001529999999
 31
0.0
  0
LINE
  5
99
330
1E
100
AcDbEntity
  8
0
 62
     7
100
AcDbLine
 10
-84.7581665
 20
-7.450001529999999
 30
0.0
 11
-85.79435090000002
 21
-8.48618588
 31
0.0
  0
ARC
  5
9A
330
1E
100
AcDbEntity
  8
0
 62
     7
100
AcDbCircle
 10
-66.0249939
 20
-38.1500015
 30
0.0
 40
0.5
100
AcDbArc
 50
180.0
 51
270.0
  0
ARC
  5
9B
330
1E
100
AcDbEntity
  8
0
 62
     7
100
AcDbCircle
 10
-90.0249939
 20
-38.1500015
 30
0.0
 40
0.5
100
AcDbArc
 50
270.0
 51
0.0
  0
ARC
  5
9C
330
1E
100
AcDbEntity
  8
0
 62
     7
100
AcDbCircle
 10
-64.0249939
 20
-39.6500015
 30
0.0
 40
1.0
100
AcDbArc
 50
0.0
 51
90.00000020000001
  0
ARC
  5
9D
330
1E
100
AcDbEntity
  8
0
 62
     7
100
AcDbCircle
 10
-92.02499389999999
 20
-39.6500015
 30
0.0
 40
1.0
100
AcDbArc
 50
90.00000020000001
 51
180.0
  0
LINE
  5
9E
330
1E
100
AcDbEntity
  8
0
 62
     7
100
AcDbLine
 10
-64.0249939
 20
-38.6500015
 30
0.0
 11
-66.0249939
 21
-38.6500015
 31
0.0
  0
LINE
  5
9F
330
1E
100
AcDbEntity
  8
0
 62
     7
100
AcDbLine
 10
-92.02499389999999
 20
-38.6500015
 30
0.0
 11
-90.0249939
 21
-38.6500015
 31
0.0
  0
LINE
  5
A0
330
1E
100
AcDbEntity
  8
0
 62
     7
100
AcDbLine
 10
-91.6249939
 20
-40.35000150000001
 30
0.0
 11
-88.4249939
 21
-40.35000150000001
 31
0.0
  0
LINE
  5
A1
330
1E
100
AcDbEntity
  8
0
 62
     7
100
AcDbLine
 10
-64.4249939
 20
-40.35000150000001
 30
0.0
 11
-67.62499390000001
 21
-40.35000150000001
 31
0.0
  0
LINE
  5
A2
330
1E
100
AcDbEntity
  8
0
 62
     7
100
AcDbLine
 10
-89.52499389999999
 20
-34.1500015
 30
0.0
 11
-66.5249939
 21
-34.1500015
 31
0.0
  0
ARC
  5
A3
330
1E
100
AcDbEntity
  8
0
 62
     7
100
AcDbCircle
 10
-88.5249939
 20
-33.6500015
 30
0.0
 40
1.0
100
AcDbArc
 50
90.00000020000001
 51
180.0
  0
LINE
  5
A4
330
1E
100
AcDbEntity
  8
0
 62
     7
100
AcDbLine
 10
-88.5249939
 20
-32.6500015
 30
0.0
 11
-67.5249939
 21
-32.6500015
 31
0.0
  0
ARC
  5
A5
330
1E
100
AcDbEntity
  8
0
 62
     7
100
AcDbCircle
 10
-67.5249939
 20
-33.6500015
 30
0.0
 40
1.0
100
AcDbArc
 50
0.0
 51
90.00000020000001
  0
LINE
  5
A6
330
1E
100
AcDbEntity
  8
0
  6
CENTER
 62
     2
100
AcDbLine
 10
-104.08063
 20
-50.1500015
 30
0.0
 11
-51.94174249999999
 21
-50.1500015
 31
0.0
  0
LINE
  5
A7
330
1E
100
AcDbEntity
  8
0
 62
     7
100
AcDbLine
 10
-89.52499389999999
 20
-38.1500015
 30
0.0
 11
-89.52499389999999
 21
-34.1500015
 31
0.0
  0
LINE
  5
A8
330
1E
100
AcDbEntity
  8
0
 62
     7
100
AcDbLine
 10
-93.02499389999999
 20
-60.6500015
 30
0.0
 11
-93.02499389999999
 21
-39.6500015
 31
0.0
  0
LINE
  5
A9
330
1E
100
AcDbEntity
  8
0
 62
     7
100
AcDbLine
 10
-63.0249939
 20
-60.6500015
 30
0.0
 11
-63.0249939
 21
-39.6500015
 31
0.0
  0
LINE
  5
AA
330
1E
100
AcDbEntity
  8
0
 62
     7
100
AcDbLine
 10
-66.5249939
 20
-38.1500015
 30
0.0
 11
-66.5249939
 21
-34.1500015
 31
0.0
  0
ARC
  5
AB
330
1E
100
AcDbEntity
  8
0
 62
     7
100
AcDbCircle
 10
-90.0249939
 20
-41.9500015
 30
0.0
 40
1.6
100
AcDbArc
 50
180.0
 51
0.0
  0
LINE
  5
AC
330
1E
100
AcDbEntity
  8
0
 62
     7
100
AcDbLine
 10
-91.6249939
 20
-41.9500015
 30
0.0
 11
-91.6249939
 21
-40.35000150000001
 31
0.0
  0
LINE
  5
AD
330
1E
100
AcDbEntity
  8
0
 62
     7
100
AcDbLine
 10
-88.4249939
 20
-41.9500015
 30
0.0
 11
-88.4249939
 21
-40.35000150000001
 31
0.0
  0
LINE
  5
AE
330
1E
100
AcDbEntity
  8
0
  6
CENTER
 62
     2
100
AcDbLine
 10
-92.5107902
 20
-41.9500015
 30
0.0
 11
-87.50742719999999
 21
-41.9500015
 31
0.0
  0
LINE
  5
AF
330
1E
100
AcDbEntity
  8
0
  6
CENTER
 62
     2
100
AcDbLine
 10
-90.0249939
 20
-44.43525939999999
 30
0.0
 11
-90.0249939
 21
-39.6382206
 31
0.0
  0
LINE
  5
B0
330
1E
100
AcDbEntity
  8
0
 62
     7
100
AcDbLine
 10
-64.4249939
 20
-41.9500015
 30
0.0
 11
-64.4249939
 21
-40.35000150000001
 31
0.0
  0
LINE
  5
B1
330
1E
100
AcDbEntity
  8
0
  6
CENTER
 62
     2
100
AcDbLine
 10
-63.6391976
 20
-41.9500015
 30
0.0
 11
-68.64256059999999
 21
-41.9500015
 31
0.0
  0
LINE
  5
B2
330
1E
100
AcDbEntity
  8
0
  6
CENTER
 62
     2
100
AcDbLine
 10
-66.0249939
 20
-44.43525939999999
 30
0.0
 11
-66.0249939
 21
-39.6382206
 31
0.0
  0
LINE
  5
B3
330
1E
100
AcDbEntity
  8
0
 62
     7
100
AcDbLine
 10
-67.62499390000001
 20
-41.9500015
 30
0.0
 11
-67.62499390000001
 21
-40.35000150000001
 31
0.0
  0
ARC
  5
B4
330
1E
100
AcDbEntity
  8
0
 62
     7
100
AcDbCircle
 10
-66.0249939
 20
-41.9500015
 30
0.0
 40
1.6
100
AcDbArc
 50
180.0
 51
0.0
  0
LINE
  5
B5
330
1E
100
AcDbEntity
  8
0
 62
     7
100
AcDbLine
 10
-86.0249939
 20
-25.6500015
 30
0.0
 11
-70.0249939
 21
-25.6500015
 31
0.0
  0
LINE
  5
B6
330
1E
100
AcDbEntity
  8
0
 62
     7
100
AcDbLine
 10
-86.0249939
 20
-32.1500015
 30
0.0
 11
-70.0249939
 21
-32.1500015
 31
0.0
  0
LINE
  5
B7
330
1E
100
AcDbEntity
  8
0
 62
     7
100
AcDbLine
 10
-66.5249939
 20
-34.1500015
 30
0.0
 11
-66.5249939
 21
-33.6500015
 31
0.0
  0
LINE
  5
B8
330
1E
100
AcDbEntity
  8
0
 62
     7
100
AcDbLine
 10
-89.52499389999999
 20
-34.1500015
 30
0.0
 11
-89.52499389999999
 21
-33.6500015
 31
0.0
  0
LINE
  5
B9
330
1E
100
AcDbEntity
  8
0
  6
PHANTOM
 62
     6
100
AcDbLine
 10
-90.0249939
 20
-29.9500015
 30
0.0
 11
-90.0249939
 21
-25.9500015
 31
0.0
  0
LINE
  5
BA
330
1E
100
AcDbEntity
  8
0
  6
PHANTOM
 62
     6
100
AcDbLine
 10
-90.0249939
 20
-25.9500015
 30
0.0
 11
-66.0249939
 21
-25.9500015
 31
0.0
  0
ARC
  5
BB
330
1E
100
AcDbEntity
  8
0
  6
PHANTOM
 62
     6
100
AcDbCircle
 10
-86.5102753
 20
-37.055842
 30
0.0
 40
11.1058404
100
AcDbArc
 50
71.55013120000001
 51
108.4498689999999
  0
ARC
  5
BC
330
1E
100
AcDbEntity
  8
0
  6
PHANTOM
 62
     6
100
AcDbCircle
 10
-86.5102753
 20
-18.8441611
 30
0.0
 40
11.1058404
100
AcDbArc
 50
251.550131
 51
288.449869
  0
LINE
  5
BD
330
1E
100
AcDbEntity
  8
0
  6
PHANTOM
 62
     6
100
AcDbLine
 10
-90.0249939
 20
-29.9500015
 30
0.0
 11
-66.0249939
 21
-29.9500015
 31
0.0
  0
LINE
  5
BE
330
1E
100
AcDbEntity
  8
0
  6
PHANTOM
 62
     6
100
AcDbLine
 10
-82.99555670000001
 20
-29.3791715
 30
0.0
 11
-82.99555670000001
 21
-26.5208315
 31
0.0
  0
ARC
  5
BF
330
1E
100
AcDbEntity
  8
0
  6
PHANTOM
 62
     6
100
AcDbCircle
 10
-78.0249939
 20
-47.87626760000001
 30
0.0
 40
21.9262661
100
AcDbArc
 50
76.8974621
 51
103.1025379999999
  0
ARC
  5
C0
330
1E
100
AcDbEntity
  8
0
  6
PHANTOM
 62
     6
100
AcDbCircle
 10
-78.0249939
 20
-8.023735459999999
 30
0.0
 40
21.9262661
100
AcDbArc
 50
256.897462
 51
283.1025369999999
  0
LINE
  5
C1
330
1E
100
AcDbEntity
  8
0
  6
PHANTOM
 62
     6
100
AcDbLine
 10
-73.05443120000001
 20
-29.3791715
 30
0.0
 11
-73.05443120000001
 21
-26.5208315
 31
0.0
  0
ARC
  5
C2
330
1E
100
AcDbEntity
  8
0
  6
PHANTOM
 62
     6
100
AcDbCircle
 10
-69.53971249999999
 20
-37.0558422
 30
0.0
 40
11.1058406
100
AcDbArc
 50
71.55013120000001
 51
108.4498689999999
  0
ARC
  5
C3
330
1E
100
AcDbEntity
  8
0
  6
PHANTOM
 62
     6
100
AcDbCircle
 10
-69.53971249999999
 20
-18.8441609
 30
0.0
 40
11.1058406
100
AcDbArc
 50
251.550131
 51
288.449869
  0
LINE
  5
C4
330
1E
100
AcDbEntity
  8
0
  6
PHANTOM
 62
     6
100
AcDbLine
 10
-66.0249939
 20
-29.9500015
 30
0.0
 11
-66.0249939
 21
-25.9500015
 31
0.0
  0
LINE
  5
C5
330
1E
100
AcDbEntity
  8
0
 62
     7
100
AcDbLine
 10
-81.5249939
 20
-60.1500015
 30
0.0
 11
-74.52499389999999
 21
-60.1500015
 31
0.0
  0
LINE
  5
C6
330
1E
100
AcDbEntity
  8
0
 62
     7
100
AcDbLine
 10
-83.3249939
 20
-59.7500015
 30
0.0
 11
-74.4249939
 21
-59.7500015
 31
0.0
  0
LINE
  5
C7
330
1E
100
AcDbEntity
  8
0
 62
     7
100
AcDbLine
 10
-78.0249939
 20
-37.1500015
 30
0.0
 11
-81.5249939
 21
-37.4562118
 31
0.0
  0
LINE
  5
C8
330
1E
100
AcDbEntity
  8
0
 62
     7
100
AcDbLine
 10
-74.52499389999999
 20
-40.1500015
 30
0.0
 11
-74.52499389999999
 21
-37.1500015
 31
0.0
  0
LINE
  5
C9
330
1E
100
AcDbEntity
  8
0
 62
     7
100
AcDbLine
 10
-81.5249939
 20
-40.1500015
 30
0.0
 11
-81.5249939
 21
-37.4562118
 31
0.0
  0
LINE
  5
CA
330
1E
100
AcDbEntity
  8
0
 62
     7
100
AcDbLine
 10
-81.6249939
 20
-40.5500015
 30
0.0
 11
-81.6249939
 21
-37.1500015
 31
0.0
  0
LINE
  5
CB
330
1E
100
AcDbEntity
  8
0
 62
     7
100
AcDbLine
 10
-72.7249939
 20
-40.5500015
 30
0.0
 11
-72.7249939
 21
-37.1500015
 31
0.0
  0
LINE
  5
CC
330
1E
100
AcDbEntity
  8
0
 62
     7
100
AcDbLine
 10
-81.6249939
 20
-37.1500015
 30
0.0
 11
-72.7249939
 21
-37.1500015
 31
0.0
  0
LINE
  5
CD
330
1E
100
AcDbEntity
  8
0
 62
     7
100
AcDbLine
 10
-81.5249939
 20
-40.1500015
 30
0.0
 11
-74.52499389999999
 21
-40.1500015
 31
0.0
  0
LINE
  5
CE
330
1E
100
AcDbEntity
  8
0
 62
     7
100
AcDbLine
 10
-72.7249939
 20
-40.5500015
 30
0.0
 11
-81.6249939
 21
-40.5500015
 31
0.0
  0
CIRCLE
  5
CF
330
1E
100
AcDbEntity
  8
0
 62
     2
100
AcDbCircle
 10
-78.0249939
 20
-50.1500015
 30
0.0
 40
4.86399937
  0
CIRCLE
  5
D0
330
1E
100
AcDbEntity
  8
0
 62
     7
100
AcDbCircle
 10
-78.0249939
 20
-50.1500015
 30
0.0
 40
4.27799988
  0
CIRCLE
  5
D1
330
1E
100
AcDbEntity
  8
0
 62
     7
100
AcDbCircle
 10
-78.0249939
 20
-50.1500015
 30
0.0
 40
3.0
  0
LINE
  5
D2
330
1E
100
AcDbEntity
  8
0
 62
     7
100
AcDbLine
 10
-79.22499379999999
 20
-20.9500015
 30
0.0
 11
-79.22499379999999
 21
-7.60395831
 31
0.0
  0
LINE
  5
D3
330
1E
100
AcDbEntity
  8
0
 62
     7
100
AcDbLine
 10
-76.8249938
 20
-20.9500015
 30
0.0
 11
-76.8249938
 21
-7.60395831
 31
0.0
  0
LINE
  5
D4
330
1E
100
AcDbEntity
  8
0
 62
     7
100
AcDbLine
 10
-79.22499379999999
 20
-7.60395834
 30
0.0
 11
-76.8249938
 21
-7.60395834
 31
0.0
  0
LINE
  5
D5
330
1E
100
AcDbEntity
  8
0
 62
     7
100
AcDbLine
 10
-83.8228048
 20
-8.48618588
 30
0.0
 11
-79.650368
 21
-8.48618588
 31
0.0
  0
LINE
  5
D6
330
1E
100
AcDbEntity
  8
0
 62
     7
100
AcDbLine
 10
-79.22499379999999
 20
-7.60395834
 30
0.0
 11
-79.650368
 21
-8.48618588
 31
0.0
  0
LINE
  5
D7
330
1E
100
AcDbEntity
  8
0
 62
     7
100
AcDbLine
 10
-79.87082359999999
 20
-21.7542793
 30
0.0
 11
-76.17916409999999
 21
-21.7542793
 31
0.0
  0
LINE
  5
D8
330
1E
100
AcDbEntity
  8
0
 62
     7
100
AcDbLine
 10
-79.650368
 20
-8.48618588
 30
0.0
 11
-79.87082359999999
 21
-21.7542793
 31
0.0
  0
LINE
  5
D9
330
1E
100
AcDbEntity
  8
0
 62
     7
100
AcDbLine
 10
-76.8249938
 20
-7.60395831
 30
0.0
 11
-76.3996197
 21
-8.48618588
 31
0.0
  0
LINE
  5
DA
330
1E
100
AcDbEntity
  8
0
 62
     7
100
AcDbLine
 10
-76.3996197
 20
-8.48618588
 30
0.0
 11
-76.17916409999999
 21
-21.7542793
 31
0.0
  0
LINE
  5
DB
330
1E
100
AcDbEntity
  8
0
 62
     7
100
AcDbLine
 10
-79.22499379999999
 20
-20.9500015
 30
0.0
 11
-76.8249938
 21
-20.9500015
 31
0.0
  0
LINE
  5
DC
330
1E
100
AcDbEntity
  8
0
 62
     7
100
AcDbLine
 10
-84.59743059999999
 20
-7.60395834
 30
0.0
 11
-83.39743059999999
 21
-7.60395834
 31
0.0
  0
LINE
  5
DD
330
1E
100
AcDbEntity
  8
0
 62
     7
100
AcDbLine
 10
-84.59743059999999
 20
-7.60395834
 30
0.0
 11
-85.44817890000002
 21
-8.48618588
 31
0.0
  0
LINE
  5
DE
330
1E
100
AcDbEntity
  8
0
 62
     7
100
AcDbLine
 10
-83.39743059999999
 20
-7.60395834
 30
0.0
 11
-83.82280470000001
 21
-8.48618588
 31
0.0
  0
LINE
  5
DF
330
1E
100
AcDbEntity
  8
0
 62
     7
100
AcDbLine
 10
-85.8890901
 20
-21.7542793
 30
0.0
 11
-84.0432603
 21
-21.7542793
 31
0.0
  0
LINE
  5
E0
330
1E
100
AcDbEntity
  8
0
 62
     7
100
AcDbLine
 10
-84.9661339
 20
-20.9500015
 30
0.0
 11
-84.0298969
 21
-20.9500015
 31
0.0
  0
LINE
  5
E1
330
1E
100
AcDbEntity
  8
0
 62
     7
100
AcDbLine
 10
-83.82280470000001
 20
-8.48618588
 30
0.0
 11
-84.0432603
 21
-21.7542793
 31
0.0
  0
LINE
  5
E2
330
1E
100
AcDbEntity
  8
0
 62
     7
100
AcDbLine
 10
-85.44817890000002
 20
-8.48618588
 30
0.0
 11
-85.8890901
 21
-21.7542793
 31
0.0
  0
LINE
  5
E3
330
1E
100
AcDbEntity
  8
0
 62
     7
100
AcDbLine
 10
-84.59743059999999
 20
-7.60395834
 30
0.0
 11
-84.9661339
 21
-20.9500015
 31
0.0
  0
LINE
  5
E4
330
1E
100
AcDbEntity
  8
0
 62
     7
100
AcDbLine
 10
-85.79435090000002
 20
-8.48618588
 30
0.0
 11
-85.44817890000002
 21
-8.48618588
 31
0.0
  0
LINE
  5
E5
330
1E
100
AcDbEntity
  8
0
 62
     7
100
AcDbLine
 10
-72.227183
 20
-8.48618588
 30
0.0
 11
-76.39961979999999
 21
-8.48618588
 31
0.0
  0
LINE
  5
E6
330
1E
100
AcDbEntity
  8
0
 62
     7
100
AcDbLine
 10
-71.4525572
 20
-7.60395834
 30
0.0
 11
-70.60180890000001
 21
-8.48618588
 31
0.0
  0
LINE
  5
E7
330
1E
100
AcDbEntity
  8
0
 62
     7
100
AcDbLine
 10
-72.6525572
 20
-7.60395834
 30
0.0
 11
-72.22718309999999
 21
-8.48618588
 31
0.0
  0
LINE
  5
E8
330
1E
100
AcDbEntity
  8
0
 62
     7
100
AcDbLine
 10
-70.1608977
 20
-21.7542793
 30
0.0
 11
-72.00672749999999
 21
-21.7542793
 31
0.0
  0
LINE
  5
E9
330
1E
100
AcDbEntity
  8
0
 62
     7
100
AcDbLine
 10
-70.60180890000001
 20
-8.48618588
 30
0.0
 11
-70.1608977
 21
-21.7542793
 31
0.0
  0
LINE
  5
EA
330
1E
100
AcDbEntity
  8
0
 62
     7
100
AcDbLine
 10
-71.4525572
 20
-7.60395834
 30
0.0
 11
-71.08385390000001
 21
-20.9500015
 31
0.0
  0
LINE
  5
EB
330
1E
100
AcDbEntity
  8
0
 62
     7
100
AcDbLine
 10
-70.25563690000002
 20
-8.48618588
 30
0.0
 11
-70.60180890000001
 21
-8.48618588
 31
0.0
  0
LINE
  5
EC
330
1E
100
AcDbEntity
  8
0
 62
     7
100
AcDbLine
 10
-72.22718309999999
 20
-8.48618588
 30
0.0
 11
-72.00672749999999
 21
-21.7542793
 31
0.0
  0
LINE
  5
ED
330
1E
100
AcDbEntity
  8
0
 62
     7
100
AcDbLine
 10
-71.08385390000001
 20
-20.9500015
 30
0.0
 11
-72.02009090000001
 21
-20.9500015
 31
0.0
  0
LINE
  5
EE
330
1E
100
AcDbEntity
  8
0
 62
     7
100
AcDbLine
 10
-71.4525572
 20
-7.60395834
 30
0.0
 11
-72.6525572
 21
-7.60395834
 31
0.0
  0
LINE
  5
EF
330
1E
100
AcDbEntity
  8
0
 62
     7
100
AcDbLine
 10
-86.2749939
 20
-22.2500015
 30
0.0
 11
-69.7749939
 21
-22.2500015
 31
0.0
  0
LINE
  5
F0
330
1E
100
AcDbEntity
  8
0
 62
     7
100
AcDbLine
 10
-71.08385390000001
 20
-20.9500015
 30
0.0
 11
-70.1608977
 21
-21.7542793
 31
0.0
  0
LINE
  5
F1
330
1E
100
AcDbEntity
  8
0
 62
     7
100
AcDbLine
 10
-76.8249938
 20
-20.9500015
 30
0.0
 11
-76.17916409999999
 21
-21.7542793
 31
0.0
  0
LINE
  5
F2
330
1E
100
AcDbEntity
  8
0
 62
     7
100
AcDbLine
 10
-79.22499379999999
 20
-20.9500015
 30
0.0
 11
-79.87082359999999
 21
-21.7542793
 31
0.0
  0
LINE
  5
F3
330
1E
100
AcDbEntity
  8
0
 62
     7
100
AcDbLine
 10
-84.9661339
 20
-20.9500015
 30
0.0
 11
-85.8890901
 21
-21.7542793
 31
0.0
  0
LINE
  5
F4
330
1E
100
AcDbEntity
  8
0
 62
     7
100
AcDbLine
 10
-66.7249939
 20
-44.6500015
 30
0.0
 11
-65.2249939
 21
-44.6500015
 31
0.0
  0
LINE
  5
F5
330
1E
100
AcDbEntity
  8
0
 62
     7
100
AcDbLine
 10
-65.2249939
 20
-46.1500015
 30
0.0
 11
-65.2249939
 21
-44.6500015
 31
0.0
  0
ARC
  5
F6
330
1E
100
AcDbEntity
  8
0
 62
     7
100
AcDbCircle
 10
-66.0749939
 20
-45.8000015
 30
0.0
 40
0.65
100
AcDbArc
 50
0.0
 51
180.0
  0
LINE
  5
F7
330
1E
100
AcDbEntity
  8
0
 62
     7
100
AcDbLine
 10
-65.2249939
 20
-49.1500015
 30
0.0
 11
-65.2249939
 21
-47.1500015
 31
0.0
  0
LINE
  5
F8
330
1E
100
AcDbEntity
  8
0
 62
     7
100
AcDbLine
 10
-65.2249939
 20
-49.1500015
 30
0.0
 11
-63.0249939
 21
-49.1500015
 31
0.0
  0
LINE
  5
F9
330
1E
100
AcDbEntity
  8
0
 62
     7
100
AcDbLine
 10
-65.2249939
 20
-51.1500015
 30
0.0
 11
-63.0249939
 21
-51.1500015
 31
0.0
  0
LINE
  5
FA
330
1E
100
AcDbEntity
  8
0
 62
     7
100
AcDbLine
 10
-65.2249939
 20
-53.1500015
 30
0.0
 11
-65.2249939
 21
-51.1500015
 31
0.0
  0
LINE
  5
FB
330
1E
100
AcDbEntity
  8
0
 62
     7
100
AcDbLine
 10
-65.2249939
 20
-55.6500015
 30
0.0
 11
-65.2249939
 21
-54.1500015
 31
0.0
  0
LINE
  5
FC
330
1E
100
AcDbEntity
  8
0
 62
     7
100
AcDbLine
 10
-66.7249939
 20
-55.6500015
 30
0.0
 11
-65.2249939
 21
-55.6500015
 31
0.0
  0
LINE
  5
FD
330
1E
100
AcDbEntity
  8
0
  6
CENTER
 62
     2
100
AcDbLine
 10
-66.0749939
 20
-43.79395099999999
 30
0.0
 11
-66.0749939
 21
-56.851672
 31
0.0
  0
LINE
  5
FE
330
1E
100
AcDbEntity
  8
0
 62
     7
100
AcDbLine
 10
-66.5249939
 20
-51.1500015
 30
0.0
 11
-66.5249939
 21
-49.1500015
 31
0.0
  0
LINE
  5
FF
330
1E
100
AcDbEntity
  8
0
 62
     7
100
AcDbLine
 10
-66.7249939
 20
-55.6500015
 30
0.0
 11
-66.7249939
 21
-44.6500015
 31
0.0
  0
LINE
  5
100
330
1E
100
AcDbEntity
  8
0
 62
     7
100
AcDbLine
 10
-66.5249939
 20
-49.1500015
 30
0.0
 11
-66.7249939
 21
-49.1500015
 31
0.0
  0
LINE
  5
101
330
1E
100
AcDbEntity
  8
0
 62
     7
100
AcDbLine
 10
-65.4249939
 20
-45.8000015
 30
0.0
 11
-65.4249939
 21
-54.50000150000001
 31
0.0
  0
ARC
  5
102
330
1E
100
AcDbEntity
  8
0
 62
     7
100
AcDbCircle
 10
-66.0749939
 20
-54.50000150000001
 30
0.0
 40
0.65
100
AcDbArc
 50
180.0
 51
0.0
  0
LINE
  5
103
330
1E
100
AcDbEntity
  8
0
 62
     7
100
AcDbLine
 10
-90.8249939
 20
-49.1500015
 30
0.0
 11
-93.02499389999999
 21
-49.1500015
 31
0.0
  0
LINE
  5
104
330
1E
100
AcDbEntity
  8
0
 62
     7
100
AcDbLine
 10
-90.8249939
 20
-51.1500015
 30
0.0
 11
-93.02499389999999
 21
-51.1500015
 31
0.0
  0
LINE
  5
105
330
1E
100
AcDbEntity
  8
0
 62
     7
100
AcDbLine
 10
-90.8249939
 20
-53.1500015
 30
0.0
 11
-90.8249939
 21
-51.1500015
 31
0.0
  0
LINE
  5
106
330
1E
100
AcDbEntity
  8
0
 62
     7
100
AcDbLine
 10
-90.62499390000001
 20
-45.8000015
 30
0.0
 11
-90.62499390000001
 21
-54.50000150000001
 31
0.0
  0
LINE
  5
107
330
1E
100
AcDbEntity
  8
0
 62
     7
100
AcDbLine
 10
-90.8249939
 20
-55.6500015
 30
0.0
 11
-90.8249939
 21
-54.1500015
 31
0.0
  0
ARC
  5
108
330
1E
100
AcDbEntity
  8
0
 62
     7
100
AcDbCircle
 10
-89.97499389999999
 20
-54.50000150000001
 30
0.0
 40
0.65
100
AcDbArc
 50
180.0
 51
0.0
  0
LINE
  5
109
330
1E
100
AcDbEntity
  8
0
 62
     7
100
AcDbLine
 10
-89.3249939
 20
-55.6500015
 30
0.0
 11
-90.8249939
 21
-55.6500015
 31
0.0
  0
LINE
  5
10A
330
1E
100
AcDbEntity
  8
0
 62
     7
100
AcDbLine
 10
-89.52499389999999
 20
-51.1500015
 30
0.0
 11
-89.52499389999999
 21
-49.1500015
 31
0.0
  0
ARC
  5
10B
330
1E
100
AcDbEntity
  8
0
 62
     7
100
AcDbCircle
 10
-89.97499389999999
 20
-45.8000015
 30
0.0
 40
0.65
100
AcDbArc
 50
0.0
 51
180.0
  0
LINE
  5
10C
330
1E
100
AcDbEntity
  8
0
 62
     7
100
AcDbLine
 10
-89.3249939
 20
-55.6500015
 30
0.0
 11
-89.3249939
 21
-44.6500015
 31
0.0
  0
LINE
  5
10D
330
1E
100
AcDbEntity
  8
0
 62
     7
100
AcDbLine
 10
-89.3249939
 20
-44.6500015
 30
0.0
 11
-90.8249939
 21
-44.6500015
 31
0.0
  0
LINE
  5
10E
330
1E
100
AcDbEntity
  8
0
 62
     7
100
AcDbLine
 10
-90.8249939
 20
-46.1500015
 30
0.0
 11
-90.8249939
 21
-44.6500015
 31
0.0
  0
LINE
  5
10F
330
1E
100
AcDbEntity
  8
0
 62
     7
100
AcDbLine
 10
-90.8249939
 20
-49.1500015
 30
0.0
 11
-90.8249939
 21
-47.1500015
 31
0.0
  0
LINE
  5
110
330
1E
100
AcDbEntity
  8
0
  6
CENTER
 62
     2
100
AcDbLine
 10
-89.97499389999999
 20
-43.79395099999999
 30
0.0
 11
-89.97499389999999
 21
-56.851672
 31
0.0
  0
LINE
  5
111
330
1E
100
AcDbEntity
  8
0
 62
     7
100
AcDbLine
 10
-90.8249939
 20
-47.1500015
 30
0.0
 11
-90.62499390000001
 21
-47.1500015
 31
0.0
  0
LINE
  5
112
330
1E
100
AcDbEntity
  8
0
 62
     7
100
AcDbLine
 10
-90.8249939
 20
-46.1500015
 30
0.0
 11
-90.62499390000001
 21
-46.1500015
 31
0.0
  0
LINE
  5
113
330
1E
100
AcDbEntity
  8
0
 62
     7
100
AcDbLine
 10
-90.8249939
 20
-53.1500015
 30
0.0
 11
-90.62499390000001
 21
-53.1500015
 31
0.0
  0
LINE
  5
114
330
1E
100
AcDbEntity
  8
0
 62
     7
100
AcDbLine
 10
-90.8249939
 20
-54.1500015
 30
0.0
 11
-90.62499390000001
 21
-54.1500015
 31
0.0
  0
LINE
  5
115
330
1E
100
AcDbEntity
  8
0
 62
     7
100
AcDbLine
 10
-89.52499389999999
 20
-51.1500015
 30
0.0
 11
-89.3249939
 21
-51.1500015
 31
0.0
  0
LINE
  5
116
330
1E
100
AcDbEntity
  8
0
 62
     7
100
AcDbLine
 10
-89.52499389999999
 20
-49.1500015
 30
0.0
 11
-89.3249939
 21
-49.1500015
 31
0.0
  0
LINE
  5
117
330
1E
100
AcDbEntity
  8
0
 62
     7
100
AcDbLine
 10
-65.2249939
 20
-47.1500015
 30
0.0
 11
-65.4249939
 21
-47.1500015
 31
0.0
  0
LINE
  5
118
330
1E
100
AcDbEntity
  8
0
 62
     7
100
AcDbLine
 10
-65.2249939
 20
-46.1500015
 30
0.0
 11
-65.4249939
 21
-46.1500015
 31
0.0
  0
LINE
  5
119
330
1E
100
AcDbEntity
  8
0
 62
     7
100
AcDbLine
 10
-66.5249939
 20
-51.1500015
 30
0.0
 11
-66.7249939
 21
-51.1500015
 31
0.0
  0
LINE
  5
11A
330
1E
100
AcDbEntity
  8
0
 62
     7
100
AcDbLine
 10
-65.2249939
 20
-53.1500015
 30
0.0
 11
-65.4249939
 21
-53.1500015
 31
0.0
  0
LINE
  5
11B
330
1E
100
AcDbEntity
  8
0
 62
     7
100
AcDbLine
 10
-65.2249939
 20
-54.1500015
 30
0.0
 11
-65.4249939
 21
-54.1500015
 31
0.0
  0
LINE
  5
11C
330
1E
100
AcDbEntity
  8
0
 62
     7
100
AcDbLine
 10
-70.0249939
 20
-32.6500015
 30
0.0
 11
-70.0249939
 21
-25.1500015
 31
0.0
  0
LINE
  5
11D
330
1E
100
AcDbEntity
  8
0
 62
     7
100
AcDbLine
 10
-86.0249939
 20
-32.6500015
 30
0.0
 11
-86.0249939
 21
-25.1500015
 31
0.0
  0
CIRCLE
  5
11E
330
1E
100
AcDbEntity
  8
0
 62
     7
100
AcDbCircle
 10
-85.52499389999999
 20
-56.1500015
 30
0.0
 40
1.5
  0
LINE
  5
11F
330
1E
100
AcDbEntity
  8
0
 62
     7
100
AcDbLine
 10
-84.27499389999999
 20
-56.1500015
 30
0.0
 11
-86.14999389999999
 21
-55.06746979999999
 31
0.0
  0
LINE
  5
120
330
1E
100
AcDbEntity
  8
0
 62
     7
100
AcDbLine
 10
-86.14999389999999
 20
-57.2325333
 30
0.0
 11
-86.14999389999999
 21
-55.06746979999999
 31
0.0
  0
LINE
  5
121
330
1E
100
AcDbEntity
  8
0
 62
     7
100
AcDbLine
 10
-84.27499389999999
 20
-56.1500015
 30
0.0
 11
-86.14999389999999
 21
-57.2325333
 31
0.0
  0
CIRCLE
  5
122
330
1E
100
AcDbEntity
  8
0
  6
PHANTOM
 62
     6
100
AcDbCircle
 10
-78.0249939
 20
-50.1500015
 30
0.0
 40
9.0
  0
LINE
  5
123
330
1E
100
AcDbEntity
  8
0
 62
     7
100
AcDbLine
 10
-74.4249939
 20
-63.1500015
 30
0.0
 11
-74.4249939
 21
-59.7500015
 31
0.0
  0
LINE
  5
124
330
1E
100
AcDbEntity
  8
0
 62
     7
100
AcDbLine
 10
-83.3249939
 20
-63.1500015
 30
0.0
 11
-83.3249939
 21
-59.7500015
 31
0.0
  0
LINE
  5
125
330
1E
100
AcDbEntity
  8
0
 62
     7
100
AcDbLine
 10
-81.5249939
 20
-63.1500015
 30
0.0
 11
-81.5249939
 21
-60.1500015
 31
0.0
  0
LINE
  5
126
330
1E
100
AcDbEntity
  8
0
 62
     7
100
AcDbLine
 10
-74.52499389999999
 20
-62.8437912
 30
0.0
 11
-74.52499389999999
 21
-60.1500015
 31
0.0
  0
ARC
  5
127
330
1E
100
AcDbEntity
  8
0
 62
     7
100
AcDbCircle
 10
-64.0249939
 20
-60.6500015
 30
0.0
 40
1.0
100
AcDbArc
 50
270.0
 51
0.0
  0
ARC
  5
128
330
1E
100
AcDbEntity
  8
0
 62
     7
100
AcDbCircle
 10
-92.02499389999999
 20
-60.6500015
 30
0.0
 40
1.0
100
AcDbArc
 50
180.0
 51
270.0
  0
LINE
  5
129
330
1E
100
AcDbEntity
  8
0
  6
CENTER
 62
     2
100
AcDbLine
 10
-78.0249939
 20
-82.00627109999999
 30
0.0
 11
-78.0249939
 21
-5.4114993
 31
0.0
  0
ARC
  5
12A
330
1E
100
AcDbEntity
  8
0
 62
     7
100
AcDbCircle
 10
-9.3249939
 20
-66.3500015
 30
0.0
 40
0.2
100
AcDbArc
 50
90.00000020000001
 51
180.0
  0
ARC
  5
12B
330
1E
100
AcDbEntity
  8
0
 62
     7
100
AcDbCircle
 10
13.27500609999999
 20
-66.3500015
 30
0.0
 40
0.2
100
AcDbArc
 50
0.0
 51
90.00000020000001
  0
LINE
  5
12C
330
1E
100
AcDbEntity
  8
0
 62
     7
100
AcDbLine
 10
-3.324993899999999
 20
-63.1500015
 30
0.0
 11
5.5750061
 21
-63.1500015
 31
0.0
  0
LINE
  5
12D
330
1E
100
AcDbEntity
  8
0
 62
     7
100
AcDbLine
 10
-4.28235321
 20
-79.4500015
 30
0.0
 11
8.23236542
 21
-79.4500015
 31
0.0
  0
LINE
  5
12E
330
1E
100
AcDbEntity
  8
0
 62
     7
100
AcDbLine
 10
-9.5249939
 20
-66.3500015
 30
0.0
 11
-9.5249939
 21
-74.20736080000001
 31
0.0
  0
LINE
  5
12F
330
1E
100
AcDbEntity
  8
0
 62
     7
100
AcDbLine
 10
13.47500609999999
 20
-66.3500015
 30
0.0
 11
13.47500609999999
 21
-74.20736080000001
 31
0.0
  0
LINE
  5
130
330
1E
100
AcDbEntity
  8
0
 62
     7
100
AcDbLine
 10
-8.64631424
 20
-76.32868120000001
 30
0.0
 11
-6.403673549999999
 21
-78.5713219
 31
0.0
  0
LINE
  5
131
330
1E
100
AcDbEntity
  8
0
 62
     7
100
AcDbLine
 10
10.3536858
 20
-78.5713219
 30
0.0
 11
12.5963264
 21
-76.32868120000001
 31
0.0
  0
ARC
  5
132
330
1E
100
AcDbEntity
  8
0
 62
     7
100
AcDbCircle
 10
-6.5249939
 20
-74.20736080000001
 30
0.0
 40
3.0
100
AcDbArc
 50
180.0
 51
225.0
  0
ARC
  5
133
330
1E
100
AcDbEntity
  8
0
 62
     7
100
AcDbCircle
 10
-4.28235321
 20
-76.4500015
 30
0.0
 40
3.0
100
AcDbArc
 50
225.0
 51
270.0
  0
ARC
  5
134
330
1E
100
AcDbEntity
  8
0
 62
     7
100
AcDbCircle
 10
8.23236542
 20
-76.4500015
 30
0.0
 40
3.0
100
AcDbArc
 50
270.0
 51
315.0
  0
ARC
  5
135
330
1E
100
AcDbEntity
  8
0
 62
     7
100
AcDbCircle
 10
10.47500609999999
 20
-74.20736080000001
 30
0.0
 40
3.0
100
AcDbArc
 50
315.0
 51
0.0
  0
LINE
  5
136
330
1E
100
AcDbEntity
  8
0
 62
     7
100
AcDbLine
 10
1.9750061
 20
-63.1500015
 30
0.0
 11
5.475006099999999
 21
-62.8437912
 31
0.0
  0
LINE
  5
137
330
1E
100
AcDbEntity
  8
0
 62
     7
100
AcDbLine
 10
0.4750061040000001
 20
-75.45000149999999
 30
0.0
 11
0.4750061040000001
 21
-68.05000150000001
 31
0.0
  0
LINE
  5
138
330
1E
100
AcDbEntity
  8
0
 62
     7
100
AcDbLine
 10
-9.426748149999999
 20
-68.05000150000001
 30
0.0
 11
0.4750061040000001
 21
-68.05000150000001
 31
0.0
  0
LINE
  5
139
330
1E
100
AcDbEntity
  8
0
 62
     7
100
AcDbLine
 10
3.475006099999999
 20
-68.05000150000001
 30
0.0
 11
13.37676039999999
 21
-68.05000150000001
 31
0.0
  0
LINE
  5
13A
330
1E
100
AcDbEntity
  8
0
 62
     7
100
AcDbLine
 10
-0.875743972
 20
-77.887815
 30
0.0
 11
-0.875743972
 21
-70.38956929999999
 31
0.0
  0
LINE
  5
13B
330
1E
100
AcDbEntity
  8
0
 62
     7
100
AcDbLine
 10
-9.426748149999999
 20
-74.0127134
 30
0.0
 11
-9.426748149999999
 21
-68.05000150000001
 31
0.0
  0
LINE
  5
13C
330
1E
100
AcDbEntity
  8
0
 62
     7
100
AcDbLine
 10
-7.08718039
 20
-77.387815
 30
0.0
 11
-7.08718039
 21
-70.38956929999999
 31
0.0
  0
LINE
  5
13D
330
1E
100
AcDbEntity
  8
0
 62
     7
100
AcDbLine
 10
-9.426748149999999
 20
-68.05000150000001
 30
0.0
 11
-7.08718039
 21
-70.38956929999999
 31
0.0
  0
LINE
  5
13E
330
1E
100
AcDbEntity
  8
0
 62
     7
100
AcDbLine
 10
-7.08718039
 20
-70.38956929999999
 30
0.0
 11
-0.875743972
 21
-70.38956929999999
 31
0.0
  0
LINE
  5
13F
330
1E
100
AcDbEntity
  8
0
 62
     7
100
AcDbLine
 10
-0.875743972
 20
-70.38956929999999
 30
0.0
 11
0.4750061040000001
 21
-68.05000150000001
 31
0.0
  0
LINE
  5
140
330
1E
100
AcDbEntity
  8
0
 62
     7
100
AcDbLine
 10
0.4750061040000001
 20
-75.45000149999999
 30
0.0
 11
3.475006099999999
 21
-75.45000149999999
 31
0.0
  0
LINE
  5
141
330
1E
100
AcDbEntity
  8
0
 62
     7
100
AcDbLine
 10
-6.58718039
 20
-77.887815
 30
0.0
 11
-0.875743972
 21
-77.887815
 31
0.0
  0
ARC
  5
142
330
1E
100
AcDbEntity
  8
0
 62
     7
100
AcDbCircle
 10
-6.58718039
 20
-77.387815
 30
0.0
 40
0.5
100
AcDbArc
 50
180.0
 51
270.0
  0
LINE
  5
143
330
1E
100
AcDbEntity
  8
0
 62
     7
100
AcDbLine
 10
0.4750061040000001
 20
-75.45000149999999
 30
0.0
 11
-0.875743972
 21
-77.887815
 31
0.0
  0
LINE
  5
144
330
1E
100
AcDbEntity
  8
0
 62
     7
100
AcDbLine
 10
-6.94073378
 20
-77.7413684
 30
0.0
 11
-8.54806849
 21
-76.1340337
 31
0.0
  0
ARC
  5
145
330
1E
100
AcDbEntity
  8
0
 62
     7
100
AcDbCircle
 10
-6.426748149999999
 20
-74.0127134
 30
0.0
 40
3.0
100
AcDbArc
 50
180.0
 51
225.0
  0
LINE
  5
146
330
1E
100
AcDbEntity
  8
0
 62
     7
100
AcDbLine
 10
4.825756179999999
 20
-70.38956929999999
 30
0.0
 11
3.475006099999999
 21
-68.05000150000001
 31
0.0
  0
LINE
  5
147
330
1E
100
AcDbEntity
  8
0
 62
     7
100
AcDbLine
 10
4.825756179999999
 20
-77.887815
 30
0.0
 11
4.825756179999999
 21
-70.38956929999999
 31
0.0
  0
LINE
  5
148
330
1E
100
AcDbEntity
  8
0
 62
     7
100
AcDbLine
 10
3.475006099999999
 20
-75.45000149999999
 30
0.0
 11
4.825756179999999
 21
-77.887815
 31
0.0
  0
LINE
  5
149
330
1E
100
AcDbEntity
  8
0
 62
     7
100
AcDbLine
 10
3.475006099999999
 20
-75.45000149999999
 30
0.0
 11
3.475006099999999
 21
-68.05000150000001
 31
0.0
  0
LINE
  5
14A
330
1E
100
AcDbEntity
  8
0
 62
     7
100
AcDbLine
 10
10.5371926
 20
-77.887815
 30
0.0
 11
4.825756179999999
 21
-77.887815
 31
0.0
  0
LINE
  5
14B
330
1E
100
AcDbEntity
  8
0
 62
     7
100
AcDbLine
 10
11.03719259999999
 20
-77.387815
 30
0.0
 11
11.03719259999999
 21
-70.38956929999999
 31
0.0
  0
LINE
  5
14C
330
1E
100
AcDbEntity
  8
0
 62
     7
100
AcDbLine
 10
13.37676039999999
 20
-68.05000150000001
 30
0.0
 11
11.03719259999999
 21
-70.38956929999999
 31
0.0
  0
LINE
  5
14D
330
1E
100
AcDbEntity
  8
0
 62
     7
100
AcDbLine
 10
11.03719259999999
 20
-70.38956929999999
 30
0.0
 11
4.825756179999999
 21
-70.38956929999999
 31
0.0
  0
LINE
  5
14E
330
1E
100
AcDbEntity
  8
0
 62
     7
100
AcDbLine
 10
13.37676039999999
 20
-74.0127134
 30
0.0
 11
13.37676039999999
 21
-68.05000150000001
 31
0.0
  0
ARC
  5
14F
330
1E
100
AcDbEntity
  8
0
 62
     7
100
AcDbCircle
 10
10.3767604
 20
-74.0127134
 30
0.0
 40
3.0
100
AcDbArc
 50
315.0
 51
0.0
  0
LINE
  5
150
330
1E
100
AcDbEntity
  8
0
 62
     7
100
AcDbLine
 10
10.890746
 20
-77.7413684
 30
0.0
 11
12.4980807
 21
-76.1340337
 31
0.0
  0
ARC
  5
151
330
1E
100
AcDbEntity
  8
0
 62
     7
100
AcDbCircle
 10
10.5371926
 20
-77.387815
 30
0.0
 40
0.5
100
AcDbArc
 50
270.0
 51
0.0
  0
LINE
  5
152
330
1E
100
AcDbEntity
  8
0
 62
     7
100
AcDbLine
 10
-8.5249939
 20
-61.6500015
 30
0.0
 11
-3.324993899999999
 21
-61.6500015
 31
0.0
  0
ARC
  5
153
330
1E
100
AcDbEntity
  8
0
 62
     7
100
AcDbCircle
 10
13.27500609999999
 20
-65.9500015
 30
0.0
 40
0.2
100
AcDbArc
 50
270.0
 51
0.0
  0
ARC
  5
154
330
1E
100
AcDbEntity
  8
0
 62
     7
100
AcDbCircle
 10
-9.3249939
 20
-65.9500015
 30
0.0
 40
0.2
100
AcDbArc
 50
180.0
 51
270.0
  0
LINE
  5
155
330
1E
100
AcDbEntity
  8
0
 62
     7
100
AcDbLine
 10
-9.3249939
 20
-66.1500015
 30
0.0
 11
13.27500609999999
 21
-66.1500015
 31
0.0
  0
LINE
  5
156
330
1E
100
AcDbEntity
  8
0
 62
     7
100
AcDbLine
 10
5.5750061
 20
-61.6500015
 30
0.0
 11
12.4750061
 21
-61.6500015
 31
0.0
  0
ARC
  5
157
330
1E
100
AcDbEntity
  8
0
  6
PHANTOM
 62
     6
100
AcDbCircle
 10
1.9750061
 20
-50.1500015
 30
0.0
 40
5.0
100
AcDbArc
 50
216.869898
 51
323.130102
  0
LINE
  5
158
330
1E
100
AcDbEntity
  8
0
  6
PHANTOM
 62
     6
100
AcDbLine
 10
19.9750061
 20
-44.1500015
 30
0.0
 11
19.9750061
 21
-42.1500015
 31
0.0
  0
LINE
  5
159
330
1E
100
AcDbEntity
  8
0
  6
PHANTOM
 62
     6
100
AcDbLine
 10
19.9750061
 20
-53.1500015
 30
0.0
 11
19.9750061
 21
-47.1500015
 31
0.0
  0
LINE
  5
15A
330
1E
100
AcDbEntity
  8
0
  6
PHANTOM
 62
     6
100
AcDbLine
 10
19.9750061
 20
-58.1500015
 30
0.0
 11
19.9750061
 21
-56.1500015
 31
0.0
  0
LINE
  5
15B
330
1E
100
AcDbEntity
  8
0
  6
PHANTOM
 62
     6
100
AcDbLine
 10
19.9750061
 20
-42.1500015
 30
0.0
 11
22.9750061
 21
-42.1500015
 31
0.0
  0
ARC
  5
15C
330
1E
100
AcDbEntity
  8
0
  6
PHANTOM
 62
     6
100
AcDbCircle
 10
21.9750061
 20
-45.1500015
 30
0.0
 40
1.0
100
AcDbArc
 50
0.0
 51
90.00000020000001
  0
LINE
  5
15D
330
1E
100
AcDbEntity
  8
0
  6
PHANTOM
 62
     6
100
AcDbLine
 10
7.266508729999999
 20
-44.1500015
 30
0.0
 11
21.9750061
 21
-44.1500015
 31
0.0
  0
ARC
  5
15E
330
1E
100
AcDbEntity
  8
0
  6
PHANTOM
 62
     6
100
AcDbCircle
 10
1.9750061
 20
-50.1500015
 30
0.0
 40
8.0
100
AcDbArc
 50
48.5903779
 51
137.518887
  0
LINE
  5
15F
330
1E
100
AcDbEntity
  8
0
  6
PHANTOM
 62
     6
100
AcDbLine
 10
-3.9249939
 20
-46.053036
 30
0.0
 11
-3.9249939
 21
-44.7472245
 31
0.0
  0
LINE
  5
160
330
1E
100
AcDbEntity
  8
0
  6
PHANTOM
 62
     6
100
AcDbLine
 10
-2.0249939
 20
-47.1500015
 30
0.0
 11
-3.9249939
 21
-46.053036
 31
0.0
  0
LINE
  5
161
330
1E
100
AcDbEntity
  8
0
  6
PHANTOM
 62
     6
100
AcDbLine
 10
5.975006099999999
 20
-47.1500015
 30
0.0
 11
19.9750061
 21
-47.1500015
 31
0.0
  0
LINE
  5
162
330
1E
100
AcDbEntity
  8
0
  6
PHANTOM
 62
     6
100
AcDbLine
 10
5.975006099999999
 20
-53.1500015
 30
0.0
 11
19.9750061
 21
-53.1500015
 31
0.0
  0
ARC
  5
163
330
1E
100
AcDbEntity
  8
0
  6
PHANTOM
 62
     6
100
AcDbCircle
 10
1.9750061
 20
-50.1500015
 30
0.0
 40
5.0
100
AcDbArc
 50
36.8698977
 51
143.130102
  0
LINE
  5
164
330
1E
100
AcDbEntity
  8
0
  6
PHANTOM
 62
     6
100
AcDbLine
 10
-2.0249939
 20
-53.1500015
 30
0.0
 11
-3.9249939
 21
-54.24696700000001
 31
0.0
  0
LINE
  5
165
330
1E
100
AcDbEntity
  8
0
  6
PHANTOM
 62
     6
100
AcDbLine
 10
-3.9249939
 20
-55.5527786
 30
0.0
 11
-3.9249939
 21
-54.24696700000001
 31
0.0
  0
ARC
  5
166
330
1E
100
AcDbEntity
  8
0
  6
PHANTOM
 62
     6
100
AcDbCircle
 10
1.9750061
 20
-50.1500015
 30
0.0
 40
8.0
100
AcDbArc
 50
222.4811129999999
 51
311.409622
  0
LINE
  5
167
330
1E
100
AcDbEntity
  8
0
  6
PHANTOM
 62
     6
100
AcDbLine
 10
7.266508729999999
 20
-56.1500015
 30
0.0
 11
21.9750061
 21
-56.1500015
 31
0.0
  0
ARC
  5
168
330
1E
100
AcDbEntity
  8
0
  6
PHANTOM
 62
     6
100
AcDbCircle
 10
21.9750061
 20
-55.1500015
 30
0.0
 40
1.0
100
AcDbArc
 50
270.0
 51
0.0
  0
LINE
  5
169
330
1E
100
AcDbEntity
  8
0
  6
PHANTOM
 62
     6
100
AcDbLine
 10
22.9750061
 20
-58.1500015
 30
0.0
 11
22.9750061
 21
-42.1500015
 31
0.0
  0
LINE
  5
16A
330
1E
100
AcDbEntity
  8
0
  6
PHANTOM
 62
     6
100
AcDbLine
 10
19.9750061
 20
-58.1500015
 30
0.0
 11
22.9750061
 21
-58.1500015
 31
0.0
  0
LINE
  5
16B
330
1E
100
AcDbEntity
  8
0
  6
PHANTOM
 62
     6
100
AcDbLine
 10
-10.0249939
 20
-25.9500015
 30
0.0
 11
13.97500609999999
 21
-25.9500015
 31
0.0
  0
LINE
  5
16C
330
1E
100
AcDbEntity
  8
0
  6
PHANTOM
 62
     6
100
AcDbLine
 10
-10.0249939
 20
-29.9500015
 30
0.0
 11
13.97500609999999
 21
-29.9500015
 31
0.0
  0
LINE
  5
16D
330
1E
100
AcDbEntity
  8
0
 62
     7
100
AcDbLine
 10
8.743099479999999
 20
-7.450001529999999
 30
0.0
 11
9.743099479999999
 21
-8.450001529999999
 31
0.0
  0
LINE
  5
16E
330
1E
100
AcDbEntity
  8
0
 62
     7
100
AcDbLine
 10
-5.791890559999999
 20
-8.41573209
 30
0.0
 11
-4.756271319999999
 21
-7.450001529999999
 31
0.0
  0
LINE
  5
16F
330
1E
100
AcDbEntity
  8
0
 62
     7
100
AcDbLine
 10
10.2250061
 20
-22.2500015
 30
0.0
 11
9.743099479999999
 21
-8.450001529999999
 31
0.0
  0
LINE
  5
170
330
1E
100
AcDbEntity
  8
0
 62
     7
100
AcDbLine
 10
-6.2749939
 20
-22.2500015
 30
0.0
 11
-5.791890559999999
 21
-8.41573209
 31
0.0
  0
LINE
  5
171
330
1E
100
AcDbEntity
  8
0
 62
     7
100
AcDbLine
 10
-6.2749939
 20
-22.2500015
 30
0.0
 11
-6.074993899999999
 21
-22.4500015
 31
0.0
  0
LINE
  5
172
330
1E
100
AcDbEntity
  8
0
 62
     7
100
AcDbLine
 10
-4.756271319999999
 20
-7.450001529999999
 30
0.0
 11
8.743099479999999
 21
-7.450001529999999
 31
0.0
  0
LINE
  5
173
330
1E
100
AcDbEntity
  8
0
 62
     7
100
AcDbLine
 10
10.2250061
 20
-22.2500015
 30
0.0
 11
10.0250061
 21
-22.4500015
 31
0.0
  0
LINE
  5
174
330
1E
100
AcDbEntity
  8
0
 62
     7
100
AcDbLine
 10
-6.074993899999999
 20
-22.4500015
 30
0.0
 11
10.0250061
 21
-22.4500015
 31
0.0
  0
LINE
  5
175
330
1E
100
AcDbEntity
  8
0
 62
     7
100
AcDbLine
 10
8.225006099999999
 20
-25.1500015
 30
0.0
 11
8.225006099999999
 21
-22.4500015
 31
0.0
  0
LINE
  5
176
330
1E
100
AcDbEntity
  8
0
 62
     7
100
AcDbLine
 10
-4.2749939
 20
-25.1500015
 30
0.0
 11
-4.2749939
 21
-22.4500015
 31
0.0
  0
LINE
  5
177
330
1E
100
AcDbEntity
  8
0
 62
     7
100
AcDbLine
 10
10.47500609999999
 20
-25.1500015
 30
0.0
 11
10.97500609999999
 21
-25.6500015
 31
0.0
  0
LINE
  5
178
330
1E
100
AcDbEntity
  8
0
 62
     2
100
AcDbLine
 10
10.47500609999999
 20
-32.1500015
 30
0.0
 11
10.47500609999999
 21
-25.1500015
 31
0.0
  0
LINE
  5
179
330
1E
100
AcDbEntity
  8
0
 62
     7
100
AcDbLine
 10
10.97500609999999
 20
-32.6500015
 30
0.0
 11
10.97500609999999
 21
-25.6500015
 31
0.0
  0
LINE
  5
17A
330
1E
100
AcDbEntity
  8
0
 62
     7
100
AcDbLine
 10
10.97500609999999
 20
-32.6500015
 30
0.0
 11
10.47500609999999
 21
-32.1500015
 31
0.0
  0
LINE
  5
17B
330
1E
100
AcDbEntity
  8
0
 62
     7
100
AcDbLine
 10
-7.0249939
 20
-32.6500015
 30
0.0
 11
-7.0249939
 21
-25.6500015
 31
0.0
  0
LINE
  5
17C
330
1E
100
AcDbEntity
  8
0
 62
     7
100
AcDbLine
 10
-6.5249939
 20
-25.1500015
 30
0.0
 11
10.47500609999999
 21
-25.1500015
 31
0.0
  0
LINE
  5
17D
330
1E
100
AcDbEntity
  8
0
 62
     7
100
AcDbLine
 10
-6.5249939
 20
-25.1500015
 30
0.0
 11
-7.0249939
 21
-25.6500015
 31
0.0
  0
LINE
  5
17E
330
1E
100
AcDbEntity
  8
0
 62
     2
100
AcDbLine
 10
-6.5249939
 20
-32.1500015
 30
0.0
 11
-6.5249939
 21
-25.1500015
 31
0.0
  0
LINE
  5
17F
330
1E
100
AcDbEntity
  8
0
 62
     7
100
AcDbLine
 10
-7.0249939
 20
-32.6500015
 30
0.0
 11
-6.5249939
 21
-32.1500015
 31
0.0
  0
LINE
  5
180
330
1E
100
AcDbEntity
  8
0
 62
     7
100
AcDbLine
 10
-7.0249939
 20
-25.6500015
 30
0.0
 11
-2.14809952
 21
-25.6500015
 31
0.0
  0
LINE
  5
181
330
1E
100
AcDbEntity
  8
0
 62
     7
100
AcDbLine
 10
-6.5249939
 20
-32.1500015
 30
0.0
 11
-2.14809952
 21
-32.1500015
 31
0.0
  0
LINE
  5
182
330
1E
100
AcDbEntity
  8
0
 62
     7
100
AcDbLine
 10
-2.729333079999999
 20
-20.9500015
 30
0.0
 11
-0.650872087
 21
-20.9500015
 31
0.0
  0
LINE
  5
183
330
1E
100
AcDbEntity
  8
0
 62
     7
100
AcDbLine
 10
-2.494842209999999
 20
-7.60395834
 30
0.0
 11
-2.729333079999999
 21
-20.9500015
 31
0.0
  0
LINE
  5
184
330
1E
100
AcDbEntity
  8
0
 62
     7
100
AcDbLine
 10
-0.416381234
 20
-7.60395834
 30
0.0
 11
-0.431882029
 21
-8.48618588
 31
0.0
  0
LINE
  5
185
330
1E
100
AcDbEntity
  8
0
 62
     7
100
AcDbLine
 10
-2.494842209999999
 20
-7.60395834
 30
0.0
 11
-0.416381234
 21
-7.60395834
 31
0.0
  0
LINE
  5
186
330
1E
100
AcDbEntity
  8
0
 62
     7
100
AcDbLine
 10
-3.638387719999999
 20
-21.7542793
 30
0.0
 11
-0.433951287
 21
-21.7542793
 31
0.0
  0
LINE
  5
187
330
1E
100
AcDbEntity
  8
0
 62
     7
100
AcDbLine
 10
-0.433951287
 20
-21.7542793
 30
0.0
 11
-0.433951287
 21
-8.48618588
 31
0.0
  0
LINE
  5
188
330
1E
100
AcDbEntity
  8
0
 62
     7
100
AcDbLine
 10
-3.21745684
 20
-8.48618588
 30
0.0
 11
-3.638387719999999
 21
-21.7542793
 31
0.0
  0
LINE
  5
189
330
1E
100
AcDbEntity
  8
0
 62
     7
100
AcDbLine
 10
7.16746904
 20
-8.48618588
 30
0.0
 11
7.588399929999999
 21
-21.7542793
 31
0.0
  0
LINE
  5
18A
330
1E
100
AcDbEntity
  8
0
 62
     7
100
AcDbLine
 10
4.38396349
 20
-21.7542793
 30
0.0
 11
4.38396349
 21
-8.48618588
 31
0.0
  0
LINE
  5
18B
330
1E
100
AcDbEntity
  8
0
 62
     7
100
AcDbLine
 10
7.588399929999999
 20
-21.7542793
 30
0.0
 11
4.38396349
 21
-21.7542793
 31
0.0
  0
LINE
  5
18C
330
1E
100
AcDbEntity
  8
0
 62
     7
100
AcDbLine
 10
6.44485442
 20
-7.60395834
 30
0.0
 11
4.36639344
 21
-7.60395834
 31
0.0
  0
LINE
  5
18D
330
1E
100
AcDbEntity
  8
0
 62
     7
100
AcDbLine
 10
4.36639344
 20
-7.60395834
 30
0.0
 11
4.38189424
 21
-8.48618588
 31
0.0
  0
LINE
  5
18E
330
1E
100
AcDbEntity
  8
0
 62
     7
100
AcDbLine
 10
6.44485442
 20
-7.60395834
 30
0.0
 11
6.679345289999999
 21
-20.9500015
 31
0.0
  0
LINE
  5
18F
330
1E
100
AcDbEntity
  8
0
 62
     7
100
AcDbLine
 10
6.679345289999999
 20
-20.9500015
 30
0.0
 11
4.600884289999999
 21
-20.9500015
 31
0.0
  0
LINE
  5
190
330
1E
100
AcDbEntity
  8
0
 62
     7
100
AcDbLine
 10
-0.4339512990000001
 20
-8.48618588
 30
0.0
 11
4.38396348
 21
-8.48618588
 31
0.0
  0
LINE
  5
191
330
1E
100
AcDbEntity
  8
0
 62
     7
100
AcDbLine
 10
-6.2749939
 20
-22.2500015
 30
0.0
 11
10.2250061
 21
-22.2500015
 31
0.0
  0
LINE
  5
192
330
1E
100
AcDbEntity
  8
0
 62
     7
100
AcDbLine
 10
-6.257682889999999
 20
-21.7542793
 30
0.0
 11
-6.045791499999999
 21
-21.7542793
 31
0.0
  0
LINE
  5
193
330
1E
100
AcDbEntity
  8
0
 62
     7
100
AcDbLine
 10
-6.045791499999999
 20
-21.7542793
 30
0.0
 11
-5.633106599999999
 21
-8.48618588
 31
0.0
  0
LINE
  5
194
330
1E
100
AcDbEntity
  8
0
 62
     7
100
AcDbLine
 10
-3.21745684
 20
-8.48618588
 30
0.0
 11
-5.633106599999999
 21
-8.48618588
 31
0.0
  0
LINE
  5
195
330
1E
100
AcDbEntity
  8
0
 62
     7
100
AcDbLine
 10
-5.004960719999999
 20
-7.681908139999999
 30
0.0
 11
-4.921369789999999
 21
-7.681908139999999
 31
0.0
  0
LINE
  5
196
330
1E
100
AcDbEntity
  8
0
 62
     7
100
AcDbLine
 10
7.16746904
 20
-8.48618588
 30
0.0
 11
9.583118799999999
 21
-8.48618588
 31
0.0
  0
LINE
  5
197
330
1E
100
AcDbEntity
  8
0
 62
     7
100
AcDbLine
 10
8.95497293
 20
-7.681908139999999
 30
0.0
 11
8.871382
 21
-7.681908139999999
 31
0.0
  0
LINE
  5
198
330
1E
100
AcDbEntity
  8
0
 62
     7
100
AcDbLine
 10
9.995803699999999
 20
-21.7542793
 30
0.0
 11
9.583118799999999
 21
-8.48618588
 31
0.0
  0
LINE
  5
199
330
1E
100
AcDbEntity
  8
0
 62
     7
100
AcDbLine
 10
10.2076951
 20
-21.7542793
 30
0.0
 11
9.995803699999999
 21
-21.7542793
 31
0.0
  0
LINE
  5
19A
330
1E
100
AcDbEntity
  8
0
  6
PHANTOM
 62
     6
100
AcDbLine
 10
-10.0249939
 20
-29.9500015
 30
0.0
 11
-10.0249939
 21
-25.9500015
 31
0.0
  0
LINE
  5
19B
330
1E
100
AcDbEntity
  8
0
  6
PHANTOM
 62
     6
100
AcDbLine
 10
-2.995556679999999
 20
-29.3791715
 30
0.0
 11
-2.995556679999999
 21
-26.5208315
 31
0.0
  0
LINE
  5
19C
330
1E
100
AcDbEntity
  8
0
  6
PHANTOM
 62
     6
100
AcDbLine
 10
6.94556882
 20
-29.3791715
 30
0.0
 11
6.94556882
 21
-26.5208315
 31
0.0
  0
LINE
  5
19D
330
1E
100
AcDbEntity
  8
0
  6
PHANTOM
 62
     6
100
AcDbLine
 10
13.97500609999999
 20
-29.9500015
 30
0.0
 11
13.97500609999999
 21
-25.9500015
 31
0.0
  0
ARC
  5
19E
330
1E
100
AcDbEntity
  8
0
  6
PHANTOM
 62
     6
100
AcDbCircle
 10
-6.51027529
 20
-37.055842
 30
0.0
 40
11.1058404
100
AcDbArc
 50
71.55013120000001
 51
108.4498689999999
  0
ARC
  5
19F
330
1E
100
AcDbEntity
  8
0
  6
PHANTOM
 62
     6
100
AcDbCircle
 10
1.97500607
 20
-47.87626760000001
 30
0.0
 40
21.9262661
100
AcDbArc
 50
76.8974621
 51
103.1025379999999
  0
ARC
  5
1A0
330
1E
100
AcDbEntity
  8
0
  6
PHANTOM
 62
     6
100
AcDbCircle
 10
10.4602875
 20
-37.0558422
 30
0.0
 40
11.1058406
100
AcDbArc
 50
71.55013120000001
 51
108.4498689999999
  0
ARC
  5
1A1
330
1E
100
AcDbEntity
  8
0
  6
PHANTOM
 62
     6
100
AcDbCircle
 10
10.4602875
 20
-18.8441609
 30
0.0
 40
11.1058406
100
AcDbArc
 50
251.550131
 51
288.449869
  0
ARC
  5
1A2
330
1E
100
AcDbEntity
  8
0
  6
PHANTOM
 62
     6
100
AcDbCircle
 10
1.97500607
 20
-8.023735459999999
 30
0.0
 40
21.9262661
100
AcDbArc
 50
256.897462
 51
283.1025369999999
  0
ARC
  5
1A3
330
1E
100
AcDbEntity
  8
0
  6
PHANTOM
 62
     6
100
AcDbCircle
 10
-6.51027529
 20
-18.8441611
 30
0.0
 40
11.1058404
100
AcDbArc
 50
251.550131
 51
288.449869
  0
LINE
  5
1A4
330
1E
100
AcDbEntity
  8
0
 62
     7
100
AcDbLine
 10
7.16746904
 20
-8.48618588
 30
0.0
 11
6.44485442
 21
-7.60395834
 31
0.0
  0
LINE
  5
1A5
330
1E
100
AcDbEntity
  8
0
 62
     7
100
AcDbLine
 10
9.583118799999999
 20
-8.48618588
 30
0.0
 11
8.871382
 21
-7.681908139999999
 31
0.0
  0
LINE
  5
1A6
330
1E
100
AcDbEntity
  8
0
 62
     7
100
AcDbLine
 10
-5.633106599999999
 20
-8.48618588
 30
0.0
 11
-4.921369789999999
 21
-7.681908139999999
 31
0.0
  0
LINE
  5
1A7
330
1E
100
AcDbEntity
  8
0
 62
     7
100
AcDbLine
 10
-3.21745684
 20
-8.48618588
 30
0.0
 11
-2.494842209999999
 21
-7.60395834
 31
0.0
  0
LINE
  5
1A8
330
1E
100
AcDbEntity
  8
0
 62
     7
100
AcDbLine
 10
-0.433951287
 20
-8.60395763
 30
0.0
 11
-0.650872087
 21
-20.9500015
 31
0.0
  0
LINE
  5
1A9
330
1E
100
AcDbEntity
  8
0
 62
     7
100
AcDbLine
 10
4.38396349
 20
-8.60395763
 30
0.0
 11
4.600884289999999
 21
-20.9500015
 31
0.0
  0
LINE
  5
1AA
330
1E
100
AcDbEntity
  8
0
 62
     7
100
AcDbLine
 10
4.38396349
 20
-8.48618588
 30
0.0
 11
4.36639344
 21
-7.60395834
 31
0.0
  0
LINE
  5
1AB
330
1E
100
AcDbEntity
  8
0
 62
     7
100
AcDbLine
 10
-0.4339512990000001
 20
-8.48618588
 30
0.0
 11
-0.416381234
 21
-7.60395834
 31
0.0
  0
ARC
  5
1AC
330
1E
100
AcDbEntity
  8
0
 62
     7
100
AcDbCircle
 10
12.4750061
 20
-39.6500015
 30
0.0
 40
1.0
100
AcDbArc
 50
0.0
 51
90.00000020000001
  0
ARC
  5
1AD
330
1E
100
AcDbEntity
  8
0
 62
     7
100
AcDbCircle
 10
-8.5249939
 20
-39.6500015
 30
0.0
 40
1.0
100
AcDbArc
 50
90.00000020000001
 51
180.0
  0
LINE
  5
1AE
330
1E
100
AcDbEntity
  8
0
 62
     7
100
AcDbLine
 10
7.275006099999999
 20
-38.6500015
 30
0.0
 11
12.4750061
 21
-38.6500015
 31
0.0
  0
LINE
  5
1AF
330
1E
100
AcDbEntity
  8
0
 62
     7
100
AcDbLine
 10
-8.5249939
 20
-38.6500015
 30
0.0
 11
-1.624993899999999
 21
-38.6500015
 31
0.0
  0
LINE
  5
1B0
330
1E
100
AcDbEntity
  8
0
  6
DASHED
 62
     2
100
AcDbLine
 10
12.475494
 20
-45.31723729999999
 30
0.0
 11
13.47500609999999
 21
-46.2561729
 31
0.0
  0
LINE
  5
1B1
330
1E
100
AcDbEntity
  8
0
  6
DASHED
 62
     2
100
AcDbLine
 10
12.475494
 20
-54.98253670000001
 30
0.0
 11
13.47500609999999
 21
-54.0436011
 31
0.0
  0
LINE
  5
1B2
330
1E
100
AcDbEntity
  8
0
  6
DASHED
 62
     2
100
AcDbLine
 10
13.47500609999999
 20
-55.01377149999999
 30
0.0
 11
7.975006099999999
 21
-54.8418965
 31
0.0
  0
LINE
  5
1B3
330
1E
100
AcDbEntity
  8
0
  6
DASHED
 62
     2
100
AcDbLine
 10
13.47500609999999
 20
-54.4278332
 30
0.0
 11
7.96856936
 21
-54.2557571
 31
0.0
  0
LINE
  5
1B4
330
1E
100
AcDbEntity
  8
0
  6
DASHED
 62
     2
100
AcDbLine
 10
13.47500609999999
 20
-45.87200189999999
 30
0.0
 11
7.975006099999999
 21
-46.04387689999999
 31
0.0
  0
LINE
  5
1B5
330
1E
100
AcDbEntity
  8
0
  6
DASHED
 62
     2
100
AcDbLine
 10
13.47500609999999
 20
-45.2860026
 30
0.0
 11
7.975006099999999
 21
-45.4578776
 31
0.0
  0
LINE
  5
1B6
330
1E
100
AcDbEntity
  8
0
 62
     7
100
AcDbLine
 10
-3.324993899999999
 20
-59.7500015
 30
0.0
 11
5.5750061
 21
-59.7500015
 31
0.0
  0
LINE
  5
1B7
330
1E
100
AcDbEntity
  8
0
 62
     7
100
AcDbLine
 10
-1.524993899999999
 20
-60.1500015
 30
0.0
 11
5.475006099999999
 21
-60.1500015
 31
0.0
  0
LINE
  5
1B8
330
1E
100
AcDbEntity
  8
0
  6
CENTER
 62
     2
100
AcDbLine
 10
-32.34443839999999
 20
-50.1500015
 30
0.0
 11
26.125014
 21
-50.1500015
 31
0.0
  0
CIRCLE
  5
1B9
330
1E
100
AcDbEntity
  8
0
 62
     7
100
AcDbCircle
 10
1.9750061
 20
-50.1500015
 30
0.0
 40
5.0
  0
CIRCLE
  5
1BA
330
1E
100
AcDbEntity
  8
0
 62
     7
100
AcDbCircle
 10
1.9750061
 20
-50.1500015
 30
0.0
 40
3.0
  0
LINE
  5
1BB
330
1E
100
AcDbEntity
  8
0
 62
     7
100
AcDbLine
 10
7.275006099999999
 20
-40.5500015
 30
0.0
 11
-1.624993899999999
 21
-40.5500015
 31
0.0
  0
LINE
  5
1BC
330
1E
100
AcDbEntity
  8
0
 62
     7
100
AcDbLine
 10
-1.524993899999999
 20
-40.1500015
 30
0.0
 11
5.475006099999999
 21
-40.1500015
 31
0.0
  0
LINE
  5
1BD
330
1E
100
AcDbEntity
  8
0
 62
     7
100
AcDbLine
 10
-1.624993899999999
 20
-37.1500015
 30
0.0
 11
7.275006099999999
 21
-37.1500015
 31
0.0
  0
LINE
  5
1BE
330
1E
100
AcDbEntity
  8
0
 62
     7
100
AcDbLine
 10
-9.5249939
 20
-34.1500015
 30
0.0
 11
13.47500609999999
 21
-34.1500015
 31
0.0
  0
ARC
  5
1BF
330
1E
100
AcDbEntity
  8
0
 62
     7
100
AcDbCircle
 10
-8.5249939
 20
-33.6500015
 30
0.0
 40
1.0
100
AcDbArc
 50
90.00000020000001
 51
180.0
  0
LINE
  5
1C0
330
1E
100
AcDbEntity
  8
0
 62
     7
100
AcDbLine
 10
-8.5249939
 20
-32.6500015
 30
0.0
 11
12.4750061
 21
-32.6500015
 31
0.0
  0
ARC
  5
1C1
330
1E
100
AcDbEntity
  8
0
 62
     7
100
AcDbCircle
 10
12.4750061
 20
-33.6500015
 30
0.0
 40
1.0
100
AcDbArc
 50
0.0
 51
90.00000020000001
  0
LINE
  5
1C2
330
1E
100
AcDbEntity
  8
0
 62
     7
100
AcDbLine
 10
-9.5249939
 20
-34.1500015
 30
0.0
 11
-9.5249939
 21
-33.6500015
 31
0.0
  0
LINE
  5
1C3
330
1E
100
AcDbEntity
  8
0
 62
     7
100
AcDbLine
 10
13.47500609999999
 20
-34.1500015
 30
0.0
 11
13.47500609999999
 21
-33.6500015
 31
0.0
  0
LINE
  5
1C4
330
1E
100
AcDbEntity
  8
0
 62
     7
100
AcDbLine
 10
7.275006099999999
 20
-40.5500015
 30
0.0
 11
7.275006099999999
 21
-37.1500015
 31
0.0
  0
LINE
  5
1C5
330
1E
100
AcDbEntity
  8
0
 62
     7
100
AcDbLine
 10
-1.624993899999999
 20
-40.5500015
 30
0.0
 11
-1.624993899999999
 21
-37.1500015
 31
0.0
  0
LINE
  5
1C6
330
1E
100
AcDbEntity
  8
0
 62
     7
100
AcDbLine
 10
-1.524993899999999
 20
-40.1500015
 30
0.0
 11
-1.524993899999999
 21
-37.4562118
 31
0.0
  0
LINE
  5
1C7
330
1E
100
AcDbEntity
  8
0
 62
     7
100
AcDbLine
 10
5.475006099999999
 20
-40.1500015
 30
0.0
 11
5.475006099999999
 21
-37.1500015
 31
0.0
  0
LINE
  5
1C8
330
1E
100
AcDbEntity
  8
0
 62
     7
100
AcDbLine
 10
1.9750061
 20
-37.1500015
 30
0.0
 11
-1.524993899999999
 21
-37.4562118
 31
0.0
  0
LINE
  5
1C9
330
1E
100
AcDbEntity
  8
0
 62
     7
100
AcDbLine
 10
4.600884289999999
 20
-20.9500015
 30
0.0
 11
4.38396349
 21
-21.7542793
 31
0.0
  0
LINE
  5
1CA
330
1E
100
AcDbEntity
  8
0
 62
     7
100
AcDbLine
 10
6.679345289999999
 20
-20.9500015
 30
0.0
 11
7.588399929999999
 21
-21.7542793
 31
0.0
  0
LINE
  5
1CB
330
1E
100
AcDbEntity
  8
0
 62
     7
100
AcDbLine
 10
-0.650872087
 20
-20.9500015
 30
0.0
 11
-0.433951287
 21
-21.7542793
 31
0.0
  0
LINE
  5
1CC
330
1E
100
AcDbEntity
  8
0
 62
     7
100
AcDbLine
 10
-2.729333079999999
 20
-20.9500015
 30
0.0
 11
-3.638387719999999
 21
-21.7542793
 31
0.0
  0
LINE
  5
1CD
330
1E
100
AcDbEntity
  8
0
 62
     7
100
AcDbLine
 10
2.475006099999999
 20
-55.6500015
 30
0.0
 11
9.975006099999999
 21
-55.6500015
 31
0.0
  0
LINE
  5
1CE
330
1E
100
AcDbEntity
  8
0
 62
     7
100
AcDbLine
 10
2.475006099999999
 20
-55.6500015
 30
0.0
 11
2.475006099999999
 21
-55.1249387
 31
0.0
  0
LINE
  5
1CF
330
1E
100
AcDbEntity
  8
0
 62
     7
100
AcDbLine
 10
5.54572032
 20
-53.6500015
 30
0.0
 11
9.975006099999999
 21
-53.6500015
 31
0.0
  0
LINE
  5
1D0
330
1E
100
AcDbEntity
  8
0
 62
     7
100
AcDbLine
 10
9.975006099999999
 20
-55.6500015
 30
0.0
 11
9.975006099999999
 21
-53.6500015
 31
0.0
  0
LINE
  5
1D1
330
1E
100
AcDbEntity
  8
0
 62
     7
100
AcDbLine
 10
9.975006099999999
 20
-46.6500015
 30
0.0
 11
9.975006099999999
 21
-44.6500015
 31
0.0
  0
LINE
  5
1D2
330
1E
100
AcDbEntity
  8
0
 62
     7
100
AcDbLine
 10
2.475006099999999
 20
-44.6500015
 30
0.0
 11
9.975006099999999
 21
-44.6500015
 31
0.0
  0
LINE
  5
1D3
330
1E
100
AcDbEntity
  8
0
 62
     7
100
AcDbLine
 10
2.475006099999999
 20
-45.1750643
 30
0.0
 11
2.475006099999999
 21
-44.6500015
 31
0.0
  0
LINE
  5
1D4
330
1E
100
AcDbEntity
  8
0
 62
     7
100
AcDbLine
 10
5.54572032
 20
-46.6500015
 30
0.0
 11
9.975006099999999
 21
-46.6500015
 31
0.0
  0
LINE
  5
1D5
330
1E
100
AcDbEntity
  8
0
 62
     7
100
AcDbLine
 10
2.969993539999999
 20
-45.2500015
 30
0.0
 11
5.240646889999999
 21
-45.2500015
 31
0.0
  0
LINE
  5
1D6
330
1E
100
AcDbEntity
  8
0
 62
     7
100
AcDbLine
 10
5.240646889999999
 20
-46.3637646
 30
0.0
 11
5.240646889999999
 21
-45.2500015
 31
0.0
  0
LINE
  5
1D7
330
1E
100
AcDbEntity
  8
0
 62
     7
100
AcDbLine
 10
5.240646889999999
 20
-55.0500015
 30
0.0
 11
5.240646889999999
 21
-53.9362385
 31
0.0
  0
LINE
  5
1D8
330
1E
100
AcDbEntity
  8
0
 62
     7
100
AcDbLine
 10
2.969993539999999
 20
-55.0500015
 30
0.0
 11
5.240646889999999
 21
-55.0500015
 31
0.0
  0
LINE
  5
1D9
330
1E
100
AcDbEntity
  8
0
 62
     7
100
AcDbLine
 10
-6.0249939
 20
-53.1500015
 30
0.0
 11
-2.0249939
 21
-53.1500015
 31
0.0
  0
LINE
  5
1DA
330
1E
100
AcDbEntity
  8
0
 62
     7
100
AcDbLine
 10
-6.0249939
 20
-54.1500015
 30
0.0
 11
-6.0249939
 21
-53.1500015
 31
0.0
  0
ARC
  5
1DB
330
1E
100
AcDbEntity
  8
0
 62
     7
100
AcDbCircle
 10
-1.859353109999999
 20
-50.1500015
 30
0.0
 40
4.9
100
AcDbArc
 50
217.752002
 51
234.718738
  0
LINE
  5
1DC
330
1E
100
AcDbEntity
  8
0
 62
     7
100
AcDbLine
 10
-6.0249939
 20
-46.1500015
 30
0.0
 11
-1.024993899999999
 21
-46.1500015
 31
0.0
  0
LINE
  5
1DD
330
1E
100
AcDbEntity
  8
0
 62
     7
100
AcDbLine
 10
-6.0249939
 20
-47.1500015
 30
0.0
 11
-6.0249939
 21
-46.1500015
 31
0.0
  0
ARC
  5
1DE
330
1E
100
AcDbEntity
  8
0
 62
     7
100
AcDbCircle
 10
-1.859353109999999
 20
-50.1500015
 30
0.0
 40
4.9
100
AcDbArc
 50
125.281262
 51
142.247999
  0
ARC
  5
1DF
330
1E
100
AcDbEntity
  8
0
 62
     7
100
AcDbCircle
 10
-1.859353109999999
 20
-50.1500015
 30
0.0
 40
3.7
100
AcDbArc
 50
90.00000020000001
 51
125.824774
  0
LINE
  5
1E0
330
1E
100
AcDbEntity
  8
0
 62
     7
100
AcDbLine
 10
-6.0249939
 20
-47.1500015
 30
0.0
 11
-2.0249939
 21
-47.1500015
 31
0.0
  0
LINE
  5
1E1
330
1E
100
AcDbEntity
  8
0
 62
     7
100
AcDbLine
 10
-1.859353109999999
 20
-46.4500015
 30
0.0
 11
-1.388028239999999
 21
-46.4500015
 31
0.0
  0
LINE
  5
1E2
330
1E
100
AcDbEntity
  8
0
 62
     7
100
AcDbLine
 10
-6.0249939
 20
-54.1500015
 30
0.0
 11
-1.024993899999999
 21
-54.1500015
 31
0.0
  0
ARC
  5
1E3
330
1E
100
AcDbEntity
  8
0
 62
     7
100
AcDbCircle
 10
-1.859353109999999
 20
-50.1500015
 30
0.0
 40
3.7
100
AcDbArc
 50
234.175225
 51
270.0
  0
LINE
  5
1E4
330
1E
100
AcDbEntity
  8
0
 62
     7
100
AcDbLine
 10
-1.859353109999999
 20
-53.8500015
 30
0.0
 11
-1.388028239999999
 21
-53.8500015
 31
0.0
  0
LINE
  5
1E5
330
1E
100
AcDbEntity
  8
0
 62
     7
100
AcDbLine
 10
-9.5249939
 20
-49.1500015
 30
0.0
 11
-4.0249939
 21
-49.1500015
 31
0.0
  0
LINE
  5
1E6
330
1E
100
AcDbEntity
  8
0
 62
     7
100
AcDbLine
 10
-8.5249939
 20
-51.1500015
 30
0.0
 11
-8.5249939
 21
-49.1500015
 31
0.0
  0
LINE
  5
1E7
330
1E
100
AcDbEntity
  8
0
 62
     7
100
AcDbLine
 10
-7.390993899999999
 20
-51.1500015
 30
0.0
 11
-7.390993899999999
 21
-49.1500015
 31
0.0
  0
ARC
  5
1E8
330
1E
100
AcDbEntity
  8
0
 62
     7
100
AcDbCircle
 10
-1.859353109999999
 20
-50.1500015
 30
0.0
 40
4.9
100
AcDbArc
 50
168.2242559999999
 51
192.479285
  0
ARC
  5
1E9
330
1E
100
AcDbEntity
  8
0
 62
     7
100
AcDbCircle
 10
-1.859353109999999
 20
-50.1500015
 30
0.0
 40
3.7
100
AcDbArc
 50
164.3196499999999
 51
195.6803499999999
  0
LINE
  5
1EA
330
1E
100
AcDbEntity
  8
0
 62
     7
100
AcDbLine
 10
-4.0249939
 20
-51.1500015
 30
0.0
 11
-4.0249939
 21
-49.1500015
 31
0.0
  0
LINE
  5
1EB
330
1E
100
AcDbEntity
  8
0
 62
     7
100
AcDbLine
 10
-6.377791939999999
 20
-51.1500015
 30
0.0
 11
-4.0249939
 21
-51.1500015
 31
0.0
  0
LINE
  5
1EC
330
1E
100
AcDbEntity
  8
0
 62
     7
100
AcDbLine
 10
-9.5249939
 20
-51.1500015
 30
0.0
 11
-6.377791939999999
 21
-51.1500015
 31
0.0
  0
LINE
  5
1ED
330
1E
100
AcDbEntity
  8
0
 62
     7
100
AcDbLine
 10
4.847287429999999
 20
-25.1500015
 30
0.0
 11
6.09811173
 21
-25.6500015
 31
0.0
  0
LINE
  5
1EE
330
1E
100
AcDbEntity
  8
0
 62
     7
100
AcDbLine
 10
-0.89727522
 20
-25.1500015
 30
0.0
 11
-2.14809952
 21
-25.6500015
 31
0.0
  0
LINE
  5
1EF
330
1E
100
AcDbEntity
  8
0
 62
     7
100
AcDbLine
 10
6.09811173
 20
-32.6500015
 30
0.0
 11
6.09811173
 21
-25.6500015
 31
0.0
  0
LINE
  5
1F0
330
1E
100
AcDbEntity
  8
0
 62
     7
100
AcDbLine
 10
-2.14809952
 20
-32.6500015
 30
0.0
 11
-2.14809952
 21
-25.6500015
 31
0.0
  0
LINE
  5
1F1
330
1E
100
AcDbEntity
  8
0
 62
     7
100
AcDbLine
 10
6.09811173
 20
-32.1500015
 30
0.0
 11
10.47500609999999
 21
-32.1500015
 31
0.0
  0
LINE
  5
1F2
330
1E
100
AcDbEntity
  8
0
 62
     7
100
AcDbLine
 10
6.09811173
 20
-25.6500015
 30
0.0
 11
10.97500609999999
 21
-25.6500015
 31
0.0
  0
LINE
  5
1F3
330
1E
100
AcDbEntity
  8
0
 62
     2
100
AcDbLine
 10
-2.14809952
 20
-25.6500015
 30
0.0
 11
6.09811173
 21
-32.6500015
 31
0.0
  0
LINE
  5
1F4
330
1E
100
AcDbEntity
  8
0
 62
     2
100
AcDbLine
 10
-2.14809952
 20
-32.6500015
 30
0.0
 11
6.09811173
 21
-25.6500015
 31
0.0
  0
LINE
  5
1F5
330
1E
100
AcDbEntity
  8
0
  6
PHANTOM
 62
     6
100
AcDbLine
 10
-14.04947179999999
 20
-55.1561029
 30
0.0
 11
-14.5249939
 21
-55.1561029
 31
0.0
  0
ARC
  5
1F6
330
1E
100
AcDbEntity
  8
0
  6
PHANTOM
 62
     6
100
AcDbCircle
 10
-14.5249939
 20
-55.6561029
 30
0.0
 40
0.5
100
AcDbArc
 50
90.00000020000001
 51
180.0
  0
ARC
  5
1F7
330
1E
100
AcDbEntity
  8
0
  6
PHANTOM
 62
     6
100
AcDbCircle
 10
-14.5249939
 20
-44.6439002
 30
0.0
 40
0.5
100
AcDbArc
 50
180.0
 51
270.0
  0
LINE
  5
1F8
330
1E
100
AcDbEntity
  8
0
  6
PHANTOM
 62
     6
100
AcDbLine
 10
-14.04947179999999
 20
-45.1439002
 30
0.0
 11
-14.5249939
 21
-45.1439002
 31
0.0
  0
LINE
  5
1F9
330
1E
100
AcDbEntity
  8
0
  6
PHANTOM
 62
     6
100
AcDbLine
 10
-12.5249939
 20
-45.7774835
 30
0.0
 11
-14.04947179999999
 21
-45.1439002
 31
0.0
  0
LINE
  5
1FA
330
1E
100
AcDbEntity
  8
0
  6
PHANTOM
 62
     6
100
AcDbLine
 10
-12.5249939
 20
-54.5226869
 30
0.0
 11
-14.02499539999999
 21
-55.1555637
 31
0.0
  0
LINE
  5
1FB
330
1E
100
AcDbEntity
  8
0
  6
PHANTOM
 62
     6
100
AcDbLine
 10
-12.5249939
 20
-45.20716479999999
 30
0.0
 11
-12.5249939
 21
-55.0930634
 31
0.0
  0
LINE
  5
1FC
330
1E
100
AcDbEntity
  8
0
  6
PHANTOM
 62
     6
100
AcDbLine
 10
-14.04947179999999
 20
-45.1439002
 30
0.0
 11
-9.5249939
 21
-45.2852912
 31
0.0
  0
LINE
  5
1FD
330
1E
100
AcDbEntity
  8
0
  6
PHANTOM
 62
     6
100
AcDbLine
 10
-12.5249939
 20
-45.7774835
 30
0.0
 11
-9.5249939
 21
-45.8712342
 31
0.0
  0
LINE
  5
1FE
330
1E
100
AcDbEntity
  8
0
  6
PHANTOM
 62
     6
100
AcDbLine
 10
-12.5249939
 20
-54.5226869
 30
0.0
 11
-9.5249939
 21
-54.4289376
 31
0.0
  0
LINE
  5
1FF
330
1E
100
AcDbEntity
  8
0
  6
PHANTOM
 62
     6
100
AcDbLine
 10
-14.02499539999999
 20
-55.1555637
 30
0.0
 11
-9.5249939
 21
-55.01493979999999
 31
0.0
  0
LINE
  5
200
330
1E
100
AcDbEntity
  8
0
  6
PHANTOM
 62
     6
100
AcDbLine
 10
-19.0249939
 20
-55.0166519
 30
0.0
 11
-19.0249939
 21
-59.1500015
 31
0.0
  0
LINE
  5
201
330
1E
100
AcDbEntity
  8
0
  6
PHANTOM
 62
     6
100
AcDbLine
 10
-15.0249939
 20
-54.27310720000001
 30
0.0
 11
-19.0249939
 21
-54.27310720000001
 31
0.0
  0
LINE
  5
202
330
1E
100
AcDbEntity
  8
0
  6
PHANTOM
 62
     6
100
AcDbLine
 10
-15.0249939
 20
-55.0166519
 30
0.0
 11
-19.0249939
 21
-55.0166519
 31
0.0
  0
LINE
  5
203
330
1E
100
AcDbEntity
  8
0
  6
PHANTOM
 62
     6
100
AcDbLine
 10
-19.0249939
 20
-45.28335109999999
 30
0.0
 11
-19.0249939
 21
-41.1500015
 31
0.0
  0
LINE
  5
204
330
1E
100
AcDbEntity
  8
0
  6
PHANTOM
 62
     6
100
AcDbLine
 10
-15.0249939
 20
-46.02689589999999
 30
0.0
 11
-19.0249939
 21
-46.02689589999999
 31
0.0
  0
LINE
  5
205
330
1E
100
AcDbEntity
  8
0
  6
PHANTOM
 62
     6
100
AcDbLine
 10
-15.0249939
 20
-45.28335109999999
 30
0.0
 11
-19.0249939
 21
-45.28335109999999
 31
0.0
  0
LINE
  5
206
330
1E
100
AcDbEntity
  8
0
  6
PHANTOM
 62
     6
100
AcDbLine
 10
-28.0087493
 20
-45.1136338
 30
0.0
 11
-28.0087493
 21
-44.9747153
 31
0.0
  0
ARC
  5
207
330
1E
100
AcDbEntity
  8
0
  6
PHANTOM
 62
     6
100
AcDbCircle
 10
-27.1249939
 20
-54.88205229999999
 30
0.0
 40
1.0
100
AcDbArc
 50
180.0
 51
210.0
  0
LINE
  5
208
330
1E
100
AcDbEntity
  8
0
  6
PHANTOM
 62
     6
100
AcDbLine
 10
-27.9910193
 20
-55.38205229999999
 30
0.0
 11
-26.10426799999999
 21
-58.6500015
 31
0.0
  0
ARC
  5
209
330
1E
100
AcDbEntity
  8
0
  6
PHANTOM
 62
     6
100
AcDbCircle
 10
-25.2382426
 20
-58.1500015
 30
0.0
 40
1.0
100
AcDbArc
 50
210.0
 51
270.0
  0
LINE
  5
20A
330
1E
100
AcDbEntity
  8
0
  6
PHANTOM
 62
     6
100
AcDbLine
 10
-19.52499389999999
 20
-59.1500015
 30
0.0
 11
-19.52499389999999
 21
-41.1500015
 31
0.0
  0
LINE
  5
20B
330
1E
100
AcDbEntity
  8
0
  6
PHANTOM
 62
     6
100
AcDbLine
 10
-19.0249939
 20
-54.27310720000001
 30
0.0
 11
-19.0249939
 21
-46.02689589999999
 31
0.0
  0
ARC
  5
20C
330
1E
100
AcDbEntity
  8
0
  6
PHANTOM
 62
     6
100
AcDbCircle
 10
-27.1249939
 20
-45.4179507
 30
0.0
 40
1.0
100
AcDbArc
 50
150.0
 51
180.0
  0
ARC
  5
20D
330
1E
100
AcDbEntity
  8
0
  6
PHANTOM
 62
     6
100
AcDbCircle
 10
-25.2382426
 20
-42.1500015
 30
0.0
 40
1.0
100
AcDbArc
 50
90.00000020000001
 51
150.0
  0
LINE
  5
20E
330
1E
100
AcDbEntity
  8
0
  6
PHANTOM
 62
     6
100
AcDbLine
 10
-27.9910193
 20
-44.91795070000001
 30
0.0
 11
-26.10426799999999
 21
-41.6500015
 31
0.0
  0
LINE
  5
20F
330
1E
100
AcDbEntity
  8
0
  6
PHANTOM
 62
     6
100
AcDbLine
 10
-28.1249939
 20
-54.88205229999999
 30
0.0
 11
-28.1249939
 21
-45.4179507
 31
0.0
  0
LINE
  5
210
330
1E
100
AcDbEntity
  8
0
  6
PHANTOM
 62
     6
100
AcDbLine
 10
-15.0249939
 20
-59.1500015
 30
0.0
 11
-15.0249939
 21
-41.1500015
 31
0.0
  0
LINE
  5
211
330
1E
100
AcDbEntity
  8
0
  6
PHANTOM
 62
     6
100
AcDbLine
 10
-15.0249939
 20
-59.1500015
 30
0.0
 11
-25.2382426
 21
-59.1500015
 31
0.0
  0
LINE
  5
212
330
1E
100
AcDbEntity
  8
0
  6
PHANTOM
 62
     6
100
AcDbLine
 10
-15.0249939
 20
-41.1500015
 30
0.0
 11
-25.2382426
 21
-41.1500015
 31
0.0
  0
ARC
  5
213
330
1E
100
AcDbEntity
  8
0
 62
     7
100
AcDbCircle
 10
12.4750061
 20
-60.6500015
 30
0.0
 40
1.0
100
AcDbArc
 50
270.0
 51
0.0
  0
ARC
  5
214
330
1E
100
AcDbEntity
  8
0
 62
     7
100
AcDbCircle
 10
-8.5249939
 20
-60.6500015
 30
0.0
 40
1.0
100
AcDbArc
 50
180.0
 51
270.0
  0
LINE
  5
215
330
1E
100
AcDbEntity
  8
0
 62
     7
100
AcDbLine
 10
13.47500609999999
 20
-65.9500015
 30
0.0
 11
13.47500609999999
 21
-34.1500015
 31
0.0
  0
LINE
  5
216
330
1E
100
AcDbEntity
  8
0
 62
     7
100
AcDbLine
 10
-9.5249939
 20
-65.9500015
 30
0.0
 11
-9.5249939
 21
-34.1500015
 31
0.0
  0
LINE
  5
217
330
1E
100
AcDbEntity
  8
0
 62
     7
100
AcDbLine
 10
5.475006099999999
 20
-62.8437912
 30
0.0
 11
5.475006099999999
 21
-60.1500015
 31
0.0
  0
LINE
  5
218
330
1E
100
AcDbEntity
  8
0
 62
     7
100
AcDbLine
 10
-1.524993899999999
 20
-63.1500015
 30
0.0
 11
-1.524993899999999
 21
-60.1500015
 31
0.0
  0
LINE
  5
219
330
1E
100
AcDbEntity
  8
0
 62
     7
100
AcDbLine
 10
-3.324993899999999
 20
-63.1500015
 30
0.0
 11
-3.324993899999999
 21
-59.7500015
 31
0.0
  0
LINE
  5
21A
330
1E
100
AcDbEntity
  8
0
 62
     7
100
AcDbLine
 10
5.5750061
 20
-63.1500015
 30
0.0
 11
5.5750061
 21
-59.7500015
 31
0.0
  0
LINE
  5
21B
330
1E
100
AcDbEntity
  8
0
  6
CENTER
 62
     2
100
AcDbLine
 10
1.9750061
 20
-81.5774425
 30
0.0
 11
1.9750061
 21
-4.28894685
 31
0.0
  0
LINE
  5
21C
330
1E
100
AcDbEntity
  8
0
  6
CENTER
 62
     2
100
AcDbLine
 10
-104.08063
 20
24.84999849999999
 30
0.0
 11
-51.94174249999999
 21
24.84999849999999
 31
0.0
  0
ARC
  5
21D
330
1E
100
AcDbEntity
  8
0
 62
     7
100
AcDbCircle
 10
-78.0249939
 20
24.8499984
 30
0.0
 40
8.145386999999999
100
AcDbArc
 50
317.202216
 51
342.797785
  0
LINE
  5
21E
330
1E
100
AcDbEntity
  8
0
 62
     7
100
AcDbLine
 10
-72.3529199
 20
20.1895844
 30
0.0
 11
-72.04826609999999
 21
19.31591719999999
 31
0.0
  0
LINE
  5
21F
330
1E
100
AcDbEntity
  8
0
 62
     7
100
AcDbLine
 10
-72.65255709999999
 20
20.3625801
 30
0.0
 11
-72.04826609999999
 21
19.31591719999999
 31
0.0
  0
LINE
  5
220
330
1E
100
AcDbEntity
  8
0
 62
     7
100
AcDbLine
 10
-72.65255709999999
 20
20.3625801
 30
0.0
 11
-72.3529199
 21
20.1895844
 31
0.0
  0
ARC
  5
221
330
1E
100
AcDbEntity
  8
0
 62
     7
100
AcDbCircle
 10
-78.0249939
 20
24.8499984
 30
0.0
 40
7.0
100
AcDbArc
 50
320.1291109999999
 51
339.8708899999999
  0
ARC
  5
222
330
1E
100
AcDbEntity
  8
0
 62
     7
100
AcDbCircle
 10
-78.0249939
 20
24.8499984
 30
0.0
 40
7.341109
100
AcDbArc
 50
320.59204
 51
339.4079619999999
  0
LINE
  5
223
330
1E
100
AcDbEntity
  8
0
 62
     7
100
AcDbLine
 10
-71.45255709999999
 20
22.4410411
 30
0.0
 11
-71.1529199
 21
22.26804539999999
 31
0.0
  0
LINE
  5
224
330
1E
100
AcDbEntity
  8
0
 62
     7
100
AcDbLine
 10
-71.45255709999999
 20
22.4410411
 30
0.0
 11
-70.243975
 21
22.441041
 31
0.0
  0
LINE
  5
225
330
1E
100
AcDbEntity
  8
0
 62
     7
100
AcDbLine
 10
-71.1529199
 20
22.26804539999999
 30
0.0
 11
-70.243975
 21
22.441041
 31
0.0
  0
ARC
  5
226
330
1E
100
AcDbEntity
  8
0
 62
     7
100
AcDbCircle
 10
-78.0249939
 20
24.8499984
 30
0.0
 40
8.145386999999999
100
AcDbArc
 50
257.202216
 51
282.797785
  0
LINE
  5
227
330
1E
100
AcDbEntity
  8
0
 62
     7
100
AcDbLine
 10
-79.22499379999999
 20
17.60763129999999
 30
0.0
 11
-79.8292849
 21
16.90695969999999
 31
0.0
  0
LINE
  5
228
330
1E
100
AcDbEntity
  8
0
 62
     7
100
AcDbLine
 10
-79.22499379999999
 20
17.9536225
 30
0.0
 11
-79.8292849
 21
16.90695969999999
 31
0.0
  0
LINE
  5
229
330
1E
100
AcDbEntity
  8
0
 62
     7
100
AcDbLine
 10
-79.22499379999999
 20
17.9536225
 30
0.0
 11
-79.22499379999999
 21
17.60763129999999
 31
0.0
  0
ARC
  5
22A
330
1E
100
AcDbEntity
  8
0
 62
     7
100
AcDbCircle
 10
-78.0249939
 20
24.8499984
 30
0.0
 40
7.0
100
AcDbArc
 50
260.1291109999999
 51
279.870891
  0
ARC
  5
22B
330
1E
100
AcDbEntity
  8
0
 62
     7
100
AcDbCircle
 10
-78.0249939
 20
24.8499984
 30
0.0
 40
7.341109
100
AcDbArc
 50
260.59204
 51
279.407962
  0
LINE
  5
22C
330
1E
100
AcDbEntity
  8
0
 62
     7
100
AcDbLine
 10
-76.8249938
 20
17.9536226
 30
0.0
 11
-76.8249938
 21
17.60763129999999
 31
0.0
  0
LINE
  5
22D
330
1E
100
AcDbEntity
  8
0
 62
     7
100
AcDbLine
 10
-76.8249938
 20
17.9536226
 30
0.0
 11
-76.22070279999999
 21
16.9069598
 31
0.0
  0
LINE
  5
22E
330
1E
100
AcDbEntity
  8
0
 62
     7
100
AcDbLine
 10
-76.8249938
 20
17.60763129999999
 30
0.0
 11
-76.22070279999999
 21
16.9069598
 31
0.0
  0
ARC
  5
22F
330
1E
100
AcDbEntity
  8
0
 62
     7
100
AcDbCircle
 10
-78.02499399999999
 20
24.84999849999999
 30
0.0
 40
8.145386999999999
100
AcDbArc
 50
197.202216
 51
222.797785
  0
LINE
  5
230
330
1E
100
AcDbEntity
  8
0
 62
     7
100
AcDbLine
 10
-84.89706789999999
 20
22.2680453
 30
0.0
 11
-85.80601280000001
 21
22.441041
 31
0.0
  0
LINE
  5
231
330
1E
100
AcDbEntity
  8
0
 62
     7
100
AcDbLine
 10
-84.59743059999999
 20
22.441041
 30
0.0
 11
-85.80601280000001
 21
22.441041
 31
0.0
  0
LINE
  5
232
330
1E
100
AcDbEntity
  8
0
 62
     7
100
AcDbLine
 10
-84.59743059999999
 20
22.441041
 30
0.0
 11
-84.89706789999999
 21
22.2680453
 31
0.0
  0
ARC
  5
233
330
1E
100
AcDbEntity
  8
0
 62
     7
100
AcDbCircle
 10
-78.02499399999999
 20
24.84999849999999
 30
0.0
 40
7.0
100
AcDbArc
 50
200.129111
 51
219.8708899999999
  0
ARC
  5
234
330
1E
100
AcDbEntity
  8
0
 62
     7
100
AcDbCircle
 10
-78.02499399999999
 20
24.84999849999999
 30
0.0
 40
7.341109
100
AcDbArc
 50
200.5920399999999
 51
219.407962
  0
LINE
  5
235
330
1E
100
AcDbEntity
  8
0
 62
     7
100
AcDbLine
 10
-83.39743059999999
 20
20.36257999999999
 30
0.0
 11
-83.69706779999999
 21
20.1895844
 31
0.0
  0
LINE
  5
236
330
1E
100
AcDbEntity
  8
0
 62
     7
100
AcDbLine
 10
-83.39743059999999
 20
20.36257999999999
 30
0.0
 11
-84.00172170000001
 21
19.31591719999999
 31
0.0
  0
LINE
  5
237
330
1E
100
AcDbEntity
  8
0
 62
     7
100
AcDbLine
 10
-83.69706779999999
 20
20.1895844
 30
0.0
 11
-84.00172170000001
 21
19.31591719999999
 31
0.0
  0
ARC
  5
238
330
1E
100
AcDbEntity
  8
0
 62
     7
100
AcDbCircle
 10
-78.0249939
 20
24.8499986
 30
0.0
 40
8.145386999999999
100
AcDbArc
 50
137.2022169999999
 51
162.797785
  0
LINE
  5
239
330
1E
100
AcDbEntity
  8
0
 62
     7
100
AcDbLine
 10
-83.6970679
 20
29.5104125
 30
0.0
 11
-84.00172170000001
 21
30.3840797
 31
0.0
  0
LINE
  5
23A
330
1E
100
AcDbEntity
  8
0
 62
     7
100
AcDbLine
 10
-83.3974307
 20
29.3374169
 30
0.0
 11
-84.00172170000001
 21
30.3840797
 31
0.0
  0
LINE
  5
23B
330
1E
100
AcDbEntity
  8
0
 62
     7
100
AcDbLine
 10
-83.3974307
 20
29.3374169
 30
0.0
 11
-83.6970679
 21
29.5104125
 31
0.0
  0
ARC
  5
23C
330
1E
100
AcDbEntity
  8
0
 62
     7
100
AcDbCircle
 10
-78.0249939
 20
24.84999849999999
 30
0.0
 40
7.0
100
AcDbArc
 50
140.129111
 51
159.87089
  0
ARC
  5
23D
330
1E
100
AcDbEntity
  8
0
 62
     7
100
AcDbCircle
 10
-78.0249939
 20
24.8499986
 30
0.0
 40
7.341109
100
AcDbArc
 50
140.592039
 51
159.407962
  0
LINE
  5
23E
330
1E
100
AcDbEntity
  8
0
 62
     7
100
AcDbLine
 10
-84.59743059999999
 20
27.2589559
 30
0.0
 11
-84.89706789999999
 21
27.4319515
 31
0.0
  0
LINE
  5
23F
330
1E
100
AcDbEntity
  8
0
 62
     7
100
AcDbLine
 10
-84.59743059999999
 20
27.2589559
 30
0.0
 11
-85.80601280000001
 21
27.2589559
 31
0.0
  0
LINE
  5
240
330
1E
100
AcDbEntity
  8
0
 62
     7
100
AcDbLine
 10
-84.89706789999999
 20
27.4319515
 30
0.0
 11
-85.80601280000001
 21
27.2589559
 31
0.0
  0
ARC
  5
241
330
1E
100
AcDbEntity
  8
0
 62
     7
100
AcDbCircle
 10
-78.0249939
 20
24.8499986
 30
0.0
 40
8.145386999999999
100
AcDbArc
 50
77.20221659999999
 51
102.797785
  0
LINE
  5
242
330
1E
100
AcDbEntity
  8
0
 62
     7
100
AcDbLine
 10
-76.8249939
 20
32.0923657
 30
0.0
 11
-76.2207029
 21
32.7930372
 31
0.0
  0
LINE
  5
243
330
1E
100
AcDbEntity
  8
0
 62
     7
100
AcDbLine
 10
-76.8249939
 20
31.7463744
 30
0.0
 11
-76.2207029
 21
32.7930372
 31
0.0
  0
LINE
  5
244
330
1E
100
AcDbEntity
  8
0
 62
     7
100
AcDbLine
 10
-76.8249939
 20
31.7463744
 30
0.0
 11
-76.8249939
 21
32.0923657
 31
0.0
  0
ARC
  5
245
330
1E
100
AcDbEntity
  8
0
 62
     7
100
AcDbCircle
 10
-78.0249939
 20
24.84999849999999
 30
0.0
 40
7.0
100
AcDbArc
 50
80.1291108
 51
99.8708901
  0
ARC
  5
246
330
1E
100
AcDbEntity
  8
0
 62
     7
100
AcDbCircle
 10
-78.0249939
 20
24.8499986
 30
0.0
 40
7.341109
100
AcDbArc
 50
80.5920395
 51
99.40796150000002
  0
LINE
  5
247
330
1E
100
AcDbEntity
  8
0
 62
     7
100
AcDbLine
 10
-79.2249939
 20
31.7463744
 30
0.0
 11
-79.2249939
 21
32.0923656
 31
0.0
  0
LINE
  5
248
330
1E
100
AcDbEntity
  8
0
 62
     7
100
AcDbLine
 10
-79.2249939
 20
31.7463744
 30
0.0
 11
-79.82928499999999
 21
32.7930372
 31
0.0
  0
LINE
  5
249
330
1E
100
AcDbEntity
  8
0
 62
     7
100
AcDbLine
 10
-79.2249939
 20
32.0923656
 30
0.0
 11
-79.82928499999999
 21
32.7930372
 31
0.0
  0
LINE
  5
24A
330
1E
100
AcDbEntity
  8
0
 62
     7
100
AcDbLine
 10
-71.1529199
 20
27.4319516
 30
0.0
 11
-70.243975
 21
27.258956
 31
0.0
  0
LINE
  5
24B
330
1E
100
AcDbEntity
  8
0
 62
     7
100
AcDbLine
 10
-72.35292
 20
29.5104126
 30
0.0
 11
-72.04826609999999
 21
30.3840798
 31
0.0
  0
ARC
  5
24C
330
1E
100
AcDbEntity
  8
0
 62
     7
100
AcDbCircle
 10
-78.02499379999999
 20
24.84999849999999
 30
0.0
 40
8.145386999999999
100
AcDbArc
 50
17.2022165
 51
42.7977847
  0
ARC
  5
24D
330
1E
100
AcDbEntity
  8
0
 62
     7
100
AcDbCircle
 10
-78.02499379999999
 20
24.84999849999999
 30
0.0
 40
7.341109
100
AcDbArc
 50
20.59203969999999
 51
39.4079617
  0
LINE
  5
24E
330
1E
100
AcDbEntity
  8
0
 62
     7
100
AcDbLine
 10
-81.48909549999999
 20
26.8499985
 30
0.0
 11
-81.2725891
 21
26.72499849999999
 31
0.0
  0
LINE
  5
24F
330
1E
100
AcDbEntity
  8
0
 62
     7
100
AcDbLine
 10
-81.48909549999999
 20
22.84999849999999
 30
0.0
 11
-81.2725891
 21
22.97499849999999
 31
0.0
  0
LINE
  5
250
330
1E
100
AcDbEntity
  8
0
 62
     7
100
AcDbLine
 10
-82.13861450000001
 20
22.4749985
 30
0.0
 11
-81.92210820000001
 21
22.59999849999999
 31
0.0
  0
LINE
  5
251
330
1E
100
AcDbEntity
  8
0
 62
     7
100
AcDbLine
 10
-82.13861450000001
 20
27.2249985
 30
0.0
 11
-81.92210809999998
 21
27.09999849999999
 31
0.0
  0
LINE
  5
252
330
1E
100
AcDbEntity
  8
0
 62
     7
100
AcDbLine
 10
-81.03019770000001
 20
21.84479469999999
 30
0.0
 11
-82.13861450000001
 21
22.4749985
 31
0.0
  0
LINE
  5
253
330
1E
100
AcDbEntity
  8
0
 62
     7
100
AcDbLine
 10
-81.03019770000001
 20
21.84479469999999
 30
0.0
 11
-81.2725891
 21
22.97499849999999
 31
0.0
  0
LINE
  5
254
330
1E
100
AcDbEntity
  8
0
 62
     7
100
AcDbLine
 10
-81.0301976
 20
27.85520229999999
 30
0.0
 11
-81.2725891
 21
26.72499849999999
 31
0.0
  0
LINE
  5
255
330
1E
100
AcDbEntity
  8
0
 62
     7
100
AcDbLine
 10
-81.0301976
 20
27.85520229999999
 30
0.0
 11
-82.13861450000001
 21
27.2249985
 31
0.0
  0
ARC
  5
256
330
1E
100
AcDbEntity
  8
0
 62
     7
100
AcDbCircle
 10
-78.02499379999999
 20
24.84999849999999
 30
0.0
 40
4.5
100
AcDbArc
 50
150.0
 51
209.999999
  0
ARC
  5
257
330
1E
100
AcDbEntity
  8
0
 62
     7
100
AcDbCircle
 10
-78.0249939
 20
24.84999849999999
 30
0.0
 40
4.0
100
AcDbArc
 50
150.0
 51
209.999999
  0
ARC
  5
258
330
1E
100
AcDbEntity
  8
0
 62
     7
100
AcDbCircle
 10
-78.0249939
 20
24.84999849999999
 30
0.0
 40
7.804277779999999
100
AcDbArc
 50
342.020818
 51
17.9791824
  0
ARC
  5
259
330
1E
100
AcDbEntity
  8
0
 62
     7
100
AcDbCircle
 10
-78.0249939
 20
24.84999849999999
 30
0.0
 40
7.804277779999999
100
AcDbArc
 50
282.020818
 51
317.979183
  0
ARC
  5
25A
330
1E
100
AcDbEntity
  8
0
 62
     7
100
AcDbCircle
 10
-78.0249939
 20
24.84999849999999
 30
0.0
 40
7.804277779999999
100
AcDbArc
 50
222.020818
 51
257.979182
  0
ARC
  5
25B
330
1E
100
AcDbEntity
  8
0
 62
     7
100
AcDbCircle
 10
-78.0249939
 20
24.84999849999999
 30
0.0
 40
7.804277779999999
100
AcDbArc
 50
162.0208189999999
 51
197.979182
  0
ARC
  5
25C
330
1E
100
AcDbEntity
  8
0
 62
     7
100
AcDbCircle
 10
-78.0249939
 20
24.84999849999999
 30
0.0
 40
7.804277779999999
100
AcDbArc
 50
102.020818
 51
137.979182
  0
ARC
  5
25D
330
1E
100
AcDbEntity
  8
0
 62
     7
100
AcDbCircle
 10
-78.0249939
 20
24.84999849999999
 30
0.0
 40
7.804277779999999
100
AcDbArc
 50
42.0208183
 51
77.97918229999999
  0
LINE
  5
25E
330
1E
100
AcDbEntity
  8
0
 62
     7
100
AcDbLine
 10
-71.4525572
 20
27.258956
 30
0.0
 11
-70.243975
 21
27.258956
 31
0.0
  0
LINE
  5
25F
330
1E
100
AcDbEntity
  8
0
 62
     7
100
AcDbLine
 10
-72.6525572
 20
29.337417
 30
0.0
 11
-72.04826609999999
 21
30.3840798
 31
0.0
  0
LINE
  5
260
330
1E
100
AcDbEntity
  8
0
 62
     7
100
AcDbLine
 10
-71.4525572
 20
27.258956
 30
0.0
 11
-71.1529199
 21
27.4319516
 31
0.0
  0
LINE
  5
261
330
1E
100
AcDbEntity
  8
0
 62
     7
100
AcDbLine
 10
-72.6525572
 20
29.337417
 30
0.0
 11
-72.35292
 21
29.5104126
 31
0.0
  0
ARC
  5
262
330
1E
100
AcDbEntity
  8
0
 62
     7
100
AcDbCircle
 10
-78.02499379999999
 20
24.84999849999999
 30
0.0
 40
7.0
100
AcDbArc
 50
20.12911099999999
 51
39.87089029999999
  0
CIRCLE
  5
263
330
1E
100
AcDbEntity
  8
0
 62
     7
100
AcDbCircle
 10
-78.0249939
 20
24.84999849999999
 30
0.0
 40
6.768093379999999
  0
CIRCLE
  5
264
330
1E
100
AcDbEntity
  8
0
 62
     7
100
AcDbCircle
 10
-78.0249939
 20
24.84999849999999
 30
0.0
 40
6.0
  0
CIRCLE
  5
265
330
1E
100
AcDbEntity
  8
0
 62
     7
100
AcDbCircle
 10
-78.0249939
 20
24.84999849999999
 30
0.0
 40
8.25
  0
LINE
  5
266
330
1E
100
AcDbEntity
  8
0
 62
     7
100
AcDbLine
 10
-92.02499389999999
 20
13.34999849999999
 30
0.0
 11
-64.0249939
 21
13.34999849999999
 31
0.0
  0
LINE
  5
267
330
1E
100
AcDbEntity
  8
0
 62
     7
100
AcDbLine
 10
-89.52499389999999
 20
16.34999849999999
 30
0.0
 11
-89.52499389999999
 21
33.34999849999999
 31
0.0
  0
LINE
  5
268
330
1E
100
AcDbEntity
  8
0
 62
     7
100
AcDbLine
 10
-93.02499389999999
 20
14.34999849999999
 30
0.0
 11
-93.02499389999999
 21
35.3499985
 31
0.0
  0
LINE
  5
269
330
1E
100
AcDbEntity
  8
0
 62
     7
100
AcDbLine
 10
-63.0249939
 20
14.34999849999999
 30
0.0
 11
-63.0249939
 21
35.3499985
 31
0.0
  0
ARC
  5
26A
330
1E
100
AcDbEntity
  8
0
 62
     7
100
AcDbCircle
 10
-86.5249939
 20
16.34999849999999
 30
0.0
 40
3.0
100
AcDbArc
 50
180.0
 51
270.0
  0
ARC
  5
26B
330
1E
100
AcDbEntity
  8
0
 62
     7
100
AcDbCircle
 10
-69.52499389999999
 20
16.34999849999999
 30
0.0
 40
3.0
100
AcDbArc
 50
270.0
 51
0.0
  0
ARC
  5
26C
330
1E
100
AcDbEntity
  8
0
 62
     7
100
AcDbCircle
 10
-69.52499389999999
 20
33.34999849999999
 30
0.0
 40
3.0
100
AcDbArc
 50
0.0
 51
90.00000020000001
  0
ARC
  5
26D
330
1E
100
AcDbEntity
  8
0
 62
     7
100
AcDbCircle
 10
-86.5249939
 20
33.34999849999999
 30
0.0
 40
3.0
100
AcDbArc
 50
90.00000020000001
 51
180.0
  0
ARC
  5
26E
330
1E
100
AcDbEntity
  8
0
 62
     7
100
AcDbCircle
 10
-92.02499389999999
 20
14.34999849999999
 30
0.0
 40
1.0
100
AcDbArc
 50
180.0
 51
270.0
  0
ARC
  5
26F
330
1E
100
AcDbEntity
  8
0
 62
     7
100
AcDbCircle
 10
-64.0249939
 20
35.3499985
 30
0.0
 40
1.0
100
AcDbArc
 50
0.0
 51
90.00000020000001
  0
ARC
  5
270
330
1E
100
AcDbEntity
  8
0
 62
     7
100
AcDbCircle
 10
-64.0249939
 20
14.34999849999999
 30
0.0
 40
1.0
100
AcDbArc
 50
270.0
 51
0.0
  0
ARC
  5
271
330
1E
100
AcDbEntity
  8
0
 62
     7
100
AcDbCircle
 10
-92.02499389999999
 20
35.3499985
 30
0.0
 40
1.0
100
AcDbArc
 50
90.00000020000001
 51
180.0
  0
LINE
  5
272
330
1E
100
AcDbEntity
  8
0
  6
CENTER
 62
     2
100
AcDbLine
 10
-78.0249939
 20
11.8828212
 30
0.0
 11
-78.0249939
 21
37.4860666
 31
0.0
  0
LINE
  5
273
330
1E
100
AcDbEntity
  8
0
 62
     7
100
AcDbLine
 10
-56.4178142
 20
29.7999985
 30
0.0
 11
-63.0249939
 21
29.7999985
 31
0.0
  0
LINE
  5
274
330
1E
100
AcDbEntity
  8
0
 62
     7
100
AcDbLine
 10
-55.7249939
 20
29.39999849999999
 30
0.0
 11
-56.4178142
 21
29.7999985
 31
0.0
  0
LINE
  5
275
330
1E
100
AcDbEntity
  8
0
 62
     7
100
AcDbLine
 10
-56.4178142
 20
19.8999985
 30
0.0
 11
-63.0249939
 21
19.8999985
 31
0.0
  0
LINE
  5
276
330
1E
100
AcDbEntity
  8
0
 62
     7
100
AcDbLine
 10
-55.7249939
 20
20.29999849999999
 30
0.0
 11
-56.4178142
 21
19.8999985
 31
0.0
  0
LINE
  5
277
330
1E
100
AcDbEntity
  8
0
 62
     7
100
AcDbLine
 10
-55.7249939
 20
29.39999849999999
 30
0.0
 11
-55.7249939
 21
20.29999849999999
 31
0.0
  0
LINE
  5
278
330
1E
100
AcDbEntity
  8
0
 62
     7
100
AcDbLine
 10
-55.1249939
 20
28.8839731
 30
0.0
 11
-55.1249939
 21
20.8160239
 31
0.0
  0
LINE
  5
279
330
1E
100
AcDbEntity
  8
0
 62
     7
100
AcDbLine
 10
-54.6249939
 20
29.7499985
 30
0.0
 11
-54.6249939
 21
19.9499985
 31
0.0
  0
LINE
  5
27A
330
1E
100
AcDbEntity
  8
0
 62
     7
100
AcDbLine
 10
-53.62499389999999
 20
20.1499985
 30
0.0
 11
-53.62499389999999
 21
29.5499985
 31
0.0
  0
LINE
  5
27B
330
1E
100
AcDbEntity
  8
0
  6
DASHED
 62
     2
100
AcDbLine
 10
-53.62499389999999
 20
27.8499985
 30
0.0
 11
-56.7249939
 21
27.8499985
 31
0.0
  0
ARC
  5
27C
330
1E
100
AcDbEntity
  8
0
 62
     7
100
AcDbCircle
 10
-53.8249939
 20
29.5499985
 30
0.0
 40
0.2
100
AcDbArc
 50
0.0
 51
90.00000020000001
  0
LINE
  5
27D
330
1E
100
AcDbEntity
  8
0
 62
     7
100
AcDbLine
 10
-53.8249939
 20
29.7499985
 30
0.0
 11
-54.6249939
 21
29.7499985
 31
0.0
  0
LINE
  5
27E
330
1E
100
AcDbEntity
  8
0
 62
     7
100
AcDbLine
 10
-54.6249939
 20
29.7499985
 30
0.0
 11
-55.1249939
 21
28.8839731
 31
0.0
  0
LINE
  5
27F
330
1E
100
AcDbEntity
  8
0
 62
     7
100
AcDbLine
 10
-55.1249939
 20
28.34999849999999
 30
0.0
 11
-55.7249939
 21
28.34999849999999
 31
0.0
  0
LINE
  5
280
330
1E
100
AcDbEntity
  8
0
  6
DASHED
 62
     2
100
AcDbLine
 10
-53.62499389999999
 20
21.8499985
 30
0.0
 11
-56.7249939
 21
21.8499985
 31
0.0
  0
ARC
  5
281
330
1E
100
AcDbEntity
  8
0
 62
     7
100
AcDbCircle
 10
-53.8249939
 20
20.1499985
 30
0.0
 40
0.2
100
AcDbArc
 50
270.0
 51
0.0
  0
LINE
  5
282
330
1E
100
AcDbEntity
  8
0
 62
     7
100
AcDbLine
 10
-55.1249939
 20
21.34999849999999
 30
0.0
 11
-55.7249939
 21
21.34999849999999
 31
0.0
  0
LINE
  5
283
330
1E
100
AcDbEntity
  8
0
 62
     7
100
AcDbLine
 10
-54.6249939
 20
19.9499985
 30
0.0
 11
-55.1249939
 21
20.8160239
 31
0.0
  0
LINE
  5
284
330
1E
100
AcDbEntity
  8
0
 62
     7
100
AcDbLine
 10
-53.8249939
 20
19.9499985
 30
0.0
 11
-54.6249939
 21
19.9499985
 31
0.0
  0
LINE
  5
285
330
1E
100
AcDbEntity
  8
0
  6
DASHED
 62
     2
100
AcDbLine
 10
-102.424994
 20
27.8499985
 30
0.0
 11
-99.3249939
 21
27.8499985
 31
0.0
  0
LINE
  5
286
330
1E
100
AcDbEntity
  8
0
 62
     7
100
AcDbLine
 10
-100.3249939999999
 20
29.39999849999999
 30
0.0
 11
-99.63217359999999
 21
29.7999985
 31
0.0
  0
LINE
  5
287
330
1E
100
AcDbEntity
  8
0
 62
     7
100
AcDbLine
 10
-102.424994
 20
20.1499985
 30
0.0
 11
-102.424994
 21
29.5499985
 31
0.0
  0
LINE
  5
288
330
1E
100
AcDbEntity
  8
0
 62
     7
100
AcDbLine
 10
-101.424994
 20
29.7499985
 30
0.0
 11
-101.424994
 21
19.9499985
 31
0.0
  0
LINE
  5
289
330
1E
100
AcDbEntity
  8
0
 62
     7
100
AcDbLine
 10
-100.9249939999999
 20
28.8839731
 30
0.0
 11
-100.9249939999999
 21
20.8160239
 31
0.0
  0
LINE
  5
28A
330
1E
100
AcDbEntity
  8
0
 62
     7
100
AcDbLine
 10
-100.3249939999999
 20
29.39999849999999
 30
0.0
 11
-100.3249939999999
 21
20.29999849999999
 31
0.0
  0
LINE
  5
28B
330
1E
100
AcDbEntity
  8
0
 62
     7
100
AcDbLine
 10
-100.9249939999999
 20
28.34999849999999
 30
0.0
 11
-100.3249939999999
 21
28.34999849999999
 31
0.0
  0
LINE
  5
28C
330
1E
100
AcDbEntity
  8
0
 62
     7
100
AcDbLine
 10
-101.424994
 20
29.7499985
 30
0.0
 11
-100.9249939999999
 21
28.8839731
 31
0.0
  0
LINE
  5
28D
330
1E
100
AcDbEntity
  8
0
 62
     7
100
AcDbLine
 10
-102.224994
 20
29.7499985
 30
0.0
 11
-101.424994
 21
29.7499985
 31
0.0
  0
ARC
  5
28E
330
1E
100
AcDbEntity
  8
0
 62
     7
100
AcDbCircle
 10
-102.224994
 20
29.5499985
 30
0.0
 40
0.2
100
AcDbArc
 50
90.00000020000001
 51
180.0
  0
LINE
  5
28F
330
1E
100
AcDbEntity
  8
0
  6
DASHED
 62
     2
100
AcDbLine
 10
-102.424994
 20
21.8499985
 30
0.0
 11
-99.3249939
 21
21.8499985
 31
0.0
  0
LINE
  5
290
330
1E
100
AcDbEntity
  8
0
 62
     7
100
AcDbLine
 10
-100.3249939999999
 20
20.29999849999999
 30
0.0
 11
-99.63217359999999
 21
19.8999985
 31
0.0
  0
LINE
  5
291
330
1E
100
AcDbEntity
  8
0
 62
     7
100
AcDbLine
 10
-102.224994
 20
19.9499985
 30
0.0
 11
-101.424994
 21
19.9499985
 31
0.0
  0
LINE
  5
292
330
1E
100
AcDbEntity
  8
0
 62
     7
100
AcDbLine
 10
-101.424994
 20
19.9499985
 30
0.0
 11
-100.9249939999999
 21
20.8160239
 31
0.0
  0
LINE
  5
293
330
1E
100
AcDbEntity
  8
0
 62
     7
100
AcDbLine
 10
-100.9249939999999
 20
21.34999849999999
 30
0.0
 11
-100.3249939999999
 21
21.34999849999999
 31
0.0
  0
ARC
  5
294
330
1E
100
AcDbEntity
  8
0
 62
     7
100
AcDbCircle
 10
-102.224994
 20
20.1499985
 30
0.0
 40
0.2
100
AcDbArc
 50
180.0
 51
270.0
  0
LINE
  5
295
330
1E
100
AcDbEntity
  8
0
 62
     7
100
AcDbLine
 10
-99.63217359999999
 20
19.8999985
 30
0.0
 11
-93.02499389999999
 21
19.8999985
 31
0.0
  0
LINE
  5
296
330
1E
100
AcDbEntity
  8
0
 62
     7
100
AcDbLine
 10
-99.63217359999999
 20
29.7999985
 30
0.0
 11
-93.02499389999999
 21
29.7999985
 31
0.0
  0
CIRCLE
  5
297
330
1E
100
AcDbEntity
  8
0
  6
PHANTOM
 62
     6
100
AcDbCircle
 10
-78.0249939
 20
24.84999849999999
 30
0.0
 40
12.0
  0
LINE
  5
298
330
1E
100
AcDbEntity
  8
0
  6
PHANTOM
 62
     6
100
AcDbLine
 10
-82.99555670000001
 20
36.8499985
 30
0.0
 11
-73.0544311
 21
36.8499985
 31
0.0
  0
LINE
  5
299
330
1E
100
AcDbEntity
  8
0
  6
PHANTOM
 62
     6
100
AcDbLine
 10
-82.99555670000001
 20
12.8499985
 30
0.0
 11
-73.0544311
 21
12.8499985
 31
0.0
  0
LINE
  5
29A
330
1E
100
AcDbEntity
  8
0
  6
PHANTOM
 62
     6
100
AcDbLine
 10
-90.0249939
 20
19.87943569999999
 30
0.0
 11
-90.0249939
 21
29.82056119999999
 31
0.0
  0
LINE
  5
29B
330
1E
100
AcDbEntity
  8
0
  6
PHANTOM
 62
     6
100
AcDbLine
 10
-66.0249939
 20
19.87943569999999
 30
0.0
 11
-66.0249939
 21
29.82056119999999
 31
0.0
  0
LINE
  5
29C
330
1E
100
AcDbEntity
  8
0
  6
PHANTOM
 62
     6
100
AcDbLine
 10
-90.02499399999999
 20
29.82056119999999
 30
0.0
 11
-82.99555670000001
 21
36.8499985
 31
0.0
  0
LINE
  5
29D
330
1E
100
AcDbEntity
  8
0
  6
PHANTOM
 62
     6
100
AcDbLine
 10
-73.0544311
 20
12.8499985
 30
0.0
 11
-66.0249939
 21
19.87943569999999
 31
0.0
  0
LINE
  5
29E
330
1E
100
AcDbEntity
  8
0
  6
PHANTOM
 62
     6
100
AcDbLine
 10
-73.05443120000001
 20
36.8499986
 30
0.0
 11
-66.0249939
 21
29.8205613
 31
0.0
  0
LINE
  5
29F
330
1E
100
AcDbEntity
  8
0
  6
PHANTOM
 62
     6
100
AcDbLine
 10
-90.02499399999999
 20
19.87943569999999
 30
0.0
 11
-82.99555670000001
 21
12.8499985
 31
0.0
  0
LINE
  5
2A0
330
1E
100
AcDbEntity
  8
0
 62
     7
100
AcDbLine
 10
-92.02499389999999
 20
36.34999849999999
 30
0.0
 11
-64.0249939
 21
36.34999849999999
 31
0.0
  0
LINE
  5
2A1
330
1E
100
AcDbEntity
  8
0
 62
     7
100
AcDbLine
 10
-66.5249939
 20
16.34999849999999
 30
0.0
 11
-66.5249939
 21
33.34999849999999
 31
0.0
  0
LINE
  5
2A2
330
1E
100
AcDbEntity
  8
0
  6
PHANTOM
 62
     6
100
AcDbLine
 10
-100.024994
 20
45.84999849999999
 30
0.0
 11
-56.0249939
 21
45.84999849999999
 31
0.0
  0
LINE
  5
2A3
330
1E
100
AcDbEntity
  8
0
  6
PHANTOM
 62
     6
100
AcDbLine
 10
-100.024994
 20
18.94999849999999
 30
0.0
 11
-100.024994
 21
45.84999849999999
 31
0.0
  0
LINE
  5
2A4
330
1E
100
AcDbEntity
  8
0
  6
PHANTOM
 62
     6
100
AcDbLine
 10
-56.0249939
 20
18.94999849999999
 30
0.0
 11
-56.0249939
 21
45.84999849999999
 31
0.0
  0
LINE
  5
2A5
330
1E
100
AcDbEntity
  8
0
  6
PHANTOM
 62
     6
100
AcDbLine
 10
-100.024994
 20
18.94999849999999
 30
0.0
 11
-93.02499389999999
 21
18.94999849999999
 31
0.0
  0
LINE
  5
2A6
330
1E
100
AcDbEntity
  8
0
  6
PHANTOM
 62
     6
100
AcDbLine
 10
-63.0249939
 20
18.94999849999999
 30
0.0
 11
-56.0249939
 21
18.94999849999999
 31
0.0
  0
LINE
  5
2A7
330
1E
100
AcDbEntity
  8
0
  6
PHANTOM
 62
     6
100
AcDbLine
 10
-66.5249939
 20
36.4499985
 30
0.0
 11
-66.5249939
 21
45.84999849999999
 31
0.0
  0
LINE
  5
2A8
330
1E
100
AcDbEntity
  8
0
  6
PHANTOM
 62
     6
100
AcDbLine
 10
-89.52499389999999
 20
36.4499985
 30
0.0
 11
-89.52499389999999
 21
45.84999849999999
 31
0.0
  0
LINE
  5
2A9
330
1E
100
AcDbEntity
  8
0
  6
PHANTOM
 62
     6
100
AcDbLine
 10
-89.52499389999999
 20
42.8499985
 30
0.0
 11
-66.5249939
 21
42.8499985
 31
0.0
  0
LINE
  5
2AA
330
1E
100
AcDbEntity
  8
0
  6
PHANTOM
 62
     6
100
AcDbLine
 10
-93.02499389999999
 20
36.4499985
 30
0.0
 11
-89.52499389999999
 21
36.4499985
 31
0.0
  0
LINE
  5
2AB
330
1E
100
AcDbEntity
  8
0
  6
PHANTOM
 62
     6
100
AcDbLine
 10
-66.5249939
 20
36.4499985
 30
0.0
 11
-63.0249939
 21
36.4499985
 31
0.0
  0
LINE
  5
2AC
330
1E
100
AcDbEntity
  8
0
  6
PHANTOM
 62
     6
100
AcDbLine
 10
-63.0249939
 20
35.3499985
 30
0.0
 11
-63.0249939
 21
36.4499985
 31
0.0
  0
LINE
  5
2AD
330
1E
100
AcDbEntity
  8
0
  6
PHANTOM
 62
     6
100
AcDbLine
 10
-93.02499389999999
 20
35.3499985
 30
0.0
 11
-93.02499389999999
 21
36.4499985
 31
0.0
  0
LINE
  5
2AE
330
1E
100
AcDbEntity
  8
0
 62
     7
100
AcDbLine
 10
-66.5249939
 20
30.1499985
 30
0.0
 11
-63.0249939
 21
30.1499985
 31
0.0
  0
LINE
  5
2AF
330
1E
100
AcDbEntity
  8
0
 62
     7
100
AcDbLine
 10
-66.5249939
 20
21.34999849999999
 30
0.0
 11
-63.0249939
 21
21.34999849999999
 31
0.0
  0
LINE
  5
2B0
330
1E
100
AcDbEntity
  8
0
 62
     7
100
AcDbLine
 10
-89.52499389999999
 20
19.54999849999999
 30
0.0
 11
-93.02499389999999
 21
19.54999849999999
 31
0.0
  0
LINE
  5
2B1
330
1E
100
AcDbEntity
  8
0
 62
     7
100
AcDbLine
 10
-89.52499389999999
 20
28.34999849999999
 30
0.0
 11
-93.02499389999999
 21
28.34999849999999
 31
0.0
  0
LINE
  5
2B2
330
1E
100
AcDbEntity
  8
0
  6
DASHED
 62
     2
100
AcDbLine
 10
-93.02499389999999
 20
25.84999849999999
 30
0.0
 11
-90.0249939
 21
24.84999849999999
 31
0.0
  0
LINE
  5
2B3
330
1E
100
AcDbEntity
  8
0
  6
DASHED
 62
     2
100
AcDbLine
 10
-93.02499389999999
 20
23.84999849999999
 30
0.0
 11
-90.0249939
 21
24.84999849999999
 31
0.0
  0
ARC
  5
2B4
330
1E
100
AcDbEntity
  8
0
  6
PHANTOM
 62
     6
100
AcDbCircle
 10
-78.0249939
 20
24.84999849999999
 30
0.0
 40
8.5
100
AcDbArc
 50
340.2500769999999
 51
19.7499228
  0
ARC
  5
2B5
330
1E
100
AcDbEntity
  8
0
  6
PHANTOM
 62
     6
100
AcDbCircle
 10
-78.0249939
 20
24.84999849999999
 30
0.0
 40
9.0
100
AcDbArc
 50
332.7339559999999
 51
27.2660445
  0
ARC
  5
2B6
330
1E
100
AcDbEntity
  8
0
 62
     2
100
AcDbCircle
 10
-78.0249939
 20
24.84999849999999
 30
0.0
 40
8.5
100
AcDbArc
 50
19.7499228
 51
160.2500769999999
  0
ARC
  5
2B7
330
1E
100
AcDbEntity
  8
0
 62
     7
100
AcDbCircle
 10
-78.0249939
 20
24.84999849999999
 30
0.0
 40
9.0
100
AcDbArc
 50
27.2660445
 51
152.733955
  0
LINE
  5
2B8
330
1E
100
AcDbEntity
  8
0
 62
     7
100
AcDbLine
 10
-70.0249939
 20
26.8655631
 30
0.0
 11
-70.0249939
 21
28.9731041
 31
0.0
  0
ARC
  5
2B9
330
1E
100
AcDbEntity
  8
0
 62
     7
100
AcDbCircle
 10
-78.0249939
 20
24.84999849999999
 30
0.0
 40
9.0
100
AcDbArc
 50
207.2660439999999
 51
332.7339559999999
  0
LINE
  5
2BA
330
1E
100
AcDbEntity
  8
0
 62
     7
100
AcDbLine
 10
-70.0249939
 20
22.83443389999999
 30
0.0
 11
-70.0249939
 21
20.7268928
 31
0.0
  0
ARC
  5
2BB
330
1E
100
AcDbEntity
  8
0
 62
     2
100
AcDbCircle
 10
-78.0249939
 20
24.84999849999999
 30
0.0
 40
8.5
100
AcDbArc
 50
199.749923
 51
340.2500769999999
  0
LINE
  5
2BC
330
1E
100
AcDbEntity
  8
0
 62
     7
100
AcDbLine
 10
-86.0249939
 20
22.83443389999999
 30
0.0
 11
-86.0249939
 21
20.7268928
 31
0.0
  0
ARC
  5
2BD
330
1E
100
AcDbEntity
  8
0
  6
PHANTOM
 62
     6
100
AcDbCircle
 10
-78.0249939
 20
24.84999849999999
 30
0.0
 40
9.0
100
AcDbArc
 50
152.733955
 51
207.2660439999999
  0
ARC
  5
2BE
330
1E
100
AcDbEntity
  8
0
  6
PHANTOM
 62
     6
100
AcDbCircle
 10
-78.0249939
 20
24.84999849999999
 30
0.0
 40
8.5
100
AcDbArc
 50
160.2500769999999
 51
199.749923
  0
LINE
  5
2BF
330
1E
100
AcDbEntity
  8
0
 62
     7
100
AcDbLine
 10
-86.0249939
 20
26.8655631
 30
0.0
 11
-86.0249939
 21
28.9731041
 31
0.0
  0
LINE
  5
2C0
330
1E
100
AcDbEntity
  8
0
 62
     7
100
AcDbLine
 10
-67.9999939
 20
94.50000000000001
 30
0.0
 11
-67.9999939
 21
84.50000000000001
 31
0.0
  0
LINE
  5
2C1
330
1E
100
AcDbEntity
  8
0
 62
     7
100
AcDbLine
 10
-138.399994
 20
84.50000000000001
 30
0.0
 11
-67.9999939
 21
84.50000000000001
 31
0.0
  0
TEXT
  5
2C2
330
1E
100
AcDbEntity
  8
0
 62
     7
100
AcDbText
 10
-136.3428499999999
 20
87.90000009999999
 30
0.0
 40
3.19999981
  1
SMALL-SIZED FR SERIES
 41
1.06060606
  7
MONOTXT
100
AcDbText
  0
TEXT
  5
2C3
330
1E
100
AcDbEntity
  8
0
 62
     7
100
AcDbText
 10
-109.885995
 20
62.9000001
 30
0.0
 40
3.19999981
  1
FRN110-J6(J4)
  7
MONOTXT
100
AcDbText
  0
TEXT
  5
2C4
330
1E
100
AcDbEntity
  8
0
 62
     7
100
AcDbText
 10
-109.885995
 20
57.9000001
 30
0.0
 40
3.19999981
  1
FRN111-J6(J4)
  7
MONOTXT
100
AcDbText
  0
TEXT
  5
2C5
330
1E
100
AcDbEntity
  8
0
 62
     7
100
AcDbText
 10
-109.885995
 20
67.90000009999999
 30
0.0
 40
3.19999981
  1
FRN101-J6(J4)
  7
MONOTXT
100
AcDbText
  0
LINE
  5
2C6
330
1E
100
AcDbEntity
  8
0
 62
     4
100
AcDbLine
 10
69.9750061
 20
-56.1500015
 30
0.0
 11
69.9750061
 21
-58.1500015
 31
0.0
  0
LINE
  5
2C7
330
1E
100
AcDbEntity
  8
0
 62
     4
100
AcDbLine
 10
73.4750061
 20
-56.1500015
 30
0.0
 11
73.4750061
 21
-58.1500015
 31
0.0
  0
LINE
  5
2C8
330
1E
100
AcDbEntity
  8
0
 62
     4
100
AcDbLine
 10
99.97500610000001
 20
-56.1500015
 30
0.0
 11
99.97500610000001
 21
-58.1500015
 31
0.0
  0
LINE
  5
2C9
330
1E
100
AcDbEntity
  8
0
 62
     4
100
AcDbLine
 10
96.47500610000001
 20
-56.1500015
 30
0.0
 11
96.47500610000001
 21
-58.1500015
 31
0.0
  0
LINE
  5
2CA
330
1E
100
AcDbEntity
  8
0
  6
DASHED
 62
     6
100
AcDbLine
 10
99.97500610000001
 20
-44.1500015
 30
0.0
 11
99.97500610000001
 21
-47.1500015
 31
0.0
  0
LINE
  5
2CB
330
1E
100
AcDbEntity
  8
0
  6
DASHED
 62
     6
100
AcDbLine
 10
96.47500610000001
 20
-44.1500015
 30
0.0
 11
96.47500610000001
 21
-47.1500015
 31
0.0
  0
LINE
  5
2CC
330
1E
100
AcDbEntity
  8
0
  6
DASHED
 62
     6
100
AcDbLine
 10
73.4750061
 20
-44.1500015
 30
0.0
 11
73.4750061
 21
-47.1500015
 31
0.0
  0
LINE
  5
2CD
330
1E
100
AcDbEntity
  8
0
  6
DASHED
 62
     6
100
AcDbLine
 10
69.9750061
 20
-44.1500015
 30
0.0
 11
69.9750061
 21
-47.1500015
 31
0.0
  0
LINE
  5
2CE
330
1E
100
AcDbEntity
  8
0
  6
CENTER
 62
     6
100
AcDbLine
 10
59.9002611
 20
-50.1500015
 30
0.0
 11
110.443606
 21
-50.1500015
 31
0.0
  0
LINE
  5
2CF
330
1E
100
AcDbEntity
  8
0
 62
     4
100
AcDbLine
 10
62.9750061
 20
-42.1500015
 30
0.0
 11
69.9750061
 21
-42.1500015
 31
0.0
  0
LINE
  5
2D0
330
1E
100
AcDbEntity
  8
0
 62
     4
100
AcDbLine
 10
62.9750061
 20
-58.1500015
 30
0.0
 11
69.9750061
 21
-58.1500015
 31
0.0
  0
LINE
  5
2D1
330
1E
100
AcDbEntity
  8
0
 62
     4
100
AcDbLine
 10
62.9750061
 20
-42.1500015
 30
0.0
 11
62.9750061
 21
-58.1500015
 31
0.0
  0
LINE
  5
2D2
330
1E
100
AcDbEntity
  8
0
 62
     4
100
AcDbLine
 10
106.975006
 20
-42.1500015
 30
0.0
 11
106.975006
 21
-58.1500015
 31
0.0
  0
LINE
  5
2D3
330
1E
100
AcDbEntity
  8
0
 62
     4
100
AcDbLine
 10
99.97500610000001
 20
-42.1500015
 30
0.0
 11
99.97500610000001
 21
-44.1500015
 31
0.0
  0
LINE
  5
2D4
330
1E
100
AcDbEntity
  8
0
 62
     4
100
AcDbLine
 10
69.9750061
 20
-42.1500015
 30
0.0
 11
69.9750061
 21
-44.1500015
 31
0.0
  0
LINE
  5
2D5
330
1E
100
AcDbEntity
  8
0
 62
     4
100
AcDbLine
 10
73.4750061
 20
-42.1500015
 30
0.0
 11
73.4750061
 21
-44.1500015
 31
0.0
  0
LINE
  5
2D6
330
1E
100
AcDbEntity
  8
0
 62
     4
100
AcDbLine
 10
96.47500610000001
 20
-42.1500015
 30
0.0
 11
96.47500610000001
 21
-44.1500015
 31
0.0
  0
LINE
  5
2D7
330
1E
100
AcDbEntity
  8
0
 62
     4
100
AcDbLine
 10
69.9750061
 20
-44.1500015
 30
0.0
 11
73.4750061
 21
-44.1500015
 31
0.0
  0
LINE
  5
2D8
330
1E
100
AcDbEntity
  8
0
 62
     4
100
AcDbLine
 10
69.9750061
 20
-56.1500015
 30
0.0
 11
73.4750061
 21
-56.1500015
 31
0.0
  0
LINE
  5
2D9
330
1E
100
AcDbEntity
  8
0
  6
DASHED
 62
     6
100
AcDbLine
 10
62.9750061
 20
-47.1500015
 30
0.0
 11
73.4750061
 21
-47.1500015
 31
0.0
  0
LINE
  5
2DA
330
1E
100
AcDbEntity
  8
0
  6
DASHED
 62
     6
100
AcDbLine
 10
62.9750061
 20
-53.1500015
 30
0.0
 11
73.4750061
 21
-53.1500015
 31
0.0
  0
LINE
  5
2DB
330
1E
100
AcDbEntity
  8
0
 62
     4
100
AcDbLine
 10
96.47500610000001
 20
-44.1500015
 30
0.0
 11
99.97500610000001
 21
-44.1500015
 31
0.0
  0
LINE
  5
2DC
330
1E
100
AcDbEntity
  8
0
  6
DASHED
 62
     6
100
AcDbLine
 10
96.47500610000001
 20
-47.1500015
 30
0.0
 11
106.975006
 21
-47.1500015
 31
0.0
  0
LINE
  5
2DD
330
1E
100
AcDbEntity
  8
0
  6
DASHED
 62
     6
100
AcDbLine
 10
96.47500610000001
 20
-53.1500015
 30
0.0
 11
106.975006
 21
-53.1500015
 31
0.0
  0
LINE
  5
2DE
330
1E
100
AcDbEntity
  8
0
 62
     4
100
AcDbLine
 10
96.47500610000001
 20
-56.1500015
 30
0.0
 11
99.97500610000001
 21
-56.1500015
 31
0.0
  0
LINE
  5
2DF
330
1E
100
AcDbEntity
  8
0
  6
CENTER
 62
     6
100
AcDbLine
 10
69.9750061
 20
-53.7082205
 30
0.0
 11
69.9750061
 21
-46.050138
 31
0.0
  0
LINE
  5
2E0
330
1E
100
AcDbEntity
  8
0
  6
CENTER
 62
     6
100
AcDbLine
 10
99.97500610000001
 20
-53.8613822
 30
0.0
 11
99.97500610000001
 21
-46.50962299999999
 31
0.0
  0
LINE
  5
2E1
330
1E
100
AcDbEntity
  8
0
  6
DASHED
 62
     6
100
AcDbLine
 10
73.4750061
 20
-53.1500015
 30
0.0
 11
73.4750061
 21
-56.1500015
 31
0.0
  0
LINE
  5
2E2
330
1E
100
AcDbEntity
  8
0
  6
DASHED
 62
     6
100
AcDbLine
 10
96.47500610000001
 20
-53.1500015
 30
0.0
 11
96.47500610000001
 21
-56.1500015
 31
0.0
  0
CIRCLE
  5
2E3
330
1E
100
AcDbEntity
  8
0
 62
     4
100
AcDbCircle
 10
69.9750061
 20
-50.1500015
 30
0.0
 40
1.75
  0
CIRCLE
  5
2E4
330
1E
100
AcDbEntity
  8
0
 62
     4
100
AcDbCircle
 10
99.97500610000001
 20
-50.1500015
 30
0.0
 40
1.75
  0
LINE
  5
2E5
330
1E
100
AcDbEntity
  8
0
  6
DASHED
 62
     6
100
AcDbLine
 10
69.9750061
 20
-53.1500015
 30
0.0
 11
69.9750061
 21
-56.1500015
 31
0.0
  0
LINE
  5
2E6
330
1E
100
AcDbEntity
  8
0
  6
DASHED
 62
     6
100
AcDbLine
 10
99.97500610000001
 20
-53.1500015
 30
0.0
 11
99.97500610000001
 21
-56.1500015
 31
0.0
  0
LINE
  5
2E7
330
1E
100
AcDbEntity
  8
0
  6
DASHED
 62
     6
100
AcDbLine
 10
62.9750061
 20
-46.0530355
 30
0.0
 11
69.9750061
 21
-46.0530355
 31
0.0
  0
LINE
  5
2E8
330
1E
100
AcDbEntity
  8
0
  6
DASHED
 62
     6
100
AcDbLine
 10
62.9750061
 20
-54.2469675
 30
0.0
 11
69.9750061
 21
-54.2469675
 31
0.0
  0
LINE
  5
2E9
330
1E
100
AcDbEntity
  8
0
  6
DASHED
 62
     6
100
AcDbLine
 10
99.97500610000001
 20
-54.2469675
 30
0.0
 11
106.975006
 21
-54.2469675
 31
0.0
  0
LINE
  5
2EA
330
1E
100
AcDbEntity
  8
0
  6
DASHED
 62
     6
100
AcDbLine
 10
99.97500610000001
 20
-46.0530355
 30
0.0
 11
106.975006
 21
-46.0530355
 31
0.0
  0
LINE
  5
2EB
330
1E
100
AcDbEntity
  8
0
 62
     4
100
AcDbLine
 10
73.4750061
 20
-42.1500015
 30
0.0
 11
96.47500610000001
 21
-42.1500015
 31
0.0
  0
LINE
  5
2EC
330
1E
100
AcDbEntity
  8
0
 62
     4
100
AcDbLine
 10
73.4750061
 20
-58.1500015
 30
0.0
 11
96.47500610000001
 21
-58.1500015
 31
0.0
  0
LINE
  5
2ED
330
1E
100
AcDbEntity
  8
0
 62
     4
100
AcDbLine
 10
99.97500610000001
 20
-58.1500015
 30
0.0
 11
106.975006
 21
-58.1500015
 31
0.0
  0
LINE
  5
2EE
330
1E
100
AcDbEntity
  8
0
 62
     4
100
AcDbLine
 10
99.97500610000001
 20
-42.1500015
 30
0.0
 11
106.975006
 21
-42.1500015
 31
0.0
  0
LINE
  5
2EF
330
1E
100
AcDbEntity
  8
0
 62
     7
100
AcDbLine
 10
-138.399994
 20
94.50000000000001
 30
0.0
 11
138.350006
 21
94.50000000000001
 31
0.0
  0
LINE
  5
2F0
330
1E
100
AcDbEntity
  8
0
 62
     7
100
AcDbLine
 10
138.350006
 20
94.50000000000001
 30
0.0
 11
138.350006
 21
-94.80000309999999
 31
0.0
  0
LINE
  5
2F1
330
1E
100
AcDbEntity
  8
0
 62
     7
100
AcDbLine
 10
-138.399994
 20
-94.80000309999999
 30
0.0
 11
138.350006
 21
-94.80000309999999
 31
0.0
  0
LINE
  5
2F2
330
1E
100
AcDbEntity
  8
0
 62
     7
100
AcDbLine
 10
-138.399994
 20
94.50000000000001
 30
0.0
 11
-138.399994
 21
-94.80000309999999
 31
0.0
  0
LINE
  5
2F3
330
1E
100
AcDbEntity
  8
0
 62
     7
100
AcDbLine
 10
73.3500061
 20
-84.80000309999999
 30
0.0
 11
138.350006
 21
-84.80000309999999
 31
0.0
  0
LINE
  5
2F4
330
1E
100
AcDbEntity
  8
0
 62
     7
100
AcDbLine
 10
73.3500061
 20
84.50000000000001
 30
0.0
 11
138.350006
 21
84.50000000000001
 31
0.0
  0
LINE
  5
2F5
330
1E
100
AcDbEntity
  8
0
 62
     7
100
AcDbLine
 10
73.3500061
 20
-84.80000309999999
 30
0.0
 11
73.3500061
 21
-94.80000309999999
 31
0.0
  0
LINE
  5
2F6
330
1E
100
AcDbEntity
  8
0
 62
     7
100
AcDbLine
 10
73.3500061
 20
94.50000000000001
 30
0.0
 11
73.3500061
 21
84.50000000000001
 31
0.0
  0
TEXT
  5
2F7
330
1E
100
AcDbEntity
  8
0
 62
     7
100
AcDbText
 10
77.2426624
 20
-92.0500031
 30
0.0
 40
4.5
  1
KOGANEI CORP.
 41
1.0483871
  7
MONOTXT
100
AcDbText
  0
TEXT
  5
2F8
330
1E
100
AcDbEntity
  8
0
 62
     7
100
AcDbText
 10
93.5071493
 20
87.90000009999999
 30
0.0
 40
3.19999981
  1
Ver. 1.0
 41
1.081081079999999
  7
MONOTXT
100
AcDbText
  0
TEXT
  5
2F9
330
1E
100
AcDbEntity
  8
0
 62
     7
100
AcDbText
 10
-129.085994
 20
72.90000009999999
 30
0.0
 40
3.19999981
  1
MODEL:FRN100-J6(J4)
  7
MONOTXT
100
AcDbText
  0
ENDSEC
  0
SECTION
  2
OBJECTS
  0
DICTIONARY
  5
C
330
0
100
AcDbDictionary
  3
ACAD_GROUP
350
D
  3
ACAD_MLINESTYLE
350
16
  3
ACAD_PLOTSETTINGS
350
18
  3
ACAD_LAYOUT
350
19
1001
ACAD
1000
TREAT_AS_HARD
1070
     0
  0
DICTIONARY
  5
334
330
1E
100
AcDbDictionary
  3
ACAD_LAYOUTSELFREF
350
335
  0
DICTIONARY
  5
332
330
1A
100
AcDbDictionary
  3
ACAD_LAYOUTSELFREF
350
333
  0
DICTIONARY
  5
D
102
{ACAD_REACTORS
330
C
102
}
330
C
100
AcDbDictionary
1001
ACAD
1000
TREAT_AS_HARD
1070
     0
  0
DICTIONARY
  5
16
102
{ACAD_REACTORS
330
C
102
}
330
C
100
AcDbDictionary
  3
STANDARD
350
17
1001
ACAD
1000
TREAT_AS_HARD
1070
     0
  0
DICTIONARY
  5
18
102
{ACAD_REACTORS
330
C
102
}
330
C
100
AcDbDictionary
1001
ACAD
1000
TREAT_AS_HARD
1070
     0
  0
DICTIONARY
  5
19
102
{ACAD_REACTORS
330
C
102
}
330
C
100
AcDbDictionary
1001
ACAD
1000
TREAT_AS_HARD
1070
     0
  0
XRECORD
  5
335
102
{ACAD_REACTORS
330
334
102
}
330
334
100
AcDbXrecord
340
1E
  0
XRECORD
  5
333
102
{ACAD_REACTORS
330
332
102
}
330
332
100
AcDbXrecord
340
1A
  0
MLINESTYLE
  5
17
102
{ACAD_REACTORS
330
16
102
}
330
16
100
AcDbMlineStyle
  2
STANDARD
 70
     0
  3

 62
   256
 51
90.0
 52
90.0
 71
     2
 49
0.5
 62
   256
  6
BYLAYER
 49
-0.5
 62
   256
  6
BYLAYER
  0
ENDSEC
  0
EOF
