  0
SECTION
  2
HEADER
  9
$ACADVER
  1
AC1012
  9
$DWGCODEPAGE
  3
dos932
  9
$INSBASE
 10
0.0
 20
0.0
 30
0.0
  9
$EXTMIN
 10
-399.25
 20
-276.75
 30
0.0
  9
$EXTMAX
 10
406.09414987197181
 20
276.25
 30
0.0
  9
$LIMMIN
 10
-399.25
 20
-276.75
  9
$LIMMAX
 10
406.09414987197181
 20
276.25
  9
$ORTHOMODE
 70
               0
  9
$REGENMODE
 70
               1
  9
$FILLMODE
 70
               1
  9
$QTEXTMODE
 70
               0
  9
$MIRRTEXT
 70
               1
  9
$DRAGMODE
 70
               2
  9
$LTSCALE
 40
1.0
  9
$OSMODE
 70
               0
  9
$ATTMODE
 70
               1
  9
$TEXTSIZE
 40
3.2000000476837158
  9
$TRACEWID
 40
0.05
  9
$TEXTSTYLE
  7
MX_NOTE_STANDARD
  9
$CLAYER
  8
0
  9
$CELTYPE
  6
CONTINUOUS
  9
$CECOLOR
 62
             256
  9
$CELTSCALE
 40
1.0
  9
$DELOBJ
 70
               1
  9
$DISPSILH
 70
               0
  9
$DIMSCALE
 40
1.0
  9
$DIMASZ
 40
2.5
  9
$DIMEXO
 40
1.5
  9
$DIMDLI
 40
3.75
  9
$DIMRND
 40
0.0
  9
$DIMDLE
 40
0.0
  9
$DIMEXE
 40
1.5
  9
$DIMTP
 40
0.0
  9
$DIMTM
 40
0.0
  9
$DIMTXT
 40
3.2000000476837158
  9
$DIMCEN
 40
2.5
  9
$DIMTSZ
 40
0.0
  9
$DIMTOL
 70
               0
  9
$DIMLIM
 70
               0
  9
$DIMTIH
 70
               0
  9
$DIMTOH
 70
               0
  9
$DIMSE1
 70
               0
  9
$DIMSE2
 70
               0
  9
$DIMTAD
 70
               1
  9
$DIMZIN
 70
               8
  9
$DIMBLK
  1

  9
$DIMASO
 70
               1
  9
$DIMSHO
 70
               1
  9
$DIMPOST
  1

  9
$DIMAPOST
  1

  9
$DIMALT
 70
               0
  9
$DIMALTD
 70
               4
  9
$DIMALTF
 40
0.03937007874016
  9
$DIMLFAC
 40
1.0
  9
$DIMTOFL
 70
               1
  9
$DIMTVP
 40
0.0
  9
$DIMTIX
 70
               0
  9
$DIMSOXD
 70
               0
  9
$DIMSAH
 70
               0
  9
$DIMBLK1
  1

  9
$DIMBLK2
  1

  9
$DIMSTYLE
  2
MXDIMSTYLE
  9
$DIMCLRD
 70
               0
  9
$DIMCLRE
 70
               0
  9
$DIMCLRT
 70
               0
  9
$DIMTFAC
 40
1.0
  9
$DIMGAP
 40
1.0
  9
$DIMJUST
 70
               0
  9
$DIMSD1
 70
               0
  9
$DIMSD2
 70
               0
  9
$DIMTOLJ
 70
               1
  9
$DIMTZIN
 70
               0
  9
$DIMALTZ
 70
               0
  9
$DIMALTTZ
 70
               0
  9
$DIMFIT
 70
               3
  9
$DIMUPT
 70
               1
  9
$DIMUNIT
 70
               2
  9
$DIMDEC
 70
               4
  9
$DIMTDEC
 70
               4
  9
$DIMALTU
 70
               2
  9
$DIMALTTD
 70
               4
  9
$DIMTXSTY
  7
MX_NOTE_STANDARD
  9
$DIMAUNIT
 70
               0
  9
$LUNITS
 70
               2
  9
$LUPREC
 70
               4
  9
$SKETCHINC
 40
0.1
  9
$FILLETRAD
 40
0.0
  9
$AUNITS
 70
               0
  9
$AUPREC
 70
               0
  9
$MENU
  1
acad
  9
$ELEVATION
 40
0.0
  9
$PELEVATION
 40
0.0
  9
$THICKNESS
 40
0.0
  9
$LIMCHECK
 70
               0
  9
$BLIPMODE
 70
               1
  9
$CHAMFERA
 40
0.0
  9
$CHAMFERB
 40
0.0
  9
$CHAMFERC
 40
0.0
  9
$CHAMFERD
 40
0.0
  9
$SKPOLY
 70
               0
  9
$TDCREATE
 40
2453378.356423611
  9
$TDUPDATE
 40
2453378.356423611
  9
$TDINDWG
 40
0.0000000000
  9
$TDUSRTIMER
 40
0.0000000000
  9
$USRTIMER
 70
               1
  9
$ANGBASE
 50
0.0
  9
$ANGDIR
 70
               0
  9
$PDMODE
 70
               0
  9
$PDSIZE
 40
0.0
  9
$PLINEWID
 40
0.0
  9
$COORDS
 70
               1
  9
$SPLFRAME
 70
               0
  9
$SPLINETYPE
 70
               6
  9
$SPLINESEGS
 70
               8
  9
$ATTDIA
 70
               0
  9
$ATTREQ
 70
               1
  9
$HANDLING
 70
               1
  9
$HANDSEED
  5
6DE
  9
$SURFTAB1
 70
               6
  9
$SURFTAB2
 70
               6
  9
$SURFTYPE
 70
               6
  9
$SURFU
 70
               6
  9
$SURFV
 70
               6
  9
$UCSNAME
  2

  9
$UCSORG
 10
0.0
 20
0.0
 30
0.0
  9
$UCSXDIR
 10
1.0
 20
0.0
 30
0.0
  9
$UCSYDIR
 10
0.0
 20
1.0
 30
0.0
  9
$PUCSNAME
  2

  9
$PUCSORG
 10
0.0
 20
0.0
 30
0.0
  9
$PUCSXDIR
 10
1.0
 20
0.0
 30
0.0
  9
$PUCSYDIR
 10
0.0
 20
1.0
 30
0.0
  9
$USERI1
 70
               0
  9
$USERI2
 70
               0
  9
$USERI3
 70
               0
  9
$USERI4
 70
               0
  9
$USERI5
 70
               0
  9
$USERR1
 40
0.0
  9
$USERR2
 40
0.0
  9
$USERR3
 40
0.0
  9
$USERR4
 40
0.0
  9
$USERR5
 40
0.0
  9
$WORLDVIEW
 70
               1
  9
$SHADEDGE
 70
               3
  9
$SHADEDIF
 70
              70
  9
$TILEMODE
 70
               1
  9
$MAXACTVP
 70
              16
  9
$PINSBASE
 10
0.0
 20
0.0
 30
0.0
  9
$PLIMCHECK
 70
               0
  9
$PEXTMIN
 10
1.0000000000000000E+20
 20
1.0000000000000000E+20
 30
1.0000000000000000E+20
  9
$PEXTMAX
 10
-1.0000000000000000E+20
 20
-1.0000000000000000E+20
 30
-1.0000000000000000E+20
  9
$PLIMMIN
 10
0.0
 20
0.0
  9
$PLIMMAX
 10
12.0
 20
9.0
  9
$UNITMODE
 70
               0
  9
$VISRETAIN
 70
               0
  9
$PLINEGEN
 70
               1
  9
$PSLTSCALE
 70
               0
  9
$TREEDEPTH
 70
            3020
  9
$PICKSTYLE
 70
               1
  9
$CMLSTYLE
  2
Standard
  9
$CMLJUST
 70
               0
  9
$CMLSCALE
 40
1.0
  9
$SAVEIMAGES
 70
               0
  0
ENDSEC
  0
SECTION
  2
CLASSES
  0
CLASS
  1
LWPOLYLINE
  2
AcDbPolyline
  3
"AutoCAD"
 90
        0
280
               0
281
               1
  0
CLASS
  1
IMAGE
  2
AcDbRasterImage
  3
ISM
 90
      127
280
               0
281
               1
  0
CLASS
  1
OLE2FRAME
  2
AcDbOle2Frame
  3
""
 90
        0
280
               0
281
               1
  0
CLASS
  1
HATCH
  2
AcDbHatch
  3
"ACAD_SEDONA"
 90
        0
280
               0
281
               1
  0
CLASS
  1
DICTIONARYVAR
  2
AcDbDictionaryVar
  3
"AutoCAD"
 90
        0
280
               0
281
               0
  0
CLASS
  1
RASTERVARIABLES
  2
AcDbRasterVariables
  3
ISM
 90
        0
280
               0
281
               0
  0
CLASS
  1
IMAGEDEF
  2
AcDbRasterImageDef
  3
ISM
 90
        0
280
               0
281
               0
  0
CLASS
  1
IMAGEDEF_REACTOR
  2
AcDbRasterImageDefReactor
  3
ISM
 90
        1
280
               0
281
               0
  0
CLASS
  1
IDBUFFER
  2
AcDbIdBuffer
  3
"Acad"
 90
        0
280
               0
281
               0
  0
CLASS
  1
SPATIAL_FILTER
  2
AcDbSpatialFilter
  3
"Acad"
 90
        0
280
               0
281
               0
  0
CLASS
  1
XRECORD
  2
AcDbXrecord
  3
"<Built In>"
 90
        0
280
               0
281
               0
  0
CLASS
  1
SORTENTSTABLE
  2
AcDbSortentsTable
  3
"AutoCAD"
 90
        0
280
               0
281
               0
  0
CLASS
  1
LAYER_INDEX
  2
AcDbLayerIndex
  3
"Acad"
 90
        0
280
               0
281
               0
  0
CLASS
  1
SPATIAL_INDEX
  2
AcDbSpatialIndex
  3
"Acad"
 90
        0
280
               0
281
               0
  0
CLASS
  1
OBJECT_PTR
  2
CAseDLPNTableRecord
  3
"ASE-LPNTableRecord"
 90
        1
280
               0
281
               0
  0
CLASS
  1
LAYOUT
  2
AcDbLayout
  3
"AutoCAD 2000"
 90
        1
280
               0
281
               0
  0
CLASS
  1
PLOTSETTINGS
  2
AcDbPlotSettings
  3
"AutoCAD 2000"
 90
        1
280
               0
281
               0
  0
CLASS
  1
ACDBDICTIONARYWDFLT
  2
AcDbDictionaryWithDefault
  3
"AutoCAD 2000"
 90
        1
280
               0
281
               0
  0
CLASS
  1
ACDBPLACEHOLDER
  2
AcDbPlaceHolder
  3
"AutoCAD 2000"
 90
        1
280
               0
281
               0
  0
ENDSEC
  0
SECTION
  2
TABLES
  0
TABLE
  2
VPORT
  5
7
100
AcDbSymbolTable
 70
               1
  0
VPORT
  5
15
100
AcDbSymbolTableRecord
100
AcDbViewportTableRecord
  2
*ACTIVE
 70
               0
 10
0.0
 20
0.0
 11
1.0
 21
1.0
 12
3.4220749359859042
 22
-0.25
 13
0.0
 23
0.0
 14
1.0
 24
1.0
 15
0.0
 25
0.0
 16
0.0
 26
0.0
 36
1.0
 17
0.0
 27
0.0
 37
0.0
 40
558.52999999999997
 41
1.7320508075688772
 42
50.0
 43
0.0
 44
0.0
 50
0.0
 51
0.0
 71
               0
 72
             100
 73
               1
 74
               1
 75
               0
 76
               0
 77
               0
 78
               0
  0
ENDTAB
  0
TABLE
  2
LTYPE
  5
4
100
AcDbSymbolTable
 70
               4
  0
LTYPE
  5
11
100
AcDbSymbolTableRecord
100
AcDbLinetypeTableRecord
  2
BYBLOCK
 70
              64
  3

 72
              65
 73
               0
 40
0.0
  0
LTYPE
  5
12
100
AcDbSymbolTableRecord
100
AcDbLinetypeTableRecord
  2
BYLAYER
 70
              64
  3

 72
              65
 73
               0
 40
0.0
  0
LTYPE
  5
13
100
AcDbSymbolTableRecord
100
AcDbLinetypeTableRecord
  2
CONTINUOUS
 70
              64
  3
Solid line
 72
              65
 73
               0
 40
0.0
  0
LTYPE
  5
655
100
AcDbSymbolTableRecord
100
AcDbLinetypeTableRecord
  2
DASHED
 70
              64
  3
Dashed __ __ __ __ __ __ __ __ __ __ __ __ __ _
 72
              65
 73
               2
 40
4.0
 49
2.0
 74
               0
 49
-2.0
 74
               0
  0
ENDTAB
  0
TABLE
  2
LAYER
  5
2
100
AcDbSymbolTable
 70
               2
  0
LAYER
  5
14
100
AcDbSymbolTableRecord
100
AcDbLayerTableRecord
  2
0
 70
               0
 62
               7
  6
CONTINUOUS
  0
LAYER
  5
1D
100
AcDbSymbolTableRecord
100
AcDbLayerTableRecord
  2
DEFPOINTS
 70
               0
 62
               7
  6
CONTINUOUS
  0
ENDTAB
  0
TABLE
  2
STYLE
  5
3
100
AcDbSymbolTable
 70
               1
  0
STYLE
  5
17
100
AcDbSymbolTableRecord
100
AcDbTextStyleTableRecord
  2
MX_NOTE_STANDARD
 70
               0
 40
0.0
 41
1.0
 50
0.0
 71
               0
 42
3.2000000476837158
  3
txt.shx
  4
extfont.shx
  0
ENDTAB
  0
TABLE
  2
VIEW
  5
5
100
AcDbSymbolTable
 70
               0
  0
ENDTAB
  0
TABLE
  2
UCS
  5
6
100
AcDbSymbolTable
 70
               0
  0
ENDTAB
  0
TABLE
  2
APPID
  5
8
100
AcDbSymbolTable
 70
               1
  0
APPID
  5
16
100
AcDbSymbolTableRecord
100
AcDbRegAppTableRecord
  2
ACAD
 70
               0
  0
ENDTAB
  0
TABLE
  2
DIMSTYLE
  5
9
100
AcDbSymbolTable
 70
               1
  0
DIMSTYLE
105
18
100
AcDbSymbolTableRecord
100
AcDbDimStyleTableRecord
  2
MXDIMSTYLE
 70
               0
  3

  4

  5

  6

  7

 40
1.0
 41
2.5
 42
1.5
 43
3.75
 44
1.5
 45
0.0
 46
0.0
 47
0.0
 48
0.0
 71
               0
 72
               0
 73
               0
 74
               0
 75
               0
 76
               0
 77
               1
 78
               8
140
3.2000000476837158
141
2.5
142
0.0
143
0.03937007874016
144
1.0
145
0.0
146
1.0
147
1.0
170
               0
171
               4
172
               1
173
               0
174
               0
175
               0
176
               0
177
               0
178
               0
270
               2
271
               4
272
               4
273
               2
274
               4
275
               0
280
               0
281
               0
282
               0
283
               1
284
               0
285
               0
286
               0
287
               3
288
               1
340
17
  0
ENDTAB
  0
TABLE
  2
BLOCK_RECORD
  5
1
100
AcDbSymbolTable
 70
              16
  0
BLOCK_RECORD
  5
A
100
AcDbSymbolTableRecord
100
AcDbBlockTableRecord
  2
*MODEL_SPACE
  0
BLOCK_RECORD
  5
B
100
AcDbSymbolTableRecord
100
AcDbBlockTableRecord
  2
*PAPER_SPACE
  0
BLOCK_RECORD
  5
1E
100
AcDbSymbolTableRecord
100
AcDbBlockTableRecord
  2
F15_CONNECTER-1
  0
BLOCK_RECORD
  5
1F
100
AcDbSymbolTableRecord
100
AcDbBlockTableRecord
  2
F15_CONNECTER-2
  0
BLOCK_RECORD
  5
20
100
AcDbSymbolTableRecord
100
AcDbBlockTableRecord
  2
F15_CONNECTER-3
  0
BLOCK_RECORD
  5
21
100
AcDbSymbolTableRecord
100
AcDbBlockTableRecord
  2
F15_CONNECTER-4
  0
BLOCK_RECORD
  5
22
100
AcDbSymbolTableRecord
100
AcDbBlockTableRecord
  2
F15_CONNECTER-5
  0
BLOCK_RECORD
  5
23
100
AcDbSymbolTableRecord
100
AcDbBlockTableRecord
  2
F15_CONNECTER-6
  0
BLOCK_RECORD
  5
24
100
AcDbSymbolTableRecord
100
AcDbBlockTableRecord
  2
F15_CONNECTER-7
  0
BLOCK_RECORD
  5
25
100
AcDbSymbolTableRecord
100
AcDbBlockTableRecord
  2
F15_CONNECTER-8
  0
BLOCK_RECORD
  5
26
100
AcDbSymbolTableRecord
100
AcDbBlockTableRecord
  2
F15_CONNECTER-9
  0
BLOCK_RECORD
  5
27
100
AcDbSymbolTableRecord
100
AcDbBlockTableRecord
  2
F15_CONNECTER-10
  0
BLOCK_RECORD
  5
28
100
AcDbSymbolTableRecord
100
AcDbBlockTableRecord
  2
F15_CONNECTER-11
  0
BLOCK_RECORD
  5
29
100
AcDbSymbolTableRecord
100
AcDbBlockTableRecord
  2
F15_CONNECTER-12
  0
BLOCK_RECORD
  5
2A
100
AcDbSymbolTableRecord
100
AcDbBlockTableRecord
  2
F15_CONNECTER-13
  0
BLOCK_RECORD
  5
2B
100
AcDbSymbolTableRecord
100
AcDbBlockTableRecord
  2
F15_CONNECTER-14
  0
BLOCK_RECORD
  5
2C
100
AcDbSymbolTableRecord
100
AcDbBlockTableRecord
  2
F15_CONNECTER-15
  0
BLOCK_RECORD
  5
2D
100
AcDbSymbolTableRecord
100
AcDbBlockTableRecord
  2
F15_CONNECTER-16
  0
ENDTAB
  0
ENDSEC
  0
SECTION
  2
BLOCKS
  0
BLOCK
  5
D
100
AcDbEntity
  8
0
100
AcDbBlockBegin
  2
*MODEL_SPACE
 70
               0
 10
0.0
 20
0.0
 30
0.0
  3
*MODEL_SPACE
  1

  0
ENDBLK
  5
E
100
AcDbEntity
  8
0
100
AcDbBlockEnd
  0
BLOCK
  5
F
100
AcDbEntity
 67
               1
  8
0
100
AcDbBlockBegin
  2
*PAPER_SPACE
 70
               0
 10
0.0
 20
0.0
 30
0.0
  3
*PAPER_SPACE
  1

  0
ENDBLK
  5
10
100
AcDbEntity
 67
               1
  8
0
100
AcDbBlockEnd
  0
BLOCK
  5
2E
100
AcDbEntity
  8
0
100
AcDbBlockBegin
  2
F15_CONNECTER-1
 70
               0
 10
0.0
 20
0.0
 30
0.0
  3
F15_CONNECTER-1
  1

  0
LINE
  5
2F
100
AcDbEntity
  8
0
  6
CONTINUOUS
 62
               4
100
AcDbLine
 10
21.0
 20
-44.600000000000001
 30
0.0
 11
21.0
 21
60.399999999999999
 31
0.0
  0
LINE
  5
30
100
AcDbEntity
  8
0
  6
CONTINUOUS
 62
               4
100
AcDbLine
 10
0.0
 20
-44.600000000000001
 30
0.0
 11
0.0
 21
60.399999999999999
 31
0.0
  0
LINE
  5
31
100
AcDbEntity
  8
0
  6
CONTINUOUS
 62
               4
100
AcDbLine
 10
21.0
 20
60.399999999999999
 30
0.0
 11
21.0
 21
48.399999999999999
 31
0.0
  0
LINE
  5
32
100
AcDbEntity
  8
0
  6
CONTINUOUS
 62
               4
100
AcDbLine
 10
0.0
 20
60.399999999999999
 30
0.0
 11
0.0
 21
48.399999999999999
 31
0.0
  0
LINE
  5
33
100
AcDbEntity
  8
0
  6
CONTINUOUS
 62
               4
100
AcDbLine
 10
1.5
 20
58.899999999999999
 30
0.0
 11
1.5
 21
48.899999999999999
 31
0.0
  0
LINE
  5
34
100
AcDbEntity
  8
0
  6
CONTINUOUS
 62
               4
100
AcDbLine
 10
19.5
 20
58.899999999999999
 30
0.0
 11
19.5
 21
48.899999999999999
 31
0.0
  0
LINE
  5
35
100
AcDbEntity
  8
0
  6
CONTINUOUS
 62
               4
100
AcDbLine
 10
1.5
 20
58.899999999999999
 30
0.0
 11
19.5
 21
58.899999999999999
 31
0.0
  0
LINE
  5
36
100
AcDbEntity
  8
0
  6
CONTINUOUS
 62
               4
100
AcDbLine
 10
1.6000000000000001
 20
-44.600000000000001
 30
0.0
 11
0.0
 21
-44.600000000000001
 31
0.0
  0
LINE
  5
37
100
AcDbEntity
  8
0
  6
CONTINUOUS
 62
               4
100
AcDbLine
 10
0.0
 20
48.899999999999999
 30
0.0
 11
21.0
 21
48.899999999999999
 31
0.0
  0
LINE
  5
38
100
AcDbEntity
  8
0
  6
CONTINUOUS
 62
               4
100
AcDbLine
 10
0.0
 20
48.399999999999999
 30
0.0
 11
21.0
 21
48.399999999999999
 31
0.0
  0
LINE
  5
39
100
AcDbEntity
  8
0
  6
CONTINUOUS
 62
               4
100
AcDbLine
 10
9.4299999999999997
 20
41.829999999999998
 30
0.0
 11
11.56
 21
43.960000000000001
 31
0.0
  0
LINE
  5
3A
100
AcDbEntity
  8
0
  6
CONTINUOUS
 62
               4
100
AcDbLine
 10
9.4299999999999997
 20
43.960000000000001
 30
0.0
 11
11.56
 21
41.829999999999998
 31
0.0
  0
LINE
  5
3B
100
AcDbEntity
  8
0
  6
CONTINUOUS
 62
               4
100
AcDbLine
 10
1.5
 20
-42.899999999999999
 30
0.0
 11
19.5
 21
-42.899999999999999
 31
0.0
  0
LINE
  5
3C
100
AcDbEntity
  8
0
  6
CONTINUOUS
 62
               4
100
AcDbLine
 10
1.5
 20
-43.100000000000001
 30
0.0
 11
19.5
 21
-43.100000000000001
 31
0.0
  0
LINE
  5
3D
100
AcDbEntity
  8
0
  6
CONTINUOUS
 62
               4
100
AcDbLine
 10
1.5
 20
-23.600000000000001
 30
0.0
 11
1.5
 21
-44.600000000000001
 31
0.0
  0
LINE
  5
3E
100
AcDbEntity
  8
0
  6
CONTINUOUS
 62
               4
100
AcDbLine
 10
19.5
 20
-23.600000000000001
 30
0.0
 11
19.5
 21
-44.600000000000001
 31
0.0
  0
LINE
  5
3F
100
AcDbEntity
  8
0
  6
CONTINUOUS
 62
               4
100
AcDbLine
 10
14.0
 20
-42.899999999999999
 30
0.0
 11
14.0
 21
-43.100000000000001
 31
0.0
  0
LINE
  5
40
100
AcDbEntity
  8
0
  6
CONTINUOUS
 62
               4
100
AcDbLine
 10
7.0
 20
-42.899999999999999
 30
0.0
 11
7.0
 21
-43.100000000000001
 31
0.0
  0
LINE
  5
41
100
AcDbEntity
  8
0
  6
CONTINUOUS
 62
               4
100
AcDbLine
 10
1.5
 20
-32.600000000000001
 30
0.0
 11
19.5
 21
-32.600000000000001
 31
0.0
  0
LINE
  5
42
100
AcDbEntity
  8
0
  6
CONTINUOUS
 62
               4
100
AcDbLine
 10
1.5
 20
-23.600000000000001
 30
0.0
 11
19.5
 21
-23.600000000000001
 31
0.0
  0
LINE
  5
43
100
AcDbEntity
  8
0
  6
CONTINUOUS
 62
               4
100
AcDbLine
 10
9.5
 20
-42.399999999999999
 30
0.0
 11
11.5
 21
-42.399999999999999
 31
0.0
  0
LINE
  5
44
100
AcDbEntity
  8
0
  6
CONTINUOUS
 62
               4
100
AcDbLine
 10
11.5
 20
-32.600000000000001
 30
0.0
 11
11.5
 21
-42.399999999999999
 31
0.0
  0
LINE
  5
45
100
AcDbEntity
  8
0
  6
CONTINUOUS
 62
               4
100
AcDbLine
 10
9.5
 20
-32.600000000000001
 30
0.0
 11
9.5
 21
-42.399999999999999
 31
0.0
  0
LINE
  5
46
100
AcDbEntity
  8
0
  6
CONTINUOUS
 62
               4
100
AcDbLine
 10
3.8500000000000001
 20
-41.399999999999999
 30
0.0
 11
8.1500000000000004
 21
-41.399999999999999
 31
0.0
  0
LINE
  5
47
100
AcDbEntity
  8
0
  6
CONTINUOUS
 62
               4
100
AcDbLine
 10
3.8500000000000001
 20
-34.399999999999999
 30
0.0
 11
8.1500000000000004
 21
-34.399999999999999
 31
0.0
  0
LINE
  5
48
100
AcDbEntity
  8
0
  6
CONTINUOUS
 62
               4
100
AcDbLine
 10
12.85
 20
-34.399999999999999
 30
0.0
 11
12.85
 21
-35.200000000000003
 31
0.0
  0
LINE
  5
49
100
AcDbEntity
  8
0
  6
CONTINUOUS
 62
               4
100
AcDbLine
 10
8.1500000000000004
 20
-34.399999999999999
 30
0.0
 11
8.1500000000000004
 21
-35.200000000000003
 31
0.0
  0
LINE
  5
4A
100
AcDbEntity
  8
0
  6
CONTINUOUS
 62
               4
100
AcDbLine
 10
3.8500000000000001
 20
-34.399999999999999
 30
0.0
 11
3.8500000000000001
 21
-35.200000000000003
 31
0.0
  0
LINE
  5
4B
100
AcDbEntity
  8
0
  6
CONTINUOUS
 62
               4
100
AcDbLine
 10
17.149999999999999
 20
-34.399999999999999
 30
0.0
 11
17.149999999999999
 21
-35.200000000000003
 31
0.0
  0
LINE
  5
4C
100
AcDbEntity
  8
0
  6
CONTINUOUS
 62
               4
100
AcDbLine
 10
2.5
 20
-32.600000000000001
 30
0.0
 11
2.5
 21
-42.899999999999999
 31
0.0
  0
LINE
  5
4D
100
AcDbEntity
  8
0
  6
CONTINUOUS
 62
               4
100
AcDbLine
 10
18.5
 20
-32.600000000000001
 30
0.0
 11
18.5
 21
-42.899999999999999
 31
0.0
  0
LINE
  5
4E
100
AcDbEntity
  8
0
  6
CONTINUOUS
 62
               4
100
AcDbLine
 10
12.85
 20
-34.399999999999999
 30
0.0
 11
17.149999999999999
 21
-34.399999999999999
 31
0.0
  0
LINE
  5
4F
100
AcDbEntity
  8
0
  6
CONTINUOUS
 62
               4
100
AcDbLine
 10
12.85
 20
-41.399999999999999
 30
0.0
 11
17.149999999999999
 21
-41.399999999999999
 31
0.0
  0
LINE
  5
50
100
AcDbEntity
  8
0
  6
CONTINUOUS
 62
               4
100
AcDbLine
 10
3.8500000000000001
 20
-40.600000000000001
 30
0.0
 11
3.8500000000000001
 21
-41.399999999999999
 31
0.0
  0
LINE
  5
51
100
AcDbEntity
  8
0
  6
CONTINUOUS
 62
               4
100
AcDbLine
 10
8.1500000000000004
 20
-40.600000000000001
 30
0.0
 11
8.1500000000000004
 21
-41.399999999999999
 31
0.0
  0
LINE
  5
52
100
AcDbEntity
  8
0
  6
CONTINUOUS
 62
               4
100
AcDbLine
 10
12.85
 20
-40.600000000000001
 30
0.0
 11
12.85
 21
-41.399999999999999
 31
0.0
  0
LINE
  5
53
100
AcDbEntity
  8
0
  6
CONTINUOUS
 62
               4
100
AcDbLine
 10
17.149999999999999
 20
-40.600000000000001
 30
0.0
 11
17.149999999999999
 21
-41.399999999999999
 31
0.0
  0
LINE
  5
54
100
AcDbEntity
  8
0
  6
CONTINUOUS
 62
               4
100
AcDbLine
 10
12.050000000000001
 20
-35.200000000000003
 30
0.0
 11
12.050000000000001
 21
-40.600000000000001
 31
0.0
  0
LINE
  5
55
100
AcDbEntity
  8
0
  6
CONTINUOUS
 62
               4
100
AcDbLine
 10
17.949999999999999
 20
-35.200000000000003
 30
0.0
 11
17.949999999999999
 21
-40.600000000000001
 31
0.0
  0
LINE
  5
56
100
AcDbEntity
  8
0
  6
CONTINUOUS
 62
               4
100
AcDbLine
 10
8.9499999999999993
 20
-35.200000000000003
 30
0.0
 11
8.9499999999999993
 21
-40.600000000000001
 31
0.0
  0
LINE
  5
57
100
AcDbEntity
  8
0
  6
CONTINUOUS
 62
               4
100
AcDbLine
 10
3.0499999999999998
 20
-35.200000000000003
 30
0.0
 11
3.0499999999999998
 21
-40.600000000000001
 31
0.0
  0
LINE
  5
58
100
AcDbEntity
  8
0
  6
CONTINUOUS
 62
               4
100
AcDbLine
 10
8.1500000000000004
 20
-35.200000000000003
 30
0.0
 11
8.9499999999999993
 21
-35.200000000000003
 31
0.0
  0
LINE
  5
59
100
AcDbEntity
  8
0
  6
CONTINUOUS
 62
               4
100
AcDbLine
 10
3.0499999999999998
 20
-35.200000000000003
 30
0.0
 11
3.8500000000000001
 21
-35.200000000000003
 31
0.0
  0
LINE
  5
5A
100
AcDbEntity
  8
0
  6
CONTINUOUS
 62
               4
100
AcDbLine
 10
3.0499999999999998
 20
-40.600000000000001
 30
0.0
 11
3.8500000000000001
 21
-40.600000000000001
 31
0.0
  0
LINE
  5
5B
100
AcDbEntity
  8
0
  6
CONTINUOUS
 62
               4
100
AcDbLine
 10
8.1500000000000004
 20
-40.600000000000001
 30
0.0
 11
8.9499999999999993
 21
-40.600000000000001
 31
0.0
  0
LINE
  5
5C
100
AcDbEntity
  8
0
  6
CONTINUOUS
 62
               4
100
AcDbLine
 10
12.050000000000001
 20
-40.600000000000001
 30
0.0
 11
12.85
 21
-40.600000000000001
 31
0.0
  0
LINE
  5
5D
100
AcDbEntity
  8
0
  6
CONTINUOUS
 62
               4
100
AcDbLine
 10
17.149999999999999
 20
-40.600000000000001
 30
0.0
 11
17.949999999999999
 21
-40.600000000000001
 31
0.0
  0
LINE
  5
5E
100
AcDbEntity
  8
0
  6
CONTINUOUS
 62
               4
100
AcDbLine
 10
17.149999999999999
 20
-35.200000000000003
 30
0.0
 11
17.949999999999999
 21
-35.200000000000003
 31
0.0
  0
LINE
  5
5F
100
AcDbEntity
  8
0
  6
CONTINUOUS
 62
               4
100
AcDbLine
 10
12.050000000000001
 20
-35.200000000000003
 30
0.0
 11
12.85
 21
-35.200000000000003
 31
0.0
  0
LINE
  5
60
100
AcDbEntity
  8
0
  6
CONTINUOUS
 62
               4
100
AcDbLine
 10
1.6000000000000001
 20
-23.850000000000001
 30
0.0
 11
1.6000000000000001
 21
-44.850000000000001
 31
0.0
  0
LINE
  5
61
100
AcDbEntity
  8
0
  6
CONTINUOUS
 62
               4
100
AcDbLine
 10
19.399999999999999
 20
-23.850000000000001
 30
0.0
 11
19.399999999999999
 21
-44.850000000000001
 31
0.0
  0
LINE
  5
62
100
AcDbEntity
  8
0
  6
CONTINUOUS
 62
               4
100
AcDbLine
 10
1.6000000000000001
 20
-23.850000000000001
 30
0.0
 11
19.399999999999999
 21
-23.850000000000001
 31
0.0
  0
LINE
  5
63
100
AcDbEntity
  8
0
  6
CONTINUOUS
 62
               4
100
AcDbLine
 10
1.6000000000000001
 20
-44.850000000000001
 30
0.0
 11
19.399999999999999
 21
-44.850000000000001
 31
0.0
  0
LINE
  5
64
100
AcDbEntity
  8
0
  6
CONTINUOUS
 62
               4
100
AcDbLine
 10
19.399999999999999
 20
-44.600000000000001
 30
0.0
 11
21.0
 21
-44.600000000000001
 31
0.0
  0
LINE
  5
65
100
AcDbEntity
  8
0
  6
CONTINUOUS
 62
               4
100
AcDbLine
 10
2.0
 20
-21.600000000000001
 30
0.0
 11
19.0
 21
-21.600000000000001
 31
0.0
  0
LINE
  5
66
100
AcDbEntity
  8
0
  6
CONTINUOUS
 62
               4
100
AcDbLine
 10
2.0
 20
37.399999999999999
 30
0.0
 11
19.0
 21
37.399999999999999
 31
0.0
  0
LINE
  5
67
100
AcDbEntity
  8
0
  6
CONTINUOUS
 62
               4
100
AcDbLine
 10
19.0
 20
37.399999999999999
 30
0.0
 11
19.0
 21
-21.600000000000001
 31
0.0
  0
LINE
  5
68
100
AcDbEntity
  8
0
  6
CONTINUOUS
 62
               4
100
AcDbLine
 10
2.0
 20
37.399999999999999
 30
0.0
 11
2.0
 21
-21.600000000000001
 31
0.0
  0
LINE
  5
69
100
AcDbEntity
  8
0
  6
CONTINUOUS
 62
               4
100
AcDbLine
 10
15.0
 20
24.25
 30
0.0
 11
15.0
 21
-8.4499999999999993
 31
0.0
  0
LINE
  5
6A
100
AcDbEntity
  8
0
  6
CONTINUOUS
 62
               4
100
AcDbLine
 10
6.0
 20
24.25
 30
0.0
 11
6.0
 21
-8.4499999999999993
 31
0.0
  0
LINE
  5
6B
100
AcDbEntity
  8
0
  6
CONTINUOUS
 62
               4
100
AcDbLine
 10
6.0
 20
-8.4499999999999993
 30
0.0
 11
15.0
 21
-8.4499999999999993
 31
0.0
  0
LINE
  5
6C
100
AcDbEntity
  8
0
  6
CONTINUOUS
 62
               4
100
AcDbLine
 10
6.0
 20
24.25
 30
0.0
 11
15.0
 21
24.25
 31
0.0
  0
LINE
  5
6D
100
AcDbEntity
  8
0
  6
CONTINUOUS
 62
               4
100
AcDbLine
 10
6.5
 20
-8.0999999999999996
 30
0.0
 11
15.0
 21
-8.0999999999999996
 31
0.0
  0
LINE
  5
6E
100
AcDbEntity
  8
0
  6
CONTINUOUS
 62
               4
100
AcDbLine
 10
6.5
 20
23.899999999999999
 30
0.0
 11
15.0
 21
23.899999999999999
 31
0.0
  0
LINE
  5
6F
100
AcDbEntity
  8
0
  6
CONTINUOUS
 62
               4
100
AcDbLine
 10
6.5
 20
23.899999999999999
 30
0.0
 11
6.5
 21
-8.0999999999999996
 31
0.0
  0
LINE
  5
70
100
AcDbEntity
  8
0
  6
CONTINUOUS
 62
               4
100
AcDbLine
 10
8.75
 20
22.899999999999999
 30
0.0
 11
12.75
 21
22.899999999999999
 31
0.0
  0
LINE
  5
71
100
AcDbEntity
  8
0
  6
CONTINUOUS
 62
               4
100
AcDbLine
 10
8.75
 20
-7.0999999999999996
 30
0.0
 11
12.75
 21
-7.0999999999999996
 31
0.0
  0
LINE
  5
72
100
AcDbEntity
  8
0
  6
CONTINUOUS
 62
               4
100
AcDbLine
 10
6.5
 20
16.899999999999999
 30
0.0
 11
8.75
 21
16.899999999999999
 31
0.0
  0
LINE
  5
73
100
AcDbEntity
  8
0
  6
CONTINUOUS
 62
               4
100
AcDbLine
 10
6.5
 20
-1.1000000000000001
 30
0.0
 11
8.75
 21
-1.1000000000000001
 31
0.0
  0
LINE
  5
74
100
AcDbEntity
  8
0
  6
CONTINUOUS
 62
               4
100
AcDbLine
 10
8.75
 20
1.8999999999999999
 30
0.0
 11
12.75
 21
1.8999999999999999
 31
0.0
  0
LINE
  5
75
100
AcDbEntity
  8
0
  6
CONTINUOUS
 62
               4
100
AcDbLine
 10
8.75
 20
13.9
 30
0.0
 11
12.75
 21
13.9
 31
0.0
  0
LINE
  5
76
100
AcDbEntity
  8
0
  6
CONTINUOUS
 62
               4
100
AcDbLine
 10
12.75
 20
16.899999999999999
 30
0.0
 11
15.0
 21
16.899999999999999
 31
0.0
  0
LINE
  5
77
100
AcDbEntity
  8
0
  6
CONTINUOUS
 62
               4
100
AcDbLine
 10
12.75
 20
-1.1000000000000001
 30
0.0
 11
15.0
 21
-1.1000000000000001
 31
0.0
  0
LINE
  5
78
100
AcDbEntity
  8
0
  6
CONTINUOUS
 62
               4
100
AcDbLine
 10
7.5
 20
16.899999999999999
 30
0.0
 11
7.5
 21
-1.1000000000000001
 31
0.0
  0
LINE
  5
79
100
AcDbEntity
  8
0
  6
CONTINUOUS
 62
               4
100
AcDbLine
 10
14.0
 20
16.899999999999999
 30
0.0
 11
14.0
 21
9.9000000000000004
 31
0.0
  0
LINE
  5
7A
100
AcDbEntity
  8
0
  6
CONTINUOUS
 62
               4
100
AcDbLine
 10
6.5
 20
17.899999999999999
 30
0.0
 11
8.75
 21
17.899999999999999
 31
0.0
  0
LINE
  5
7B
100
AcDbEntity
  8
0
  6
CONTINUOUS
 62
               4
100
AcDbLine
 10
12.75
 20
17.899999999999999
 30
0.0
 11
15.0
 21
17.899999999999999
 31
0.0
  0
LINE
  5
7C
100
AcDbEntity
  8
0
  6
CONTINUOUS
 62
               4
100
AcDbLine
 10
12.75
 20
-2.1000000000000001
 30
0.0
 11
15.0
 21
-2.1000000000000001
 31
0.0
  0
LINE
  5
7D
100
AcDbEntity
  8
0
  6
CONTINUOUS
 62
               4
100
AcDbLine
 10
6.5
 20
-2.1000000000000001
 30
0.0
 11
8.75
 21
-2.1000000000000001
 31
0.0
  0
LINE
  5
7E
100
AcDbEntity
  8
0
  6
CONTINUOUS
 62
               4
100
AcDbLine
 10
12.75
 20
1.8999999999999999
 30
0.0
 11
12.75
 21
-8.0999999999999996
 31
0.0
  0
LINE
  5
7F
100
AcDbEntity
  8
0
  6
CONTINUOUS
 62
               4
100
AcDbLine
 10
8.75
 20
1.8999999999999999
 30
0.0
 11
8.75
 21
-8.0999999999999996
 31
0.0
  0
LINE
  5
80
100
AcDbEntity
  8
0
  6
CONTINUOUS
 62
               4
100
AcDbLine
 10
8.75
 20
23.899999999999999
 30
0.0
 11
8.75
 21
13.9
 31
0.0
  0
LINE
  5
81
100
AcDbEntity
  8
0
  6
CONTINUOUS
 62
               4
100
AcDbLine
 10
12.75
 20
23.899999999999999
 30
0.0
 11
12.75
 21
13.9
 31
0.0
  0
LINE
  5
82
100
AcDbEntity
  8
0
  6
CONTINUOUS
 62
               4
100
AcDbLine
 10
6.5
 20
19.399999999999999
 30
0.0
 11
8.75
 21
19.399999999999999
 31
0.0
  0
LINE
  5
83
100
AcDbEntity
  8
0
  6
CONTINUOUS
 62
               4
100
AcDbLine
 10
12.75
 20
19.399999999999999
 30
0.0
 11
15.0
 21
19.399999999999999
 31
0.0
  0
LINE
  5
84
100
AcDbEntity
  8
0
  6
CONTINUOUS
 62
               4
100
AcDbLine
 10
6.5
 20
-3.6000000000000001
 30
0.0
 11
8.75
 21
-3.6000000000000001
 31
0.0
  0
LINE
  5
85
100
AcDbEntity
  8
0
  6
CONTINUOUS
 62
               4
100
AcDbLine
 10
12.75
 20
-3.6000000000000001
 30
0.0
 11
15.0
 21
-3.6000000000000001
 31
0.0
  0
LINE
  5
86
100
AcDbEntity
  8
0
  6
CONTINUOUS
 62
               4
100
AcDbLine
 10
6.5
 20
-4.8499999999999996
 30
0.0
 11
8.75
 21
-4.8499999999999996
 31
0.0
  0
LINE
  5
87
100
AcDbEntity
  8
0
  6
CONTINUOUS
 62
               4
100
AcDbLine
 10
12.75
 20
-4.8499999999999996
 30
0.0
 11
15.0
 21
-4.8499999999999996
 31
0.0
  0
LINE
  5
88
100
AcDbEntity
  8
0
  6
CONTINUOUS
 62
               4
100
AcDbLine
 10
6.5
 20
20.649999999999999
 30
0.0
 11
8.75
 21
20.649999999999999
 31
0.0
  0
LINE
  5
89
100
AcDbEntity
  8
0
  6
CONTINUOUS
 62
               4
100
AcDbLine
 10
12.75
 20
20.649999999999999
 30
0.0
 11
15.0
 21
20.649999999999999
 31
0.0
  0
LINE
  5
8A
100
AcDbEntity
  8
0
  6
CONTINUOUS
 62
               4
100
AcDbLine
 10
13.0
 20
9.9000000000000004
 30
0.0
 11
15.0
 21
9.9000000000000004
 31
0.0
  0
LINE
  5
8B
100
AcDbEntity
  8
0
  6
CONTINUOUS
 62
               4
100
AcDbLine
 10
13.0
 20
5.9000000000000004
 30
0.0
 11
15.0
 21
5.9000000000000004
 31
0.0
  0
LINE
  5
8C
100
AcDbEntity
  8
0
  6
CONTINUOUS
 62
               4
100
AcDbLine
 10
13.0
 20
9.9000000000000004
 30
0.0
 11
13.0
 21
5.9000000000000004
 31
0.0
  0
LINE
  5
8D
100
AcDbEntity
  8
0
  6
CONTINUOUS
 62
               4
100
AcDbLine
 10
14.0
 20
5.9000000000000004
 30
0.0
 11
14.0
 21
-1.1000000000000001
 31
0.0
  0
LINE
  5
8E
100
AcDbEntity
  8
0
  6
CONTINUOUS
 62
               4
100
AcDbLine
 10
8.75
 20
14.9
 30
0.0
 11
12.75
 21
14.9
 31
0.0
  0
LINE
  5
8F
100
AcDbEntity
  8
0
  6
CONTINUOUS
 62
               4
100
AcDbLine
 10
8.75
 20
0.9
 30
0.0
 11
12.75
 21
0.9
 31
0.0
  0
LINE
  5
90
100
AcDbEntity
  8
0
  6
CONTINUOUS
 62
               4
100
AcDbLine
 10
8.75
 20
20.399999999999999
 30
0.0
 11
12.75
 21
20.399999999999999
 31
0.0
  0
LINE
  5
91
100
AcDbEntity
  8
0
  6
CONTINUOUS
 62
               4
100
AcDbLine
 10
8.75
 20
-4.5999999999999996
 30
0.0
 11
12.75
 21
-4.5999999999999996
 31
0.0
  0
LINE
  5
92
100
AcDbEntity
  8
0
  6
CONTINUOUS
 62
               4
100
AcDbLine
 10
8.75
 20
-3.7999999999999998
 30
0.0
 11
12.75
 21
-3.7999999999999998
 31
0.0
  0
LINE
  5
93
100
AcDbEntity
  8
0
  6
CONTINUOUS
 62
               4
100
AcDbLine
 10
8.75
 20
19.600000000000001
 30
0.0
 11
12.75
 21
19.600000000000001
 31
0.0
  0
LINE
  5
94
100
AcDbEntity
  8
0
  6
CONTINUOUS
 62
               4
100
AcDbLine
 10
8.75
 20
19.300000000000001
 30
0.0
 11
12.75
 21
19.300000000000001
 31
0.0
  0
LINE
  5
95
100
AcDbEntity
  8
0
  6
CONTINUOUS
 62
               4
100
AcDbLine
 10
8.75
 20
19.0
 30
0.0
 11
12.75
 21
19.0
 31
0.0
  0
LINE
  5
96
100
AcDbEntity
  8
0
  6
CONTINUOUS
 62
               4
100
AcDbLine
 10
8.75
 20
18.699999999999999
 30
0.0
 11
12.75
 21
18.699999999999999
 31
0.0
  0
LINE
  5
97
100
AcDbEntity
  8
0
  6
CONTINUOUS
 62
               4
100
AcDbLine
 10
8.75
 20
18.399999999999999
 30
0.0
 11
12.75
 21
18.399999999999999
 31
0.0
  0
LINE
  5
98
100
AcDbEntity
  8
0
  6
CONTINUOUS
 62
               4
100
AcDbLine
 10
8.75
 20
18.100000000000001
 30
0.0
 11
12.75
 21
18.100000000000001
 31
0.0
  0
LINE
  5
99
100
AcDbEntity
  8
0
  6
CONTINUOUS
 62
               4
100
AcDbLine
 10
8.75
 20
17.800000000000001
 30
0.0
 11
12.75
 21
17.800000000000001
 31
0.0
  0
LINE
  5
9A
100
AcDbEntity
  8
0
  6
CONTINUOUS
 62
               4
100
AcDbLine
 10
8.75
 20
17.5
 30
0.0
 11
12.75
 21
17.5
 31
0.0
  0
LINE
  5
9B
100
AcDbEntity
  8
0
  6
CONTINUOUS
 62
               4
100
AcDbLine
 10
8.75
 20
-3.5
 30
0.0
 11
12.75
 21
-3.5
 31
0.0
  0
LINE
  5
9C
100
AcDbEntity
  8
0
  6
CONTINUOUS
 62
               4
100
AcDbLine
 10
8.75
 20
-3.2000000000000002
 30
0.0
 11
12.75
 21
-3.2000000000000002
 31
0.0
  0
LINE
  5
9D
100
AcDbEntity
  8
0
  6
CONTINUOUS
 62
               4
100
AcDbLine
 10
8.75
 20
-2.8999999999999999
 30
0.0
 11
12.75
 21
-2.8999999999999999
 31
0.0
  0
LINE
  5
9E
100
AcDbEntity
  8
0
  6
CONTINUOUS
 62
               4
100
AcDbLine
 10
8.75
 20
-2.6000000000000001
 30
0.0
 11
12.75
 21
-2.6000000000000001
 31
0.0
  0
LINE
  5
9F
100
AcDbEntity
  8
0
  6
CONTINUOUS
 62
               4
100
AcDbLine
 10
8.75
 20
-2.2999999999999998
 30
0.0
 11
12.75
 21
-2.2999999999999998
 31
0.0
  0
LINE
  5
A0
100
AcDbEntity
  8
0
  6
CONTINUOUS
 62
               4
100
AcDbLine
 10
8.75
 20
-2.0
 30
0.0
 11
12.75
 21
-2.0
 31
0.0
  0
LINE
  5
A1
100
AcDbEntity
  8
0
  6
CONTINUOUS
 62
               4
100
AcDbLine
 10
8.75
 20
-1.7
 30
0.0
 11
12.75
 21
-1.7
 31
0.0
  0
LINE
  5
A2
100
AcDbEntity
  8
0
  6
CONTINUOUS
 62
               4
100
AcDbLine
 10
4.9299999999999997
 20
-38.960000000000001
 30
0.0
 11
7.0599999999999996
 21
-36.829999999999998
 31
0.0
  0
LINE
  5
A3
100
AcDbEntity
  8
0
  6
CONTINUOUS
 62
               4
100
AcDbLine
 10
4.9299999999999997
 20
-36.829999999999998
 30
0.0
 11
7.0599999999999996
 21
-38.960000000000001
 31
0.0
  0
LINE
  5
A4
100
AcDbEntity
  8
0
  6
CONTINUOUS
 62
               4
100
AcDbLine
 10
13.93
 20
-38.960000000000001
 30
0.0
 11
16.059999999999999
 21
-36.829999999999998
 31
0.0
  0
LINE
  5
A5
100
AcDbEntity
  8
0
  6
CONTINUOUS
 62
               4
100
AcDbLine
 10
13.93
 20
-36.829999999999998
 30
0.0
 11
16.059999999999999
 21
-38.960000000000001
 31
0.0
  0
LINE
  5
A6
100
AcDbEntity
  8
0
  6
CONTINUOUS
 62
               4
100
AcDbLine
 10
21.0
 20
60.399999999999999
 30
0.0
 11
0.0
 21
60.399999999999999
 31
0.0
  0
CIRCLE
  5
A7
100
AcDbEntity
  8
0
  6
CONTINUOUS
 62
               4
100
AcDbCircle
 10
10.5
 20
42.899993896484375
 30
0.0
 40
3.1999998092651367
  0
CIRCLE
  5
A8
100
AcDbEntity
  8
0
  6
CONTINUOUS
 62
               4
100
AcDbCircle
 10
16.0
 20
-28.100006103515625
 30
0.0
 40
1.5999994277954102
  0
CIRCLE
  5
A9
100
AcDbEntity
  8
0
  6
CONTINUOUS
 62
               4
100
AcDbCircle
 10
6.0
 20
-37.900009155273438
 30
0.0
 40
2.7999992370605469
  0
CIRCLE
  5
AA
100
AcDbEntity
  8
0
  6
CONTINUOUS
 62
               4
100
AcDbCircle
 10
15.0
 20
-37.900009155273438
 30
0.0
 40
2.7999992370605469
  0
CIRCLE
  5
AB
100
AcDbEntity
  8
0
  6
CONTINUOUS
 62
               4
100
AcDbCircle
 10
9.47998046875
 20
12.97998046875
 30
0.0
 40
0.3199996948242188
  0
CIRCLE
  5
AC
100
AcDbEntity
  8
0
  6
CONTINUOUS
 62
               4
100
AcDbCircle
 10
12.019989013671875
 20
12.97998046875
 30
0.0
 40
0.3199996948242188
  0
CIRCLE
  5
AD
100
AcDbEntity
  8
0
  6
CONTINUOUS
 62
               4
100
AcDbCircle
 10
9.47998046875
 20
10.439987182617187
 30
0.0
 40
0.3199996948242188
  0
CIRCLE
  5
AE
100
AcDbEntity
  8
0
  6
CONTINUOUS
 62
               4
100
AcDbCircle
 10
12.019989013671875
 20
10.439987182617187
 30
0.0
 40
0.3199996948242188
  0
CIRCLE
  5
AF
100
AcDbEntity
  8
0
  6
CONTINUOUS
 62
               4
100
AcDbCircle
 10
9.47998046875
 20
7.8999786376953125
 30
0.0
 40
0.3199996948242188
  0
CIRCLE
  5
B0
100
AcDbEntity
  8
0
  6
CONTINUOUS
 62
               4
100
AcDbCircle
 10
12.019989013671875
 20
7.8999786376953125
 30
0.0
 40
0.3199996948242188
  0
CIRCLE
  5
B1
100
AcDbEntity
  8
0
  6
CONTINUOUS
 62
               4
100
AcDbCircle
 10
12.019989013671875
 20
5.3599853515625
 30
0.0
 40
0.3199996948242188
  0
CIRCLE
  5
B2
100
AcDbEntity
  8
0
  6
CONTINUOUS
 62
               4
100
AcDbCircle
 10
9.47998046875
 20
5.3599853515625
 30
0.0
 40
0.3199996948242188
  0
CIRCLE
  5
B3
100
AcDbEntity
  8
0
  6
CONTINUOUS
 62
               4
100
AcDbCircle
 10
9.47998046875
 20
2.819976806640625
 30
0.0
 40
0.3199996948242188
  0
CIRCLE
  5
B4
100
AcDbEntity
  8
0
  6
CONTINUOUS
 62
               4
100
AcDbCircle
 10
12.019989013671875
 20
2.819976806640625
 30
0.0
 40
0.3199996948242188
  0
ENDBLK
  5
B5
100
AcDbEntity
  8
0
100
AcDbBlockEnd
  0
BLOCK
  5
B6
100
AcDbEntity
  8
0
100
AcDbBlockBegin
  2
F15_CONNECTER-2
 70
               0
 10
0.0
 20
0.0
 30
0.0
  3
F15_CONNECTER-2
  1

  0
LINE
  5
B7
100
AcDbEntity
  8
0
  6
CONTINUOUS
 62
               4
100
AcDbLine
 10
21.0
 20
-44.600000000000001
 30
0.0
 11
21.0
 21
60.399999999999999
 31
0.0
  0
LINE
  5
B8
100
AcDbEntity
  8
0
  6
CONTINUOUS
 62
               4
100
AcDbLine
 10
0.0
 20
-44.600000000000001
 30
0.0
 11
0.0
 21
60.399999999999999
 31
0.0
  0
LINE
  5
B9
100
AcDbEntity
  8
0
  6
CONTINUOUS
 62
               4
100
AcDbLine
 10
21.0
 20
60.399999999999999
 30
0.0
 11
0.0
 21
60.399999999999999
 31
0.0
  0
LINE
  5
BA
100
AcDbEntity
  8
0
  6
CONTINUOUS
 62
               4
100
AcDbLine
 10
21.0
 20
60.399999999999999
 30
0.0
 11
21.0
 21
48.399999999999999
 31
0.0
  0
LINE
  5
BB
100
AcDbEntity
  8
0
  6
CONTINUOUS
 62
               4
100
AcDbLine
 10
0.0
 20
60.399999999999999
 30
0.0
 11
0.0
 21
48.399999999999999
 31
0.0
  0
LINE
  5
BC
100
AcDbEntity
  8
0
  6
CONTINUOUS
 62
               4
100
AcDbLine
 10
0.0
 20
48.899999999999999
 30
0.0
 11
21.0
 21
48.899999999999999
 31
0.0
  0
LINE
  5
BD
100
AcDbEntity
  8
0
  6
CONTINUOUS
 62
               4
100
AcDbLine
 10
1.5
 20
58.899999999999999
 30
0.0
 11
1.5
 21
48.899999999999999
 31
0.0
  0
LINE
  5
BE
100
AcDbEntity
  8
0
  6
CONTINUOUS
 62
               4
100
AcDbLine
 10
19.5
 20
58.899999999999999
 30
0.0
 11
19.5
 21
48.899999999999999
 31
0.0
  0
LINE
  5
BF
100
AcDbEntity
  8
0
  6
CONTINUOUS
 62
               4
100
AcDbLine
 10
1.5
 20
58.899999999999999
 30
0.0
 11
19.5
 21
58.899999999999999
 31
0.0
  0
LINE
  5
C0
100
AcDbEntity
  8
0
  6
CONTINUOUS
 62
               4
100
AcDbLine
 10
0.0
 20
48.399999999999999
 30
0.0
 11
21.0
 21
48.399999999999999
 31
0.0
  0
LINE
  5
C1
100
AcDbEntity
  8
0
  6
CONTINUOUS
 62
               4
100
AcDbLine
 10
9.4299999999999997
 20
41.829999999999998
 30
0.0
 11
11.56
 21
43.960000000000001
 31
0.0
  0
LINE
  5
C2
100
AcDbEntity
  8
0
  6
CONTINUOUS
 62
               4
100
AcDbLine
 10
9.4299999999999997
 20
43.960000000000001
 30
0.0
 11
11.56
 21
41.829999999999998
 31
0.0
  0
LINE
  5
C3
100
AcDbEntity
  8
0
  6
CONTINUOUS
 62
               4
100
AcDbLine
 10
1.5
 20
-42.899999999999999
 30
0.0
 11
19.5
 21
-42.899999999999999
 31
0.0
  0
LINE
  5
C4
100
AcDbEntity
  8
0
  6
CONTINUOUS
 62
               4
100
AcDbLine
 10
1.5
 20
-43.100000000000001
 30
0.0
 11
19.5
 21
-43.100000000000001
 31
0.0
  0
LINE
  5
C5
100
AcDbEntity
  8
0
  6
CONTINUOUS
 62
               4
100
AcDbLine
 10
1.5
 20
-23.600000000000001
 30
0.0
 11
1.5
 21
-44.600000000000001
 31
0.0
  0
LINE
  5
C6
100
AcDbEntity
  8
0
  6
CONTINUOUS
 62
               4
100
AcDbLine
 10
19.5
 20
-23.600000000000001
 30
0.0
 11
19.5
 21
-44.600000000000001
 31
0.0
  0
LINE
  5
C7
100
AcDbEntity
  8
0
  6
CONTINUOUS
 62
               4
100
AcDbLine
 10
14.0
 20
-42.899999999999999
 30
0.0
 11
14.0
 21
-43.100000000000001
 31
0.0
  0
LINE
  5
C8
100
AcDbEntity
  8
0
  6
CONTINUOUS
 62
               4
100
AcDbLine
 10
7.0
 20
-42.899999999999999
 30
0.0
 11
7.0
 21
-43.100000000000001
 31
0.0
  0
LINE
  5
C9
100
AcDbEntity
  8
0
  6
CONTINUOUS
 62
               4
100
AcDbLine
 10
1.5
 20
-32.600000000000001
 30
0.0
 11
19.5
 21
-32.600000000000001
 31
0.0
  0
LINE
  5
CA
100
AcDbEntity
  8
0
  6
CONTINUOUS
 62
               4
100
AcDbLine
 10
1.5
 20
-23.600000000000001
 30
0.0
 11
19.5
 21
-23.600000000000001
 31
0.0
  0
LINE
  5
CB
100
AcDbEntity
  8
0
  6
CONTINUOUS
 62
               4
100
AcDbLine
 10
9.5
 20
-42.399999999999999
 30
0.0
 11
11.5
 21
-42.399999999999999
 31
0.0
  0
LINE
  5
CC
100
AcDbEntity
  8
0
  6
CONTINUOUS
 62
               4
100
AcDbLine
 10
11.5
 20
-32.600000000000001
 30
0.0
 11
11.5
 21
-42.399999999999999
 31
0.0
  0
LINE
  5
CD
100
AcDbEntity
  8
0
  6
CONTINUOUS
 62
               4
100
AcDbLine
 10
9.5
 20
-32.600000000000001
 30
0.0
 11
9.5
 21
-42.399999999999999
 31
0.0
  0
LINE
  5
CE
100
AcDbEntity
  8
0
  6
CONTINUOUS
 62
               4
100
AcDbLine
 10
3.8500000000000001
 20
-41.399999999999999
 30
0.0
 11
8.1500000000000004
 21
-41.399999999999999
 31
0.0
  0
LINE
  5
CF
100
AcDbEntity
  8
0
  6
CONTINUOUS
 62
               4
100
AcDbLine
 10
3.8500000000000001
 20
-34.399999999999999
 30
0.0
 11
8.1500000000000004
 21
-34.399999999999999
 31
0.0
  0
LINE
  5
D0
100
AcDbEntity
  8
0
  6
CONTINUOUS
 62
               4
100
AcDbLine
 10
12.85
 20
-34.399999999999999
 30
0.0
 11
12.85
 21
-35.200000000000003
 31
0.0
  0
LINE
  5
D1
100
AcDbEntity
  8
0
  6
CONTINUOUS
 62
               4
100
AcDbLine
 10
8.1500000000000004
 20
-34.399999999999999
 30
0.0
 11
8.1500000000000004
 21
-35.200000000000003
 31
0.0
  0
LINE
  5
D2
100
AcDbEntity
  8
0
  6
CONTINUOUS
 62
               4
100
AcDbLine
 10
3.8500000000000001
 20
-34.399999999999999
 30
0.0
 11
3.8500000000000001
 21
-35.200000000000003
 31
0.0
  0
LINE
  5
D3
100
AcDbEntity
  8
0
  6
CONTINUOUS
 62
               4
100
AcDbLine
 10
17.149999999999999
 20
-34.399999999999999
 30
0.0
 11
17.149999999999999
 21
-35.200000000000003
 31
0.0
  0
LINE
  5
D4
100
AcDbEntity
  8
0
  6
CONTINUOUS
 62
               4
100
AcDbLine
 10
2.5
 20
-32.600000000000001
 30
0.0
 11
2.5
 21
-42.899999999999999
 31
0.0
  0
LINE
  5
D5
100
AcDbEntity
  8
0
  6
CONTINUOUS
 62
               4
100
AcDbLine
 10
18.5
 20
-32.600000000000001
 30
0.0
 11
18.5
 21
-42.899999999999999
 31
0.0
  0
LINE
  5
D6
100
AcDbEntity
  8
0
  6
CONTINUOUS
 62
               4
100
AcDbLine
 10
12.85
 20
-34.399999999999999
 30
0.0
 11
17.149999999999999
 21
-34.399999999999999
 31
0.0
  0
LINE
  5
D7
100
AcDbEntity
  8
0
  6
CONTINUOUS
 62
               4
100
AcDbLine
 10
12.85
 20
-41.399999999999999
 30
0.0
 11
17.149999999999999
 21
-41.399999999999999
 31
0.0
  0
LINE
  5
D8
100
AcDbEntity
  8
0
  6
CONTINUOUS
 62
               4
100
AcDbLine
 10
3.8500000000000001
 20
-40.600000000000001
 30
0.0
 11
3.8500000000000001
 21
-41.399999999999999
 31
0.0
  0
LINE
  5
D9
100
AcDbEntity
  8
0
  6
CONTINUOUS
 62
               4
100
AcDbLine
 10
8.1500000000000004
 20
-40.600000000000001
 30
0.0
 11
8.1500000000000004
 21
-41.399999999999999
 31
0.0
  0
LINE
  5
DA
100
AcDbEntity
  8
0
  6
CONTINUOUS
 62
               4
100
AcDbLine
 10
12.85
 20
-40.600000000000001
 30
0.0
 11
12.85
 21
-41.399999999999999
 31
0.0
  0
LINE
  5
DB
100
AcDbEntity
  8
0
  6
CONTINUOUS
 62
               4
100
AcDbLine
 10
17.149999999999999
 20
-40.600000000000001
 30
0.0
 11
17.149999999999999
 21
-41.399999999999999
 31
0.0
  0
LINE
  5
DC
100
AcDbEntity
  8
0
  6
CONTINUOUS
 62
               4
100
AcDbLine
 10
12.050000000000001
 20
-35.200000000000003
 30
0.0
 11
12.050000000000001
 21
-40.600000000000001
 31
0.0
  0
LINE
  5
DD
100
AcDbEntity
  8
0
  6
CONTINUOUS
 62
               4
100
AcDbLine
 10
17.949999999999999
 20
-35.200000000000003
 30
0.0
 11
17.949999999999999
 21
-40.600000000000001
 31
0.0
  0
LINE
  5
DE
100
AcDbEntity
  8
0
  6
CONTINUOUS
 62
               4
100
AcDbLine
 10
8.9499999999999993
 20
-35.200000000000003
 30
0.0
 11
8.9499999999999993
 21
-40.600000000000001
 31
0.0
  0
LINE
  5
DF
100
AcDbEntity
  8
0
  6
CONTINUOUS
 62
               4
100
AcDbLine
 10
3.0499999999999998
 20
-35.200000000000003
 30
0.0
 11
3.0499999999999998
 21
-40.600000000000001
 31
0.0
  0
LINE
  5
E0
100
AcDbEntity
  8
0
  6
CONTINUOUS
 62
               4
100
AcDbLine
 10
8.1500000000000004
 20
-35.200000000000003
 30
0.0
 11
8.9499999999999993
 21
-35.200000000000003
 31
0.0
  0
LINE
  5
E1
100
AcDbEntity
  8
0
  6
CONTINUOUS
 62
               4
100
AcDbLine
 10
3.0499999999999998
 20
-35.200000000000003
 30
0.0
 11
3.8500000000000001
 21
-35.200000000000003
 31
0.0
  0
LINE
  5
E2
100
AcDbEntity
  8
0
  6
CONTINUOUS
 62
               4
100
AcDbLine
 10
3.0499999999999998
 20
-40.600000000000001
 30
0.0
 11
3.8500000000000001
 21
-40.600000000000001
 31
0.0
  0
LINE
  5
E3
100
AcDbEntity
  8
0
  6
CONTINUOUS
 62
               4
100
AcDbLine
 10
8.1500000000000004
 20
-40.600000000000001
 30
0.0
 11
8.9499999999999993
 21
-40.600000000000001
 31
0.0
  0
LINE
  5
E4
100
AcDbEntity
  8
0
  6
CONTINUOUS
 62
               4
100
AcDbLine
 10
12.050000000000001
 20
-40.600000000000001
 30
0.0
 11
12.85
 21
-40.600000000000001
 31
0.0
  0
LINE
  5
E5
100
AcDbEntity
  8
0
  6
CONTINUOUS
 62
               4
100
AcDbLine
 10
17.149999999999999
 20
-40.600000000000001
 30
0.0
 11
17.949999999999999
 21
-40.600000000000001
 31
0.0
  0
LINE
  5
E6
100
AcDbEntity
  8
0
  6
CONTINUOUS
 62
               4
100
AcDbLine
 10
17.149999999999999
 20
-35.200000000000003
 30
0.0
 11
17.949999999999999
 21
-35.200000000000003
 31
0.0
  0
LINE
  5
E7
100
AcDbEntity
  8
0
  6
CONTINUOUS
 62
               4
100
AcDbLine
 10
12.050000000000001
 20
-35.200000000000003
 30
0.0
 11
12.85
 21
-35.200000000000003
 31
0.0
  0
LINE
  5
E8
100
AcDbEntity
  8
0
  6
CONTINUOUS
 62
               4
100
AcDbLine
 10
1.6000000000000001
 20
-23.850000000000001
 30
0.0
 11
1.6000000000000001
 21
-44.850000000000001
 31
0.0
  0
LINE
  5
E9
100
AcDbEntity
  8
0
  6
CONTINUOUS
 62
               4
100
AcDbLine
 10
19.399999999999999
 20
-23.850000000000001
 30
0.0
 11
19.399999999999999
 21
-44.850000000000001
 31
0.0
  0
LINE
  5
EA
100
AcDbEntity
  8
0
  6
CONTINUOUS
 62
               4
100
AcDbLine
 10
1.6000000000000001
 20
-23.850000000000001
 30
0.0
 11
19.399999999999999
 21
-23.850000000000001
 31
0.0
  0
LINE
  5
EB
100
AcDbEntity
  8
0
  6
CONTINUOUS
 62
               4
100
AcDbLine
 10
1.6000000000000001
 20
-44.850000000000001
 30
0.0
 11
19.399999999999999
 21
-44.850000000000001
 31
0.0
  0
LINE
  5
EC
100
AcDbEntity
  8
0
  6
CONTINUOUS
 62
               4
100
AcDbLine
 10
2.0
 20
-21.600000000000001
 30
0.0
 11
19.0
 21
-21.600000000000001
 31
0.0
  0
LINE
  5
ED
100
AcDbEntity
  8
0
  6
CONTINUOUS
 62
               4
100
AcDbLine
 10
2.0
 20
37.399999999999999
 30
0.0
 11
19.0
 21
37.399999999999999
 31
0.0
  0
LINE
  5
EE
100
AcDbEntity
  8
0
  6
CONTINUOUS
 62
               4
100
AcDbLine
 10
19.0
 20
37.399999999999999
 30
0.0
 11
19.0
 21
-21.600000000000001
 31
0.0
  0
LINE
  5
EF
100
AcDbEntity
  8
0
  6
CONTINUOUS
 62
               4
100
AcDbLine
 10
2.0
 20
37.399999999999999
 30
0.0
 11
2.0
 21
-21.600000000000001
 31
0.0
  0
LINE
  5
F0
100
AcDbEntity
  8
0
  6
CONTINUOUS
 62
               4
100
AcDbLine
 10
4.9299999999999997
 20
-38.960000000000001
 30
0.0
 11
7.0599999999999996
 21
-36.829999999999998
 31
0.0
  0
LINE
  5
F1
100
AcDbEntity
  8
0
  6
CONTINUOUS
 62
               4
100
AcDbLine
 10
4.9299999999999997
 20
-36.829999999999998
 30
0.0
 11
7.0599999999999996
 21
-38.960000000000001
 31
0.0
  0
LINE
  5
F2
100
AcDbEntity
  8
0
  6
CONTINUOUS
 62
               4
100
AcDbLine
 10
13.93
 20
-38.960000000000001
 30
0.0
 11
16.059999999999999
 21
-36.829999999999998
 31
0.0
  0
LINE
  5
F3
100
AcDbEntity
  8
0
  6
CONTINUOUS
 62
               4
100
AcDbLine
 10
13.93
 20
-36.829999999999998
 30
0.0
 11
16.059999999999999
 21
-38.960000000000001
 31
0.0
  0
LINE
  5
F4
100
AcDbEntity
  8
0
  6
CONTINUOUS
 62
               4
100
AcDbLine
 10
19.5
 20
-44.600000000000001
 30
0.0
 11
21.0
 21
-44.600000000000001
 31
0.0
  0
LINE
  5
F5
100
AcDbEntity
  8
0
  6
CONTINUOUS
 62
               4
100
AcDbLine
 10
4.25
 20
33.5
 30
0.0
 11
4.25
 21
-17.699999999999999
 31
0.0
  0
LINE
  5
F6
100
AcDbEntity
  8
0
  6
CONTINUOUS
 62
               4
100
AcDbLine
 10
16.75
 20
33.5
 30
0.0
 11
16.75
 21
-17.699999999999999
 31
0.0
  0
LINE
  5
F7
100
AcDbEntity
  8
0
  6
CONTINUOUS
 62
               4
100
AcDbLine
 10
5.25
 20
34.5
 30
0.0
 11
15.75
 21
34.5
 31
0.0
  0
LINE
  5
F8
100
AcDbEntity
  8
0
  6
CONTINUOUS
 62
               4
100
AcDbLine
 10
5.25
 20
-18.699999999999999
 30
0.0
 11
15.75
 21
-18.699999999999999
 31
0.0
  0
LINE
  5
F9
100
AcDbEntity
  8
0
  6
CONTINUOUS
 62
               4
100
AcDbLine
 10
9.0500000000000007
 20
28.899999999999999
 30
0.0
 11
11.94
 21
28.899999999999999
 31
0.0
  0
LINE
  5
FA
100
AcDbEntity
  8
0
  6
CONTINUOUS
 62
               4
100
AcDbLine
 10
9.0500000000000007
 20
33.899999999999999
 30
0.0
 11
11.94
 21
33.899999999999999
 31
0.0
  0
LINE
  5
FB
100
AcDbEntity
  8
0
  6
CONTINUOUS
 62
               4
100
AcDbLine
 10
9.0500000000000007
 20
28.899999999999999
 30
0.0
 11
7.6100000000000003
 21
31.399999999999999
 31
0.0
  0
LINE
  5
FC
100
AcDbEntity
  8
0
  6
CONTINUOUS
 62
               4
100
AcDbLine
 10
13.380000000000001
 20
31.399999999999999
 30
0.0
 11
11.94
 21
33.899999999999999
 31
0.0
  0
LINE
  5
FD
100
AcDbEntity
  8
0
  6
CONTINUOUS
 62
               4
100
AcDbLine
 10
7.6100000000000003
 20
31.399999999999999
 30
0.0
 11
9.0500000000000007
 21
33.899999999999999
 31
0.0
  0
LINE
  5
FE
100
AcDbEntity
  8
0
  6
CONTINUOUS
 62
               4
100
AcDbLine
 10
11.94
 20
28.899999999999999
 30
0.0
 11
13.380000000000001
 21
31.399999999999999
 31
0.0
  0
LINE
  5
FF
100
AcDbEntity
  8
0
  6
CONTINUOUS
 62
               4
100
AcDbLine
 10
9.0500000000000007
 20
-18.100000000000001
 30
0.0
 11
11.94
 21
-18.100000000000001
 31
0.0
  0
LINE
  5
100
100
AcDbEntity
  8
0
  6
CONTINUOUS
 62
               4
100
AcDbLine
 10
9.0500000000000007
 20
-13.1
 30
0.0
 11
11.94
 21
-13.1
 31
0.0
  0
LINE
  5
101
100
AcDbEntity
  8
0
  6
CONTINUOUS
 62
               4
100
AcDbLine
 10
9.0500000000000007
 20
-18.100000000000001
 30
0.0
 11
7.6100000000000003
 21
-15.6
 31
0.0
  0
LINE
  5
102
100
AcDbEntity
  8
0
  6
CONTINUOUS
 62
               4
100
AcDbLine
 10
13.380000000000001
 20
-15.6
 30
0.0
 11
11.94
 21
-13.1
 31
0.0
  0
LINE
  5
103
100
AcDbEntity
  8
0
  6
CONTINUOUS
 62
               4
100
AcDbLine
 10
7.6100000000000003
 20
-15.6
 30
0.0
 11
9.0500000000000007
 21
-13.1
 31
0.0
  0
LINE
  5
104
100
AcDbEntity
  8
0
  6
CONTINUOUS
 62
               4
100
AcDbLine
 10
11.94
 20
-18.100000000000001
 30
0.0
 11
13.380000000000001
 21
-15.6
 31
0.0
  0
LINE
  5
105
100
AcDbEntity
  8
0
  6
CONTINUOUS
 62
               4
100
AcDbLine
 10
6.5899999999999999
 20
24.34
 30
0.0
 11
6.5899999999999999
 21
-8.5399999999999991
 31
0.0
  0
LINE
  5
106
100
AcDbEntity
  8
0
  6
CONTINUOUS
 62
               4
100
AcDbLine
 10
14.41
 20
25.050000000000001
 30
0.0
 11
14.41
 21
-9.25
 31
0.0
  0
LINE
  5
107
100
AcDbEntity
  8
0
  6
CONTINUOUS
 62
               4
100
AcDbLine
 10
8.2400000000000002
 20
-10.51
 30
0.0
 11
12.41
 21
-11.25
 31
0.0
  0
LINE
  5
108
100
AcDbEntity
  8
0
  6
CONTINUOUS
 62
               4
100
AcDbLine
 10
8.2400000000000002
 20
26.309999999999999
 30
0.0
 11
12.41
 21
27.050000000000001
 31
0.0
  0
LINE
  5
109
100
AcDbEntity
  8
0
  6
CONTINUOUS
 62
               4
100
AcDbLine
 10
8.3800000000000008
 20
-9.7200000000000006
 30
0.0
 11
12.470000000000001
 21
-10.44
 31
0.0
  0
LINE
  5
10A
100
AcDbEntity
  8
0
  6
CONTINUOUS
 62
               4
100
AcDbLine
 10
13.609999999999999
 20
25.050000000000001
 30
0.0
 11
13.609999999999999
 21
-9.25
 31
0.0
  0
LINE
  5
10B
100
AcDbEntity
  8
0
  6
CONTINUOUS
 62
               4
100
AcDbLine
 10
7.3899999999999997
 20
24.34
 30
0.0
 11
7.3899999999999997
 21
-8.5399999999999991
 31
0.0
  0
LINE
  5
10C
100
AcDbEntity
  8
0
  6
CONTINUOUS
 62
               4
100
AcDbLine
 10
8.3800000000000008
 20
25.52
 30
0.0
 11
12.470000000000001
 21
26.239999999999998
 31
0.0
  0
LINE
  5
10D
100
AcDbEntity
  8
0
  6
CONTINUOUS
 62
               4
100
AcDbLine
 10
0.0
 20
-44.600000000000001
 30
0.0
 11
1.5
 21
-44.600000000000001
 31
0.0
  0
CIRCLE
  5
10E
100
AcDbEntity
  8
0
  6
CONTINUOUS
 62
               4
100
AcDbCircle
 10
15.0
 20
-37.900009155273438
 30
0.0
 40
2.7999992370605469
  0
CIRCLE
  5
10F
100
AcDbEntity
  8
0
  6
CONTINUOUS
 62
               4
100
AcDbCircle
 10
10.5
 20
42.89996337890625
 30
0.0
 40
3.1999998092651367
  0
CIRCLE
  5
110
100
AcDbEntity
  8
0
  6
CONTINUOUS
 62
               4
100
AcDbCircle
 10
16.0
 20
-28.100021362304687
 30
0.0
 40
1.5999994277954102
  0
CIRCLE
  5
111
100
AcDbEntity
  8
0
  6
CONTINUOUS
 62
               4
100
AcDbCircle
 10
6.0
 20
-37.900009155273438
 30
0.0
 40
2.7999992370605469
  0
ARC
  5
112
100
AcDbEntity
  8
0
  6
CONTINUOUS
 62
               4
100
AcDbCircle
 10
5.2500305180437863
 20
33.499969481956214
 30
0.0
 40
1.0000305185094476
100
AcDbArc
 50
90.001748501746363
 51
179.99825149825307
  0
ARC
  5
113
100
AcDbEntity
  8
0
  6
CONTINUOUS
 62
               4
100
AcDbCircle
 10
15.749969481956214
 20
33.499969481956214
 30
0.0
 40
1.0000305185094476
100
AcDbArc
 50
0.001748501746554
 51
89.998251498253254
  0
ARC
  5
114
100
AcDbEntity
  8
0
  6
CONTINUOUS
 62
               4
100
AcDbCircle
 10
15.749998474119931
 20
-17.69999847411993
 30
0.0
 40
1.0000015258812343
100
AcDbArc
 50
270.00008742635401
 51
359.99991257364462
  0
ARC
  5
115
100
AcDbEntity
  8
0
  6
CONTINUOUS
 62
               4
100
AcDbCircle
 10
5.2500015258800703
 20
-17.69999847411993
 30
0.0
 40
1.0000015258812343
100
AcDbArc
 50
180.00008742635421
 51
269.99991257364468
  0
CIRCLE
  5
116
100
AcDbEntity
  8
0
  6
CONTINUOUS
 62
               4
100
AcDbCircle
 10
10.5
 20
31.39996337890625
 30
0.0
 40
2.5
  0
CIRCLE
  5
117
100
AcDbEntity
  8
0
  6
CONTINUOUS
 62
               4
100
AcDbCircle
 10
10.5
 20
31.39996337890625
 30
0.0
 40
1.2999992370605469
  0
CIRCLE
  5
118
100
AcDbEntity
  8
0
  6
CONTINUOUS
 62
               4
100
AcDbCircle
 10
10.5
 20
31.39996337890625
 30
0.0
 40
1.0564994812011719
  0
CIRCLE
  5
119
100
AcDbEntity
  8
0
  6
CONTINUOUS
 62
               4
100
AcDbCircle
 10
10.5
 20
-15.600028991699219
 30
0.0
 40
2.5
  0
CIRCLE
  5
11A
100
AcDbEntity
  8
0
  6
CONTINUOUS
 62
               4
100
AcDbCircle
 10
10.5
 20
-15.600028991699219
 30
0.0
 40
1.2999992370605469
  0
CIRCLE
  5
11B
100
AcDbEntity
  8
0
  6
CONTINUOUS
 62
               4
100
AcDbCircle
 10
10.5
 20
-15.600028991699219
 30
0.0
 40
1.0564994812011719
  0
ARC
  5
11C
100
AcDbEntity
  8
0
  6
CONTINUOUS
 62
               4
100
AcDbCircle
 10
12.410013274743868
 20
-9.2500132747438677
 30
0.0
 40
1.9999867253001873
100
AcDbArc
 50
269.99961970407634
 51
0.0003802959230072
  0
ARC
  5
11D
100
AcDbEntity
  8
0
  6
CONTINUOUS
 62
               4
100
AcDbCircle
 10
8.5876570884992987
 20
-8.54282528120617
 30
0.0
 40
1.9976590863922166
100
AcDbArc
 50
179.91896678261074
 51
259.97765452986346
  0
ARC
  5
11E
100
AcDbEntity
  8
0
  6
CONTINUOUS
 62
               4
100
AcDbCircle
 10
12.409980468736588
 20
25.049980468736589
 30
0.0
 40
2.0000195313587783
100
AcDbArc
 50
0.0005595240169074
 51
89.999440475982894
  0
ARC
  5
11F
100
AcDbEntity
  8
0
  6
CONTINUOUS
 62
               4
100
AcDbCircle
 10
8.5876893333344757
 20
24.342798274110717
 30
0.0
 40
1.9976912931822932
100
AcDbArc
 50
100.02312136776618
 51
180.08025731975798
  0
ARC
  5
120
100
AcDbEntity
  8
0
  6
CONTINUOUS
 62
               4
100
AcDbCircle
 10
12.414264998555874
 20
-9.2455563851711737
 30
0.0
 40
1.1957432581417002
100
AcDbArc
 50
272.67159173856828
 51
359.78707723438617
  0
ARC
  5
121
100
AcDbEntity
  8
0
  6
CONTINUOUS
 62
               4
100
AcDbCircle
 10
8.5865065037621449
 20
-8.5414479332843012
 30
0.0
 40
1.1965073798585244
100
AcDbArc
 50
179.93066445903116
 51
260.06149563648722
  0
ARC
  5
122
100
AcDbEntity
  8
0
  6
CONTINUOUS
 62
               4
100
AcDbCircle
 10
8.5865386787012525
 20
24.341420939055727
 30
0.0
 40
1.1965395224128375
100
AcDbArc
 50
99.939798834002389
 51
180.06804107047753
  0
ARC
  5
123
100
AcDbEntity
  8
0
  6
CONTINUOUS
 62
               4
100
AcDbCircle
 10
12.414232350790092
 20
25.045525109160256
 30
0.0
 40
1.1957760223156402
100
AcDbArc
 50
0.214415536485035
 51
87.326915490559031
  0
CIRCLE
  5
124
100
AcDbEntity
  8
0
  6
CONTINUOUS
 62
               4
100
AcDbCircle
 10
11.75
 20
23.13995361328125
 30
0.0
 40
0.5
  0
CIRCLE
  5
125
100
AcDbEntity
  8
0
  6
CONTINUOUS
 62
               4
100
AcDbCircle
 10
11.75
 20
-7.3400192260742188
 30
0.0
 40
0.5
  0
CIRCLE
  5
126
100
AcDbEntity
  8
0
  6
CONTINUOUS
 62
               4
100
AcDbCircle
 10
11.75
 20
10.439949035644531
 30
0.0
 40
0.5
  0
CIRCLE
  5
127
100
AcDbEntity
  8
0
  6
CONTINUOUS
 62
               4
100
AcDbCircle
 10
11.75
 20
12.979988098144531
 30
0.0
 40
0.5
  0
CIRCLE
  5
128
100
AcDbEntity
  8
0
  6
CONTINUOUS
 62
               4
100
AcDbCircle
 10
11.75
 20
15.519966125488281
 30
0.0
 40
0.5
  0
CIRCLE
  5
129
100
AcDbEntity
  8
0
  6
CONTINUOUS
 62
               4
100
AcDbCircle
 10
11.75
 20
18.05999755859375
 30
0.0
 40
0.5
  0
CIRCLE
  5
12A
100
AcDbEntity
  8
0
  6
CONTINUOUS
 62
               4
100
AcDbCircle
 10
11.75
 20
20.5999755859375
 30
0.0
 40
0.5
  0
CIRCLE
  5
12B
100
AcDbEntity
  8
0
  6
CONTINUOUS
 62
               4
100
AcDbCircle
 10
11.75
 20
7.8999710083007813
 30
0.0
 40
0.5
  0
CIRCLE
  5
12C
100
AcDbEntity
  8
0
  6
CONTINUOUS
 62
               4
100
AcDbCircle
 10
11.75
 20
5.3599929809570313
 30
0.0
 40
0.5
  0
CIRCLE
  5
12D
100
AcDbEntity
  8
0
  6
CONTINUOUS
 62
               4
100
AcDbCircle
 10
11.75
 20
2.8199539184570312
 30
0.0
 40
0.5
  0
CIRCLE
  5
12E
100
AcDbEntity
  8
0
  6
CONTINUOUS
 62
               4
100
AcDbCircle
 10
11.75
 20
0.2799758911132813
 30
0.0
 40
0.5
  0
CIRCLE
  5
12F
100
AcDbEntity
  8
0
  6
CONTINUOUS
 62
               4
100
AcDbCircle
 10
11.75
 20
-2.2600021362304687
 30
0.0
 40
0.5
  0
CIRCLE
  5
130
100
AcDbEntity
  8
0
  6
CONTINUOUS
 62
               4
100
AcDbCircle
 10
11.75
 20
-4.8000411987304687
 30
0.0
 40
0.5
  0
CIRCLE
  5
131
100
AcDbEntity
  8
0
  6
CONTINUOUS
 62
               4
100
AcDbCircle
 10
9.25
 20
-6.0699996948242187
 30
0.0
 40
0.5
  0
CIRCLE
  5
132
100
AcDbEntity
  8
0
  6
CONTINUOUS
 62
               4
100
AcDbCircle
 10
9.25
 20
21.8699951171875
 30
0.0
 40
0.5
  0
CIRCLE
  5
133
100
AcDbEntity
  8
0
  6
CONTINUOUS
 62
               4
100
AcDbCircle
 10
9.25
 20
6.6299514770507813
 30
0.0
 40
0.5
  0
CIRCLE
  5
134
100
AcDbEntity
  8
0
  6
CONTINUOUS
 62
               4
100
AcDbCircle
 10
9.25
 20
4.0899734497070313
 30
0.0
 40
0.5
  0
CIRCLE
  5
135
100
AcDbEntity
  8
0
  6
CONTINUOUS
 62
               4
100
AcDbCircle
 10
9.25
 20
1.5499954223632812
 30
0.0
 40
0.5
  0
CIRCLE
  5
136
100
AcDbEntity
  8
0
  6
CONTINUOUS
 62
               4
100
AcDbCircle
 10
9.25
 20
-0.9900436401367188
 30
0.0
 40
0.5
  0
CIRCLE
  5
137
100
AcDbEntity
  8
0
  6
CONTINUOUS
 62
               4
100
AcDbCircle
 10
9.25
 20
-3.5300216674804687
 30
0.0
 40
0.5
  0
CIRCLE
  5
138
100
AcDbEntity
  8
0
  6
CONTINUOUS
 62
               4
100
AcDbCircle
 10
9.25
 20
9.1699905395507812
 30
0.0
 40
0.5
  0
CIRCLE
  5
139
100
AcDbEntity
  8
0
  6
CONTINUOUS
 62
               4
100
AcDbCircle
 10
9.25
 20
11.709968566894531
 30
0.0
 40
0.5
  0
CIRCLE
  5
13A
100
AcDbEntity
  8
0
  6
CONTINUOUS
 62
               4
100
AcDbCircle
 10
9.25
 20
14.250007629394531
 30
0.0
 40
0.5
  0
CIRCLE
  5
13B
100
AcDbEntity
  8
0
  6
CONTINUOUS
 62
               4
100
AcDbCircle
 10
9.25
 20
16.78997802734375
 30
0.0
 40
0.5
  0
CIRCLE
  5
13C
100
AcDbEntity
  8
0
  6
CONTINUOUS
 62
               4
100
AcDbCircle
 10
9.25
 20
19.3299560546875
 30
0.0
 40
0.5
  0
ENDBLK
  5
13D
100
AcDbEntity
  8
0
100
AcDbBlockEnd
  0
BLOCK
  5
13E
100
AcDbEntity
  8
0
100
AcDbBlockBegin
  2
F15_CONNECTER-3
 70
               0
 10
0.0
 20
0.0
 30
0.0
  3
F15_CONNECTER-3
  1

  0
LINE
  5
13F
100
AcDbEntity
  8
0
  6
CONTINUOUS
 62
               4
100
AcDbLine
 10
59.0
 20
59.899999999999999
 30
0.0
 11
59.0
 21
48.899999999999999
 31
0.0
  0
LINE
  5
140
100
AcDbEntity
  8
0
  6
CONTINUOUS
 62
               4
100
AcDbLine
 10
49.0
 20
48.899999999999999
 30
0.0
 11
59.0
 21
48.899999999999999
 31
0.0
  0
LINE
  5
141
100
AcDbEntity
  8
0
  6
CONTINUOUS
 62
               4
100
AcDbLine
 10
49.0
 20
60.399999999999999
 30
0.0
 11
58.5
 21
60.399999999999999
 31
0.0
  0
LINE
  5
142
100
AcDbEntity
  8
0
  6
CONTINUOUS
 62
               4
100
AcDbLine
 10
59.0
 20
48.399999999999999
 30
0.0
 11
59.0
 21
-44.600000000000001
 31
0.0
  0
LINE
  5
143
100
AcDbEntity
  8
0
  6
CONTINUOUS
 62
               4
100
AcDbLine
 10
47.5
 20
-44.600000000000001
 30
0.0
 11
59.0
 21
-44.600000000000001
 31
0.0
  0
LINE
  5
144
100
AcDbEntity
  8
0
  6
CONTINUOUS
 62
               4
100
AcDbLine
 10
49.0
 20
48.399999999999999
 30
0.0
 11
59.0
 21
48.399999999999999
 31
0.0
  0
LINE
  5
145
100
AcDbEntity
  8
0
  6
CONTINUOUS
 62
               4
100
AcDbLine
 10
60.0
 20
34.5
 30
0.0
 11
60.0
 21
-18.699999999999999
 31
0.0
  0
LINE
  5
146
100
AcDbEntity
  8
0
  6
CONTINUOUS
 62
               4
100
AcDbLine
 10
59.0
 20
-18.699999999999999
 30
0.0
 11
60.0
 21
-18.699999999999999
 31
0.0
  0
LINE
  5
147
100
AcDbEntity
  8
0
  6
CONTINUOUS
 62
               4
100
AcDbLine
 10
59.0
 20
34.5
 30
0.0
 11
60.0
 21
34.5
 31
0.0
  0
LINE
  5
148
100
AcDbEntity
  8
0
  6
CONTINUOUS
 62
               4
100
AcDbLine
 10
66.0
 20
26.550000000000001
 30
0.0
 11
66.0
 21
-10.75
 31
0.0
  0
LINE
  5
149
100
AcDbEntity
  8
0
  6
CONTINUOUS
 62
               4
100
AcDbLine
 10
60.0
 20
27.050000000000001
 30
0.0
 11
65.5
 21
27.050000000000001
 31
0.0
  0
LINE
  5
14A
100
AcDbEntity
  8
0
  6
CONTINUOUS
 62
               4
100
AcDbLine
 10
60.0
 20
-11.25
 30
0.0
 11
65.5
 21
-11.25
 31
0.0
  0
LINE
  5
14B
100
AcDbEntity
  8
0
  6
CONTINUOUS
 62
               4
100
AcDbLine
 10
60.0
 20
-13.1
 30
0.0
 11
66.0
 21
-13.1
 31
0.0
  0
LINE
  5
14C
100
AcDbEntity
  8
0
  6
CONTINUOUS
 62
               4
100
AcDbLine
 10
60.0
 20
-15.6
 30
0.0
 11
65.769999999999996
 21
-15.6
 31
0.0
  0
LINE
  5
14D
100
AcDbEntity
  8
0
  6
CONTINUOUS
 62
               4
100
AcDbLine
 10
60.0
 20
-18.100000000000001
 30
0.0
 11
66.0
 21
-18.100000000000001
 31
0.0
  0
LINE
  5
14E
100
AcDbEntity
  8
0
  6
CONTINUOUS
 62
               4
100
AcDbLine
 10
66.0
 20
-13.1
 30
0.0
 11
66.0
 21
-18.100000000000001
 31
0.0
  0
LINE
  5
14F
100
AcDbEntity
  8
0
  6
CONTINUOUS
 62
               4
100
AcDbLine
 10
60.0
 20
33.899999999999999
 30
0.0
 11
66.0
 21
33.899999999999999
 31
0.0
  0
LINE
  5
150
100
AcDbEntity
  8
0
  6
CONTINUOUS
 62
               4
100
AcDbLine
 10
60.0
 20
31.399999999999999
 30
0.0
 11
65.769999999999996
 21
31.399999999999999
 31
0.0
  0
LINE
  5
151
100
AcDbEntity
  8
0
  6
CONTINUOUS
 62
               4
100
AcDbLine
 10
60.0
 20
28.899999999999999
 30
0.0
 11
66.0
 21
28.899999999999999
 31
0.0
  0
LINE
  5
152
100
AcDbEntity
  8
0
  6
CONTINUOUS
 62
               4
100
AcDbLine
 10
66.0
 20
33.899999999999999
 30
0.0
 11
66.0
 21
28.899999999999999
 31
0.0
  0
ARC
  5
153
100
AcDbEntity
  8
0
  6
CONTINUOUS
 62
               4
100
AcDbCircle
 10
62.389556884706245
 20
-16.850000000000001
 30
0.0
 40
3.6041497826445719
100
AcDbArc
 50
339.70691632658128
 51
20.29308367341789
  0
ARC
  5
154
100
AcDbEntity
  8
0
  6
CONTINUOUS
 62
               4
100
AcDbCircle
 10
62.389556884656258
 20
-14.35
 30
0.0
 40
3.604149782691457
100
AcDbArc
 50
339.70691632685691
 51
20.293083673142274
  0
ARC
  5
155
100
AcDbEntity
  8
0
  6
CONTINUOUS
 62
               4
100
AcDbCircle
 10
62.389556884591123
 20
30.149999999999999
 30
0.0
 40
3.6041497827525495
100
AcDbArc
 50
339.70691632721605
 51
20.293083672783151
  0
ARC
  5
156
100
AcDbEntity
  8
0
  6
CONTINUOUS
 62
               4
100
AcDbCircle
 10
62.389556884591123
 20
32.649999999999999
 30
0.0
 40
3.6041497827525495
100
AcDbArc
 50
339.70691632721605
 51
20.293083672783151
  0
ARC
  5
157
100
AcDbEntity
  8
0
  6
CONTINUOUS
 62
               4
100
AcDbCircle
 10
65.499993896447123
 20
26.549993896447123
 30
0.0
 40
0.5000061035901311
100
AcDbArc
 50
0.0006994071020412
 51
89.999300592897782
  0
ARC
  5
158
100
AcDbEntity
  8
0
  6
CONTINUOUS
 62
               4
100
AcDbCircle
 10
65.500026702167816
 20
-10.750026702167816
 30
0.0
 40
0.4999732985452283
100
AcDbArc
 50
269.99693999354531
 51
0.003060006454071
  0
ARC
  5
159
100
AcDbEntity
  8
0
  6
CONTINUOUS
 62
               4
100
AcDbCircle
 10
58.499981689117853
 20
59.899981689117851
 30
0.0
 40
0.5000183112174266
100
AcDbArc
 50
0.0020981956918526
 51
89.997901804307958
  0
ENDBLK
  5
15A
100
AcDbEntity
  8
0
100
AcDbBlockEnd
  0
BLOCK
  5
15B
100
AcDbEntity
  8
0
100
AcDbBlockBegin
  2
F15_CONNECTER-4
 70
               0
 10
0.0
 20
0.0
 30
0.0
  3
F15_CONNECTER-4
  1

  0
LINE
  5
15C
100
AcDbEntity
  8
0
  6
CONTINUOUS
 62
               4
100
AcDbLine
 10
0.0
 20
3.0
 30
0.0
 11
21.0
 21
3.0
 31
0.0
  0
LINE
  5
15D
100
AcDbEntity
  8
0
  6
CONTINUOUS
 62
               4
100
AcDbLine
 10
0.0
 20
49.0
 30
0.0
 11
0.0
 21
3.0
 31
0.0
  0
LINE
  5
15E
100
AcDbEntity
  8
0
  6
CONTINUOUS
 62
               4
100
AcDbLine
 10
21.0
 20
49.0
 30
0.0
 11
21.0
 21
3.0
 31
0.0
  0
LINE
  5
15F
100
AcDbEntity
  8
0
  6
CONTINUOUS
 62
               4
100
AcDbLine
 10
0.0
 20
49.0
 30
0.0
 11
21.0
 21
49.0
 31
0.0
  0
LINE
  5
160
100
AcDbEntity
  8
0
  6
CONTINUOUS
 62
               4
100
AcDbLine
 10
0.0
 20
5.0
 30
0.0
 11
21.0
 21
5.0
 31
0.0
  0
LINE
  5
161
100
AcDbEntity
  8
0
  6
CONTINUOUS
 62
               4
100
AcDbLine
 10
0.0
 20
59.0
 30
0.0
 11
21.0
 21
59.0
 31
0.0
  0
LINE
  5
162
100
AcDbEntity
  8
0
  6
CONTINUOUS
 62
               4
100
AcDbLine
 10
0.0
 20
59.0
 30
0.0
 11
0.0
 21
49.0
 31
0.0
  0
LINE
  5
163
100
AcDbEntity
  8
0
  6
CONTINUOUS
 62
               4
100
AcDbLine
 10
21.0
 20
59.0
 30
0.0
 11
21.0
 21
49.0
 31
0.0
  0
LINE
  5
164
100
AcDbEntity
  8
0
  6
CONTINUOUS
 62
               4
100
AcDbLine
 10
2.5
 20
50.5
 30
0.0
 11
18.5
 21
50.5
 31
0.0
  0
LINE
  5
165
100
AcDbEntity
  8
0
  6
CONTINUOUS
 62
               4
100
AcDbLine
 10
1.5
 20
59.0
 30
0.0
 11
1.5
 21
49.0
 31
0.0
  0
LINE
  5
166
100
AcDbEntity
  8
0
  6
CONTINUOUS
 62
               4
100
AcDbLine
 10
19.5
 20
59.0
 30
0.0
 11
19.5
 21
49.0
 31
0.0
  0
LINE
  5
167
100
AcDbEntity
  8
0
  6
CONTINUOUS
 62
               4
100
AcDbLine
 10
18.5
 20
57.5
 30
0.0
 11
18.5
 21
50.5
 31
0.0
  0
LINE
  5
168
100
AcDbEntity
  8
0
  6
CONTINUOUS
 62
               4
100
AcDbLine
 10
2.5
 20
57.5
 30
0.0
 11
2.5
 21
50.5
 31
0.0
  0
LINE
  5
169
100
AcDbEntity
  8
0
  6
CONTINUOUS
 62
               4
100
AcDbLine
 10
1.5
 20
57.5
 30
0.0
 11
19.5
 21
57.5
 31
0.0
  0
LINE
  5
16A
100
AcDbEntity
  8
0
  6
CONTINUOUS
 62
               4
100
AcDbLine
 10
9.5
 20
57.5
 30
0.0
 11
9.5
 21
50.5
 31
0.0
  0
LINE
  5
16B
100
AcDbEntity
  8
0
  6
CONTINUOUS
 62
               4
100
AcDbLine
 10
11.5
 20
57.5
 30
0.0
 11
11.5
 21
50.5
 31
0.0
  0
LINE
  5
16C
100
AcDbEntity
  8
0
  6
CONTINUOUS
 62
               4
100
AcDbLine
 10
2.5
 20
56.5
 30
0.0
 11
9.5
 21
56.5
 31
0.0
  0
LINE
  5
16D
100
AcDbEntity
  8
0
  6
CONTINUOUS
 62
               4
100
AcDbLine
 10
11.5
 20
56.5
 30
0.0
 11
18.5
 21
56.5
 31
0.0
  0
LINE
  5
16E
100
AcDbEntity
  8
0
  6
CONTINUOUS
 62
               4
100
AcDbLine
 10
3.0499999999999998
 20
51.299999999999997
 30
0.0
 11
8.9499999999999993
 21
51.299999999999997
 31
0.0
  0
LINE
  5
16F
100
AcDbEntity
  8
0
  6
CONTINUOUS
 62
               4
100
AcDbLine
 10
3.0499999999999998
 20
51.299999999999997
 30
0.0
 11
3.0499999999999998
 21
50.5
 31
0.0
  0
LINE
  5
170
100
AcDbEntity
  8
0
  6
CONTINUOUS
 62
               4
100
AcDbLine
 10
3.8500000000000001
 20
51.299999999999997
 30
0.0
 11
3.8500000000000001
 21
50.5
 31
0.0
  0
LINE
  5
171
100
AcDbEntity
  8
0
  6
CONTINUOUS
 62
               4
100
AcDbLine
 10
8.1500000000000004
 20
51.299999999999997
 30
0.0
 11
8.1500000000000004
 21
50.5
 31
0.0
  0
LINE
  5
172
100
AcDbEntity
  8
0
  6
CONTINUOUS
 62
               4
100
AcDbLine
 10
8.9499999999999993
 20
51.299999999999997
 30
0.0
 11
8.9499999999999993
 21
50.5
 31
0.0
  0
LINE
  5
173
100
AcDbEntity
  8
0
  6
CONTINUOUS
 62
               4
100
AcDbLine
 10
12.050000000000001
 20
51.299999999999997
 30
0.0
 11
12.050000000000001
 21
50.5
 31
0.0
  0
LINE
  5
174
100
AcDbEntity
  8
0
  6
CONTINUOUS
 62
               4
100
AcDbLine
 10
12.85
 20
51.299999999999997
 30
0.0
 11
12.85
 21
50.5
 31
0.0
  0
LINE
  5
175
100
AcDbEntity
  8
0
  6
CONTINUOUS
 62
               4
100
AcDbLine
 10
17.149999999999999
 20
51.299999999999997
 30
0.0
 11
17.149999999999999
 21
50.5
 31
0.0
  0
LINE
  5
176
100
AcDbEntity
  8
0
  6
CONTINUOUS
 62
               4
100
AcDbLine
 10
17.949999999999999
 20
51.299999999999997
 30
0.0
 11
17.949999999999999
 21
50.5
 31
0.0
  0
LINE
  5
177
100
AcDbEntity
  8
0
  6
CONTINUOUS
 62
               4
100
AcDbLine
 10
12.050000000000001
 20
51.299999999999997
 30
0.0
 11
17.949999999999999
 21
51.299999999999997
 31
0.0
  0
LINE
  5
178
100
AcDbEntity
  8
0
  6
CONTINUOUS
 62
               4
100
AcDbLine
 10
8.9499999999999993
 20
52.0
 30
0.0
 11
3.0499999999999998
 21
52.0
 31
0.0
  0
LINE
  5
179
100
AcDbEntity
  8
0
  6
CONTINUOUS
 62
               4
100
AcDbLine
 10
8.9499999999999993
 20
52.0
 30
0.0
 11
8.9499999999999993
 21
51.299999999999997
 31
0.0
  0
LINE
  5
17A
100
AcDbEntity
  8
0
  6
CONTINUOUS
 62
               4
100
AcDbLine
 10
3.0499999999999998
 20
52.0
 30
0.0
 11
3.0499999999999998
 21
51.299999999999997
 31
0.0
  0
LINE
  5
17B
100
AcDbEntity
  8
0
  6
CONTINUOUS
 62
               4
100
AcDbLine
 10
17.949999999999999
 20
52.0
 30
0.0
 11
12.050000000000001
 21
52.0
 31
0.0
  0
LINE
  5
17C
100
AcDbEntity
  8
0
  6
CONTINUOUS
 62
               4
100
AcDbLine
 10
17.949999999999999
 20
52.0
 30
0.0
 11
17.949999999999999
 21
51.299999999999997
 31
0.0
  0
LINE
  5
17D
100
AcDbEntity
  8
0
  6
CONTINUOUS
 62
               4
100
AcDbLine
 10
12.050000000000001
 20
52.0
 30
0.0
 11
12.050000000000001
 21
51.299999999999997
 31
0.0
  0
LINE
  5
17E
100
AcDbEntity
  8
0
  6
CONTINUOUS
 62
               4
100
AcDbLine
 10
8.8000000000000007
 20
53.170000000000002
 30
0.0
 11
8.8000000000000007
 21
52.0
 31
0.0
  0
LINE
  5
17F
100
AcDbEntity
  8
0
  6
CONTINUOUS
 62
               4
100
AcDbLine
 10
3.2000000000000002
 20
53.170000000000002
 30
0.0
 11
3.2000000000000002
 21
52.0
 31
0.0
  0
LINE
  5
180
100
AcDbEntity
  8
0
  6
CONTINUOUS
 62
               4
100
AcDbLine
 10
17.800000000000001
 20
53.170000000000002
 30
0.0
 11
17.800000000000001
 21
52.0
 31
0.0
  0
LINE
  5
181
100
AcDbEntity
  8
0
  6
CONTINUOUS
 62
               4
100
AcDbLine
 10
12.199999999999999
 20
53.170000000000002
 30
0.0
 11
12.199999999999999
 21
52.0
 31
0.0
  0
LINE
  5
182
100
AcDbEntity
  8
0
  6
CONTINUOUS
 62
               4
100
AcDbLine
 10
4.25
 20
60.0
 30
0.0
 11
16.75
 21
60.0
 31
0.0
  0
LINE
  5
183
100
AcDbEntity
  8
0
  6
CONTINUOUS
 62
               4
100
AcDbLine
 10
4.25
 20
60.0
 30
0.0
 11
4.25
 21
59.0
 31
0.0
  0
LINE
  5
184
100
AcDbEntity
  8
0
  6
CONTINUOUS
 62
               4
100
AcDbLine
 10
16.75
 20
60.0
 30
0.0
 11
16.75
 21
59.0
 31
0.0
  0
LINE
  5
185
100
AcDbEntity
  8
0
  6
CONTINUOUS
 62
               4
100
AcDbLine
 10
7.6100000000000003
 20
60.0
 30
0.0
 11
7.6100000000000003
 21
65.769999999999996
 31
0.0
  0
LINE
  5
186
100
AcDbEntity
  8
0
  6
CONTINUOUS
 62
               4
100
AcDbLine
 10
9.0500000000000007
 20
60.0
 30
0.0
 11
9.0500000000000007
 21
65.769999999999996
 31
0.0
  0
LINE
  5
187
100
AcDbEntity
  8
0
  6
CONTINUOUS
 62
               4
100
AcDbLine
 10
11.94
 20
60.0
 30
0.0
 11
11.94
 21
65.769999999999996
 31
0.0
  0
LINE
  5
188
100
AcDbEntity
  8
0
  6
CONTINUOUS
 62
               4
100
AcDbLine
 10
13.380000000000001
 20
60.0
 30
0.0
 11
13.380000000000001
 21
65.769999999999996
 31
0.0
  0
LINE
  5
189
100
AcDbEntity
  8
0
  6
CONTINUOUS
 62
               4
100
AcDbLine
 10
13.0
 20
66.0
 30
0.0
 11
13.380000000000001
 21
65.769999999999996
 31
0.0
  0
LINE
  5
18A
100
AcDbEntity
  8
0
  6
CONTINUOUS
 62
               4
100
AcDbLine
 10
7.0899999999999999
 20
66.0
 30
0.0
 11
13.91
 21
66.0
 31
0.0
  0
LINE
  5
18B
100
AcDbEntity
  8
0
  6
CONTINUOUS
 62
               4
100
AcDbLine
 10
8.0
 20
66.0
 30
0.0
 11
7.6100000000000003
 21
65.769999999999996
 31
0.0
  0
LINE
  5
18C
100
AcDbEntity
  8
0
  6
CONTINUOUS
 62
               4
100
AcDbLine
 10
6.5899999999999999
 20
65.5
 30
0.0
 11
6.5899999999999999
 21
60.0
 31
0.0
  0
LINE
  5
18D
100
AcDbEntity
  8
0
  6
CONTINUOUS
 62
               4
100
AcDbLine
 10
14.41
 20
65.5
 30
0.0
 11
14.41
 21
60.0
 31
0.0
  0
LINE
  5
18E
100
AcDbEntity
  8
0
  6
CONTINUOUS
 62
               7
100
AcDbLine
 10
0.0
 20
0.0
 30
0.0
 11
21.0
 21
0.0
 31
0.0
  0
ARC
  5
18F
100
AcDbEntity
  8
0
  6
CONTINUOUS
 62
               4
100
AcDbCircle
 10
5.9950000000000001
 20
49.400022238945311
 30
0.0
 40
4.9998531500105443
100
AcDbArc
 50
60.461092097653868
 51
119.53890790234576
  0
ARC
  5
190
100
AcDbEntity
  8
0
  6
CONTINUOUS
 62
               4
100
AcDbCircle
 10
8.1346210369964798
 20
53.169605435480698
 30
0.0
 40
0.6653790799903464
100
AcDbArc
 50
0.033975945001125
 51
60.72427607773519
  0
ARC
  5
191
100
AcDbEntity
  8
0
  6
CONTINUOUS
 62
               4
100
AcDbCircle
 10
3.8678555945142197
 20
53.173892506569494
 30
0.0
 40
0.6678669378935711
100
AcDbArc
 50
120.38929565487237
 51
180.33393696882399
  0
ARC
  5
192
100
AcDbEntity
  8
0
  6
CONTINUOUS
 62
               4
100
AcDbCircle
 10
14.995000000000001
 20
49.400022238945311
 30
0.0
 40
4.9998531500105443
100
AcDbArc
 50
60.461092097653875
 51
119.53890790234578
  0
ARC
  5
193
100
AcDbEntity
  8
0
  6
CONTINUOUS
 62
               4
100
AcDbCircle
 10
17.134621036996482
 20
53.169605435480698
 30
0.0
 40
0.6653790799903464
100
AcDbArc
 50
0.0339759450011251
 51
60.724276077735325
  0
ARC
  5
194
100
AcDbEntity
  8
0
  6
CONTINUOUS
 62
               4
100
AcDbCircle
 10
12.867855594514218
 20
53.173892506569494
 30
0.0
 40
0.6678669378935715
100
AcDbArc
 50
120.38929565487227
 51
180.33393696882399
  0
ARC
  5
195
100
AcDbEntity
  8
0
  6
CONTINUOUS
 62
               4
100
AcDbCircle
 10
12.661470740870229
 20
64.721821590948167
 30
0.0
 40
1.2724771145817293
100
AcDbArc
 50
64.46438857308469
 51
124.53999041099746
  0
ARC
  5
196
100
AcDbEntity
  8
0
  6
CONTINUOUS
 62
               4
100
AcDbCircle
 10
10.495000000000001
 20
61.223264104544221
 30
0.0
 40
4.7708314058480443
100
AcDbArc
 50
72.369201630319239
 51
107.63079836968039
  0
ARC
  5
197
100
AcDbEntity
  8
0
  6
CONTINUOUS
 62
               4
100
AcDbCircle
 10
8.3285897734880638
 20
64.722590123298488
 30
0.0
 40
1.2718097989588981
100
AcDbArc
 50
55.442624749369891
 51
115.5529962665471
  0
ARC
  5
198
100
AcDbEntity
  8
0
  6
CONTINUOUS
 62
               4
100
AcDbCircle
 10
7.0899829104483123
 20
65.50001708955169
 30
0.0
 40
0.4999829107403756
100
AcDbArc
 50
89.998041614693776
 51
180.00195838530593
  0
ARC
  5
199
100
AcDbEntity
  8
0
  6
CONTINUOUS
 62
               4
100
AcDbCircle
 10
13.909986572085321
 20
65.499986572085319
 30
0.0
 40
0.5000134280949832
100
AcDbArc
 50
0.0015386843547081
 51
89.998461315645287
  0
ENDBLK
  5
19A
100
AcDbEntity
  8
0
100
AcDbBlockEnd
  0
BLOCK
  5
19B
100
AcDbEntity
  8
0
100
AcDbBlockBegin
  2
F15_CONNECTER-5
 70
               0
 10
0.0
 20
0.0
 30
0.0
  3
F15_CONNECTER-5
  1

  0
INSERT
  5
19C
100
AcDbEntity
  8
0
  6
ByBlock
100
AcDbBlockReference
  2
F15_CONNECTER-8
 10
21.000030517578125
 20
28.8299560546875
 30
0.0
  0
INSERT
  5
19D
100
AcDbEntity
  8
0
  6
ByBlock
100
AcDbBlockReference
  2
F15_CONNECTER-8
 10
21.000030517578125
 20
21.2099609375
 30
0.0
  0
INSERT
  5
19E
100
AcDbEntity
  8
0
  6
ByBlock
100
AcDbBlockReference
  2
F15_CONNECTER-8
 10
21.000030517578125
 20
13.589973449707031
 30
0.0
  0
INSERT
  5
19F
100
AcDbEntity
  8
0
  6
ByBlock
100
AcDbBlockReference
  2
F15_CONNECTER-8
 10
21.000030517578125
 20
5.9699783325195313
 30
0.0
  0
INSERT
  5
1A0
100
AcDbEntity
  8
0
  6
ByBlock
100
AcDbBlockReference
  2
F15_CONNECTER-8
 10
21.000030517578125
 20
-1.6500167846679687
 30
0.0
  0
INSERT
  5
1A1
100
AcDbEntity
  8
0
  6
ByBlock
100
AcDbBlockReference
  2
F15_CONNECTER-8
 10
21.000030517578125
 20
-9.2700119018554687
 30
0.0
  0
INSERT
  5
1A2
100
AcDbEntity
  8
0
  6
ByBlock
100
AcDbBlockReference
  2
F15_CONNECTER-8
 10
21.000030517578125
 20
-16.889999389648438
 30
0.0
  0
INSERT
  5
1A3
100
AcDbEntity
  8
0
  6
ByBlock
100
AcDbBlockReference
  2
F15_CONNECTER-8
 10
21.000030517578125
 20
-24.510055541992188
 30
0.0
  0
INSERT
  5
1A4
100
AcDbEntity
  8
0
  6
ByBlock
100
AcDbBlockReference
  2
F15_CONNECTER-8
 10
21.000030517578125
 20
-32.130050659179688
 30
0.0
  0
INSERT
  5
1A5
100
AcDbEntity
  8
0
  6
ByBlock
100
AcDbBlockReference
  2
F15_CONNECTER-8
 10
30.000030517578125
 20
32.63995361328125
 30
0.0
  0
INSERT
  5
1A6
100
AcDbEntity
  8
0
  6
ByBlock
100
AcDbBlockReference
  2
F15_CONNECTER-8
 10
30.000030517578125
 20
25.01995849609375
 30
0.0
  0
INSERT
  5
1A7
100
AcDbEntity
  8
0
  6
ByBlock
100
AcDbBlockReference
  2
F15_CONNECTER-8
 10
30.000030517578125
 20
17.39996337890625
 30
0.0
  0
INSERT
  5
1A8
100
AcDbEntity
  8
0
  6
ByBlock
100
AcDbBlockReference
  2
F15_CONNECTER-8
 10
30.000030517578125
 20
9.7799758911132812
 30
0.0
  0
INSERT
  5
1A9
100
AcDbEntity
  8
0
  6
ByBlock
100
AcDbBlockReference
  2
F15_CONNECTER-8
 10
30.000030517578125
 20
2.1599807739257813
 30
0.0
  0
INSERT
  5
1AA
100
AcDbEntity
  8
0
  6
ByBlock
100
AcDbBlockReference
  2
F15_CONNECTER-8
 10
30.000030517578125
 20
-5.4600143432617188
 30
0.0
  0
INSERT
  5
1AB
100
AcDbEntity
  8
0
  6
ByBlock
100
AcDbBlockReference
  2
F15_CONNECTER-8
 10
30.000030517578125
 20
-13.080009460449219
 30
0.0
  0
INSERT
  5
1AC
100
AcDbEntity
  8
0
  6
ByBlock
100
AcDbBlockReference
  2
F15_CONNECTER-8
 10
30.000030517578125
 20
-20.700057983398437
 30
0.0
  0
INSERT
  5
1AD
100
AcDbEntity
  8
0
  6
ByBlock
100
AcDbBlockReference
  2
F15_CONNECTER-8
 10
30.000030517578125
 20
-28.320053100585938
 30
0.0
  0
INSERT
  5
1AE
100
AcDbEntity
  8
0
  6
ByBlock
100
AcDbBlockReference
  2
F15_CONNECTER-8
 10
30.000030517578125
 20
-35.940048217773438
 30
0.0
  0
LINE
  5
1AF
100
AcDbEntity
  8
0
  6
CONTINUOUS
 62
               4
100
AcDbLine
 10
42.0
 20
-44.600000000000001
 30
0.0
 11
42.0
 21
60.399999999999999
 31
0.0
  0
LINE
  5
1B0
100
AcDbEntity
  8
0
  6
CONTINUOUS
 62
               4
100
AcDbLine
 10
0.0
 20
-44.600000000000001
 30
0.0
 11
0.0
 21
60.399999999999999
 31
0.0
  0
LINE
  5
1B1
100
AcDbEntity
  8
0
  6
CONTINUOUS
 62
               4
100
AcDbLine
 10
21.0
 20
60.399999999999999
 30
0.0
 11
21.0
 21
48.399999999999999
 31
0.0
  0
LINE
  5
1B2
100
AcDbEntity
  8
0
  6
CONTINUOUS
 62
               4
100
AcDbLine
 10
0.0
 20
48.399999999999999
 30
0.0
 11
42.0
 21
48.399999999999999
 31
0.0
  0
LINE
  5
1B3
100
AcDbEntity
  8
0
  6
CONTINUOUS
 62
               4
100
AcDbLine
 10
0.0
 20
48.899999999999999
 30
0.0
 11
42.0
 21
48.899999999999999
 31
0.0
  0
LINE
  5
1B4
100
AcDbEntity
  8
0
  6
CONTINUOUS
 62
               4
100
AcDbLine
 10
7.0
 20
-42.899999999999999
 30
0.0
 11
14.0
 21
-42.899999999999999
 31
0.0
  0
LINE
  5
1B5
100
AcDbEntity
  8
0
  6
CONTINUOUS
 62
               4
100
AcDbLine
 10
14.0
 20
-42.899999999999999
 30
0.0
 11
14.0
 21
-44.600000000000001
 31
0.0
  0
LINE
  5
1B6
100
AcDbEntity
  8
0
  6
CONTINUOUS
 62
               4
100
AcDbLine
 10
7.0
 20
-42.899999999999999
 30
0.0
 11
7.0
 21
-44.600000000000001
 31
0.0
  0
LINE
  5
1B7
100
AcDbEntity
  8
0
  6
CONTINUOUS
 62
               4
100
AcDbLine
 10
28.0
 20
-42.899999999999999
 30
0.0
 11
28.0
 21
-44.600000000000001
 31
0.0
  0
LINE
  5
1B8
100
AcDbEntity
  8
0
  6
CONTINUOUS
 62
               4
100
AcDbLine
 10
35.0
 20
-42.899999999999999
 30
0.0
 11
35.0
 21
-44.600000000000001
 31
0.0
  0
LINE
  5
1B9
100
AcDbEntity
  8
0
  6
CONTINUOUS
 62
               4
100
AcDbLine
 10
28.0
 20
-42.899999999999999
 30
0.0
 11
35.0
 21
-42.899999999999999
 31
0.0
  0
LINE
  5
1BA
100
AcDbEntity
  8
0
  6
CONTINUOUS
 62
               4
100
AcDbLine
 10
35.0
 20
39.509999999999998
 30
0.0
 11
35.0
 21
-42.810000000000002
 31
0.0
  0
LINE
  5
1BB
100
AcDbEntity
  8
0
  6
CONTINUOUS
 62
               4
100
AcDbLine
 10
16.0
 20
40.450000000000003
 30
0.0
 11
16.0
 21
-43.75
 31
0.0
  0
LINE
  5
1BC
100
AcDbEntity
  8
0
  6
CONTINUOUS
 62
               4
100
AcDbLine
 10
25.0
 20
39.509999999999998
 30
0.0
 11
25.0
 21
-42.810000000000002
 31
0.0
  0
LINE
  5
1BD
100
AcDbEntity
  8
0
  6
CONTINUOUS
 62
               4
100
AcDbLine
 10
16.0
 20
39.509999999999998
 30
0.0
 11
35.0
 21
39.509999999999998
 31
0.0
  0
LINE
  5
1BE
100
AcDbEntity
  8
0
  6
CONTINUOUS
 62
               4
100
AcDbLine
 10
16.0
 20
-42.810000000000002
 30
0.0
 11
35.0
 21
-42.810000000000002
 31
0.0
  0
LINE
  5
1BF
100
AcDbEntity
  8
0
  6
CONTINUOUS
 62
               4
100
AcDbLine
 10
26.0
 20
40.450000000000003
 30
0.0
 11
26.0
 21
39.509999999999998
 31
0.0
  0
LINE
  5
1C0
100
AcDbEntity
  8
0
  6
CONTINUOUS
 62
               4
100
AcDbLine
 10
16.0
 20
-43.75
 30
0.0
 11
26.0
 21
-43.75
 31
0.0
  0
LINE
  5
1C1
100
AcDbEntity
  8
0
  6
CONTINUOUS
 62
               4
100
AcDbLine
 10
16.0
 20
40.450000000000003
 30
0.0
 11
26.0
 21
40.450000000000003
 31
0.0
  0
LINE
  5
1C2
100
AcDbEntity
  8
0
  6
CONTINUOUS
 62
               4
100
AcDbLine
 10
26.0
 20
-42.810000000000002
 30
0.0
 11
26.0
 21
-43.75
 31
0.0
  0
LINE
  5
1C3
100
AcDbEntity
  8
0
  6
CONTINUOUS
 62
               4
100
AcDbLine
 10
34.0
 20
39.509999999999998
 30
0.0
 11
34.0
 21
37.100000000000001
 31
0.0
  0
LINE
  5
1C4
100
AcDbEntity
  8
0
  6
CONTINUOUS
 62
               4
100
AcDbLine
 10
26.5
 20
37.100000000000001
 30
0.0
 11
34.0
 21
37.100000000000001
 31
0.0
  0
LINE
  5
1C5
100
AcDbEntity
  8
0
  6
CONTINUOUS
 62
               4
100
AcDbLine
 10
25.0
 20
35.799999999999997
 30
0.0
 11
34.0
 21
35.799999999999997
 31
0.0
  0
LINE
  5
1C6
100
AcDbEntity
  8
0
  6
CONTINUOUS
 62
               4
100
AcDbLine
 10
25.0
 20
29.48
 30
0.0
 11
34.0
 21
29.48
 31
0.0
  0
LINE
  5
1C7
100
AcDbEntity
  8
0
  6
CONTINUOUS
 62
               4
100
AcDbLine
 10
25.0
 20
28.18
 30
0.0
 11
34.0
 21
28.18
 31
0.0
  0
LINE
  5
1C8
100
AcDbEntity
  8
0
  6
CONTINUOUS
 62
               4
100
AcDbLine
 10
25.0
 20
21.859999999999999
 30
0.0
 11
34.0
 21
21.859999999999999
 31
0.0
  0
LINE
  5
1C9
100
AcDbEntity
  8
0
  6
CONTINUOUS
 62
               4
100
AcDbLine
 10
25.0
 20
20.559999999999999
 30
0.0
 11
34.0
 21
20.559999999999999
 31
0.0
  0
LINE
  5
1CA
100
AcDbEntity
  8
0
  6
CONTINUOUS
 62
               4
100
AcDbLine
 10
25.0
 20
14.24
 30
0.0
 11
34.0
 21
14.24
 31
0.0
  0
LINE
  5
1CB
100
AcDbEntity
  8
0
  6
CONTINUOUS
 62
               4
100
AcDbLine
 10
25.0
 20
12.94
 30
0.0
 11
34.0
 21
12.94
 31
0.0
  0
LINE
  5
1CC
100
AcDbEntity
  8
0
  6
CONTINUOUS
 62
               4
100
AcDbLine
 10
25.0
 20
6.6200000000000001
 30
0.0
 11
34.0
 21
6.6200000000000001
 31
0.0
  0
LINE
  5
1CD
100
AcDbEntity
  8
0
  6
CONTINUOUS
 62
               4
100
AcDbLine
 10
25.0
 20
5.3200000000000003
 30
0.0
 11
34.0
 21
5.3200000000000003
 31
0.0
  0
LINE
  5
1CE
100
AcDbEntity
  8
0
  6
CONTINUOUS
 62
               4
100
AcDbLine
 10
25.0
 20
-1.0
 30
0.0
 11
34.0
 21
-1.0
 31
0.0
  0
LINE
  5
1CF
100
AcDbEntity
  8
0
  6
CONTINUOUS
 62
               4
100
AcDbLine
 10
25.0
 20
-2.2999999999999998
 30
0.0
 11
34.0
 21
-2.2999999999999998
 31
0.0
  0
LINE
  5
1D0
100
AcDbEntity
  8
0
  6
CONTINUOUS
 62
               4
100
AcDbLine
 10
25.0
 20
-8.6199999999999992
 30
0.0
 11
34.0
 21
-8.6199999999999992
 31
0.0
  0
LINE
  5
1D1
100
AcDbEntity
  8
0
  6
CONTINUOUS
 62
               4
100
AcDbLine
 10
25.0
 20
-9.9199999999999999
 30
0.0
 11
34.0
 21
-9.9199999999999999
 31
0.0
  0
LINE
  5
1D2
100
AcDbEntity
  8
0
  6
CONTINUOUS
 62
               4
100
AcDbLine
 10
25.0
 20
-16.239999999999998
 30
0.0
 11
34.0
 21
-16.239999999999998
 31
0.0
  0
LINE
  5
1D3
100
AcDbEntity
  8
0
  6
CONTINUOUS
 62
               4
100
AcDbLine
 10
25.0
 20
-17.539999999999999
 30
0.0
 11
34.0
 21
-17.539999999999999
 31
0.0
  0
LINE
  5
1D4
100
AcDbEntity
  8
0
  6
CONTINUOUS
 62
               4
100
AcDbLine
 10
25.0
 20
-23.859999999999999
 30
0.0
 11
34.0
 21
-23.859999999999999
 31
0.0
  0
LINE
  5
1D5
100
AcDbEntity
  8
0
  6
CONTINUOUS
 62
               4
100
AcDbLine
 10
25.0
 20
-25.16
 30
0.0
 11
34.0
 21
-25.16
 31
0.0
  0
LINE
  5
1D6
100
AcDbEntity
  8
0
  6
CONTINUOUS
 62
               4
100
AcDbLine
 10
25.0
 20
-31.48
 30
0.0
 11
34.0
 21
-31.48
 31
0.0
  0
LINE
  5
1D7
100
AcDbEntity
  8
0
  6
CONTINUOUS
 62
               4
100
AcDbLine
 10
25.0
 20
-32.780000000000001
 30
0.0
 11
34.0
 21
-32.780000000000001
 31
0.0
  0
LINE
  5
1D8
100
AcDbEntity
  8
0
  6
CONTINUOUS
 62
               4
100
AcDbLine
 10
25.0
 20
-39.100000000000001
 30
0.0
 11
34.0
 21
-39.100000000000001
 31
0.0
  0
LINE
  5
1D9
100
AcDbEntity
  8
0
  6
CONTINUOUS
 62
               4
100
AcDbLine
 10
26.5
 20
-40.399999999999999
 30
0.0
 11
34.0
 21
-40.399999999999999
 31
0.0
  0
LINE
  5
1DA
100
AcDbEntity
  8
0
  6
CONTINUOUS
 62
               4
100
AcDbLine
 10
34.0
 20
35.799999999999997
 30
0.0
 11
34.0
 21
29.48
 31
0.0
  0
LINE
  5
1DB
100
AcDbEntity
  8
0
  6
CONTINUOUS
 62
               4
100
AcDbLine
 10
34.0
 20
28.18
 30
0.0
 11
34.0
 21
21.859999999999999
 31
0.0
  0
LINE
  5
1DC
100
AcDbEntity
  8
0
  6
CONTINUOUS
 62
               4
100
AcDbLine
 10
34.0
 20
20.559999999999999
 30
0.0
 11
34.0
 21
14.24
 31
0.0
  0
LINE
  5
1DD
100
AcDbEntity
  8
0
  6
CONTINUOUS
 62
               4
100
AcDbLine
 10
34.0
 20
12.94
 30
0.0
 11
34.0
 21
6.6200000000000001
 31
0.0
  0
LINE
  5
1DE
100
AcDbEntity
  8
0
  6
CONTINUOUS
 62
               4
100
AcDbLine
 10
34.0
 20
5.3200000000000003
 30
0.0
 11
34.0
 21
-1.0
 31
0.0
  0
LINE
  5
1DF
100
AcDbEntity
  8
0
  6
CONTINUOUS
 62
               4
100
AcDbLine
 10
34.0
 20
-2.2999999999999998
 30
0.0
 11
34.0
 21
-8.6199999999999992
 31
0.0
  0
LINE
  5
1E0
100
AcDbEntity
  8
0
  6
CONTINUOUS
 62
               4
100
AcDbLine
 10
34.0
 20
-9.9199999999999999
 30
0.0
 11
34.0
 21
-16.239999999999998
 31
0.0
  0
LINE
  5
1E1
100
AcDbEntity
  8
0
  6
CONTINUOUS
 62
               4
100
AcDbLine
 10
34.0
 20
-17.539999999999999
 30
0.0
 11
34.0
 21
-23.859999999999999
 31
0.0
  0
LINE
  5
1E2
100
AcDbEntity
  8
0
  6
CONTINUOUS
 62
               4
100
AcDbLine
 10
34.0
 20
-25.16
 30
0.0
 11
34.0
 21
-31.48
 31
0.0
  0
LINE
  5
1E3
100
AcDbEntity
  8
0
  6
CONTINUOUS
 62
               4
100
AcDbLine
 10
34.0
 20
-32.780000000000001
 30
0.0
 11
34.0
 21
-39.100000000000001
 31
0.0
  0
LINE
  5
1E4
100
AcDbEntity
  8
0
  6
CONTINUOUS
 62
               4
100
AcDbLine
 10
34.0
 20
-40.399999999999999
 30
0.0
 11
34.0
 21
-42.810000000000002
 31
0.0
  0
LINE
  5
1E5
100
AcDbEntity
  8
0
  6
CONTINUOUS
 62
               4
100
AcDbLine
 10
16.0
 20
33.289999999999999
 30
0.0
 11
25.0
 21
33.289999999999999
 31
0.0
  0
LINE
  5
1E6
100
AcDbEntity
  8
0
  6
CONTINUOUS
 62
               4
100
AcDbLine
 10
16.0
 20
31.989999999999998
 30
0.0
 11
25.0
 21
31.989999999999998
 31
0.0
  0
LINE
  5
1E7
100
AcDbEntity
  8
0
  6
CONTINUOUS
 62
               4
100
AcDbLine
 10
16.0
 20
25.670000000000002
 30
0.0
 11
25.0
 21
25.670000000000002
 31
0.0
  0
LINE
  5
1E8
100
AcDbEntity
  8
0
  6
CONTINUOUS
 62
               4
100
AcDbLine
 10
16.0
 20
24.370000000000001
 30
0.0
 11
25.0
 21
24.370000000000001
 31
0.0
  0
LINE
  5
1E9
100
AcDbEntity
  8
0
  6
CONTINUOUS
 62
               4
100
AcDbLine
 10
16.0
 20
18.050000000000001
 30
0.0
 11
25.0
 21
18.050000000000001
 31
0.0
  0
LINE
  5
1EA
100
AcDbEntity
  8
0
  6
CONTINUOUS
 62
               4
100
AcDbLine
 10
16.0
 20
16.75
 30
0.0
 11
25.0
 21
16.75
 31
0.0
  0
LINE
  5
1EB
100
AcDbEntity
  8
0
  6
CONTINUOUS
 62
               4
100
AcDbLine
 10
16.0
 20
10.43
 30
0.0
 11
25.0
 21
10.43
 31
0.0
  0
LINE
  5
1EC
100
AcDbEntity
  8
0
  6
CONTINUOUS
 62
               4
100
AcDbLine
 10
16.0
 20
9.1300000000000008
 30
0.0
 11
25.0
 21
9.1300000000000008
 31
0.0
  0
LINE
  5
1ED
100
AcDbEntity
  8
0
  6
CONTINUOUS
 62
               4
100
AcDbLine
 10
16.0
 20
2.8100000000000001
 30
0.0
 11
25.0
 21
2.8100000000000001
 31
0.0
  0
LINE
  5
1EE
100
AcDbEntity
  8
0
  6
CONTINUOUS
 62
               4
100
AcDbLine
 10
16.0
 20
1.51
 30
0.0
 11
25.0
 21
1.51
 31
0.0
  0
LINE
  5
1EF
100
AcDbEntity
  8
0
  6
CONTINUOUS
 62
               4
100
AcDbLine
 10
16.0
 20
-4.8099999999999996
 30
0.0
 11
25.0
 21
-4.8099999999999996
 31
0.0
  0
LINE
  5
1F0
100
AcDbEntity
  8
0
  6
CONTINUOUS
 62
               4
100
AcDbLine
 10
16.0
 20
-6.1100000000000003
 30
0.0
 11
25.0
 21
-6.1100000000000003
 31
0.0
  0
LINE
  5
1F1
100
AcDbEntity
  8
0
  6
CONTINUOUS
 62
               4
100
AcDbLine
 10
16.0
 20
-12.43
 30
0.0
 11
25.0
 21
-12.43
 31
0.0
  0
LINE
  5
1F2
100
AcDbEntity
  8
0
  6
CONTINUOUS
 62
               4
100
AcDbLine
 10
16.0
 20
-13.73
 30
0.0
 11
25.0
 21
-13.73
 31
0.0
  0
LINE
  5
1F3
100
AcDbEntity
  8
0
  6
CONTINUOUS
 62
               4
100
AcDbLine
 10
16.0
 20
-20.050000000000001
 30
0.0
 11
25.0
 21
-20.050000000000001
 31
0.0
  0
LINE
  5
1F4
100
AcDbEntity
  8
0
  6
CONTINUOUS
 62
               4
100
AcDbLine
 10
16.0
 20
-21.350000000000001
 30
0.0
 11
25.0
 21
-21.350000000000001
 31
0.0
  0
LINE
  5
1F5
100
AcDbEntity
  8
0
  6
CONTINUOUS
 62
               4
100
AcDbLine
 10
16.0
 20
-27.670000000000002
 30
0.0
 11
25.0
 21
-27.670000000000002
 31
0.0
  0
LINE
  5
1F6
100
AcDbEntity
  8
0
  6
CONTINUOUS
 62
               4
100
AcDbLine
 10
16.0
 20
-28.969999999999999
 30
0.0
 11
25.0
 21
-28.969999999999999
 31
0.0
  0
LINE
  5
1F7
100
AcDbEntity
  8
0
  6
CONTINUOUS
 62
               4
100
AcDbLine
 10
16.0
 20
-35.289999999999999
 30
0.0
 11
25.0
 21
-35.289999999999999
 31
0.0
  0
LINE
  5
1F8
100
AcDbEntity
  8
0
  6
CONTINUOUS
 62
               4
100
AcDbLine
 10
16.0
 20
-36.590000000000003
 30
0.0
 11
25.0
 21
-36.590000000000003
 31
0.0
  0
LINE
  5
1F9
100
AcDbEntity
  8
0
  6
CONTINUOUS
 62
               4
100
AcDbLine
 10
23.0
 20
41.390000000000001
 30
0.0
 11
23.0
 21
40.450000000000003
 31
0.0
  0
LINE
  5
1FA
100
AcDbEntity
  8
0
  6
CONTINUOUS
 62
               4
100
AcDbLine
 10
19.0
 20
41.390000000000001
 30
0.0
 11
19.0
 21
40.450000000000003
 31
0.0
  0
LINE
  5
1FB
100
AcDbEntity
  8
0
  6
CONTINUOUS
 62
               4
100
AcDbLine
 10
19.0
 20
41.390000000000001
 30
0.0
 11
23.0
 21
41.390000000000001
 31
0.0
  0
LINE
  5
1FC
100
AcDbEntity
  8
0
  6
CONTINUOUS
 62
               4
100
AcDbLine
 10
19.0
 20
-44.689999999999998
 30
0.0
 11
23.0
 21
-44.689999999999998
 31
0.0
  0
LINE
  5
1FD
100
AcDbEntity
  8
0
  6
CONTINUOUS
 62
               4
100
AcDbLine
 10
19.0
 20
-43.75
 30
0.0
 11
19.0
 21
-44.689999999999998
 31
0.0
  0
LINE
  5
1FE
100
AcDbEntity
  8
0
  6
CONTINUOUS
 62
               4
100
AcDbLine
 10
23.0
 20
-43.75
 30
0.0
 11
23.0
 21
-44.689999999999998
 31
0.0
  0
LINE
  5
1FF
100
AcDbEntity
  8
0
  6
CONTINUOUS
 62
               4
100
AcDbLine
 10
23.0
 20
-44.600000000000001
 30
0.0
 11
42.0
 21
-44.600000000000001
 31
0.0
  0
LINE
  5
200
100
AcDbEntity
  8
0
  6
CONTINUOUS
 62
               4
100
AcDbLine
 10
19.93
 20
35.380000000000003
 30
0.0
 11
22.059999999999999
 21
37.509999999999998
 31
0.0
  0
LINE
  5
201
100
AcDbEntity
  8
0
  6
CONTINUOUS
 62
               4
100
AcDbLine
 10
19.93
 20
37.509999999999998
 30
0.0
 11
22.059999999999999
 21
35.380000000000003
 31
0.0
  0
LINE
  5
202
100
AcDbEntity
  8
0
  6
CONTINUOUS
 62
               4
100
AcDbLine
 10
18.100000000000001
 20
39.350000000000001
 30
0.0
 11
23.899999999999999
 21
39.350000000000001
 31
0.0
  0
LINE
  5
203
100
AcDbEntity
  8
0
  6
CONTINUOUS
 62
               4
100
AcDbLine
 10
18.100000000000001
 20
33.549999999999997
 30
0.0
 11
23.899999999999999
 21
33.549999999999997
 31
0.0
  0
LINE
  5
204
100
AcDbEntity
  8
0
  6
CONTINUOUS
 62
               4
100
AcDbLine
 10
18.100000000000001
 20
39.350000000000001
 30
0.0
 11
18.100000000000001
 21
38.950000000000003
 31
0.0
  0
LINE
  5
205
100
AcDbEntity
  8
0
  6
CONTINUOUS
 62
               4
100
AcDbLine
 10
23.899999999999999
 20
39.350000000000001
 30
0.0
 11
23.899999999999999
 21
38.950000000000003
 31
0.0
  0
LINE
  5
206
100
AcDbEntity
  8
0
  6
CONTINUOUS
 62
               4
100
AcDbLine
 10
24.399999999999999
 20
38.950000000000003
 30
0.0
 11
24.399999999999999
 21
33.950000000000003
 31
0.0
  0
LINE
  5
207
100
AcDbEntity
  8
0
  6
CONTINUOUS
 62
               4
100
AcDbLine
 10
17.600000000000001
 20
38.950000000000003
 30
0.0
 11
17.600000000000001
 21
33.950000000000003
 31
0.0
  0
LINE
  5
208
100
AcDbEntity
  8
0
  6
CONTINUOUS
 62
               4
100
AcDbLine
 10
17.600000000000001
 20
33.950000000000003
 30
0.0
 11
18.100000000000001
 21
33.950000000000003
 31
0.0
  0
LINE
  5
209
100
AcDbEntity
  8
0
  6
CONTINUOUS
 62
               4
100
AcDbLine
 10
17.600000000000001
 20
38.950000000000003
 30
0.0
 11
18.100000000000001
 21
38.950000000000003
 31
0.0
  0
LINE
  5
20A
100
AcDbEntity
  8
0
  6
CONTINUOUS
 62
               4
100
AcDbLine
 10
23.899999999999999
 20
38.950000000000003
 30
0.0
 11
24.399999999999999
 21
38.950000000000003
 31
0.0
  0
LINE
  5
20B
100
AcDbEntity
  8
0
  6
CONTINUOUS
 62
               4
100
AcDbLine
 10
23.899999999999999
 20
33.950000000000003
 30
0.0
 11
24.399999999999999
 21
33.950000000000003
 31
0.0
  0
LINE
  5
20C
100
AcDbEntity
  8
0
  6
CONTINUOUS
 62
               4
100
AcDbLine
 10
19.93
 20
-40.810000000000002
 30
0.0
 11
22.059999999999999
 21
-38.68
 31
0.0
  0
LINE
  5
20D
100
AcDbEntity
  8
0
  6
CONTINUOUS
 62
               4
100
AcDbLine
 10
19.93
 20
-38.68
 30
0.0
 11
22.059999999999999
 21
-40.810000000000002
 31
0.0
  0
LINE
  5
20E
100
AcDbEntity
  8
0
  6
CONTINUOUS
 62
               4
100
AcDbLine
 10
18.100000000000001
 20
-36.850000000000001
 30
0.0
 11
23.899999999999999
 21
-36.850000000000001
 31
0.0
  0
LINE
  5
20F
100
AcDbEntity
  8
0
  6
CONTINUOUS
 62
               4
100
AcDbLine
 10
18.100000000000001
 20
-42.649999999999999
 30
0.0
 11
23.899999999999999
 21
-42.649999999999999
 31
0.0
  0
LINE
  5
210
100
AcDbEntity
  8
0
  6
CONTINUOUS
 62
               4
100
AcDbLine
 10
18.100000000000001
 20
-36.850000000000001
 30
0.0
 11
18.100000000000001
 21
-37.25
 31
0.0
  0
LINE
  5
211
100
AcDbEntity
  8
0
  6
CONTINUOUS
 62
               4
100
AcDbLine
 10
23.899999999999999
 20
-36.850000000000001
 30
0.0
 11
23.899999999999999
 21
-37.25
 31
0.0
  0
LINE
  5
212
100
AcDbEntity
  8
0
  6
CONTINUOUS
 62
               4
100
AcDbLine
 10
24.399999999999999
 20
-37.25
 30
0.0
 11
24.399999999999999
 21
-42.25
 31
0.0
  0
LINE
  5
213
100
AcDbEntity
  8
0
  6
CONTINUOUS
 62
               4
100
AcDbLine
 10
17.600000000000001
 20
-37.25
 30
0.0
 11
17.600000000000001
 21
-42.25
 31
0.0
  0
LINE
  5
214
100
AcDbEntity
  8
0
  6
CONTINUOUS
 62
               4
100
AcDbLine
 10
17.600000000000001
 20
-42.25
 30
0.0
 11
18.100000000000001
 21
-42.25
 31
0.0
  0
LINE
  5
215
100
AcDbEntity
  8
0
  6
CONTINUOUS
 62
               4
100
AcDbLine
 10
17.600000000000001
 20
-37.25
 30
0.0
 11
18.100000000000001
 21
-37.25
 31
0.0
  0
LINE
  5
216
100
AcDbEntity
  8
0
  6
CONTINUOUS
 62
               4
100
AcDbLine
 10
23.899999999999999
 20
-37.25
 30
0.0
 11
24.399999999999999
 21
-37.25
 31
0.0
  0
LINE
  5
217
100
AcDbEntity
  8
0
  6
CONTINUOUS
 62
               4
100
AcDbLine
 10
23.899999999999999
 20
-42.25
 30
0.0
 11
24.399999999999999
 21
-42.25
 31
0.0
  0
LINE
  5
218
100
AcDbEntity
  8
0
  6
CONTINUOUS
 62
               4
100
AcDbLine
 10
18.100000000000001
 20
-42.25
 30
0.0
 11
18.100000000000001
 21
-42.649999999999999
 31
0.0
  0
LINE
  5
219
100
AcDbEntity
  8
0
  6
CONTINUOUS
 62
               4
100
AcDbLine
 10
23.899999999999999
 20
-42.25
 30
0.0
 11
23.899999999999999
 21
-42.649999999999999
 31
0.0
  0
LINE
  5
21A
100
AcDbEntity
  8
0
  6
CONTINUOUS
 62
               4
100
AcDbLine
 10
18.100000000000001
 20
33.950000000000003
 30
0.0
 11
18.100000000000001
 21
33.549999999999997
 31
0.0
  0
LINE
  5
21B
100
AcDbEntity
  8
0
  6
CONTINUOUS
 62
               4
100
AcDbLine
 10
23.899999999999999
 20
33.950000000000003
 30
0.0
 11
23.899999999999999
 21
33.549999999999997
 31
0.0
  0
LINE
  5
21C
100
AcDbEntity
  8
0
  6
CONTINUOUS
 62
               4
100
AcDbLine
 10
9.4299999999999997
 20
41.829999999999998
 30
0.0
 11
11.56
 21
43.960000000000001
 31
0.0
  0
LINE
  5
21D
100
AcDbEntity
  8
0
  6
CONTINUOUS
 62
               4
100
AcDbLine
 10
9.4299999999999997
 20
43.960000000000001
 30
0.0
 11
11.56
 21
41.829999999999998
 31
0.0
  0
LINE
  5
21E
100
AcDbEntity
  8
0
  6
CONTINUOUS
 62
               4
100
AcDbLine
 10
30.43
 20
41.829999999999998
 30
0.0
 11
32.560000000000002
 21
43.960000000000001
 31
0.0
  0
LINE
  5
21F
100
AcDbEntity
  8
0
  6
CONTINUOUS
 62
               4
100
AcDbLine
 10
30.43
 20
43.960000000000001
 30
0.0
 11
32.560000000000002
 21
41.829999999999998
 31
0.0
  0
LINE
  5
220
100
AcDbEntity
  8
0
  6
CONTINUOUS
 62
               4
100
AcDbLine
 10
1.5
 20
37.299999999999997
 30
0.0
 11
1.5
 21
-40.600000000000001
 31
0.0
  0
LINE
  5
221
100
AcDbEntity
  8
0
  6
CONTINUOUS
 62
               4
100
AcDbLine
 10
13.5
 20
37.299999999999997
 30
0.0
 11
13.5
 21
-40.600000000000001
 31
0.0
  0
LINE
  5
222
100
AcDbEntity
  8
0
  6
CONTINUOUS
 62
               4
100
AcDbLine
 10
1.5
 20
-40.600000000000001
 30
0.0
 11
13.5
 21
-40.600000000000001
 31
0.0
  0
LINE
  5
223
100
AcDbEntity
  8
0
  6
CONTINUOUS
 62
               4
100
AcDbLine
 10
1.5
 20
37.299999999999997
 30
0.0
 11
13.5
 21
37.299999999999997
 31
0.0
  0
LINE
  5
224
100
AcDbEntity
  8
0
  6
CONTINUOUS
 62
               4
100
AcDbLine
 10
26.5
 20
39.509999999999998
 30
0.0
 11
26.5
 21
37.100000000000001
 31
0.0
  0
LINE
  5
225
100
AcDbEntity
  8
0
  6
CONTINUOUS
 62
               4
100
AcDbLine
 10
26.5
 20
-40.399999999999999
 30
0.0
 11
26.5
 21
-42.810000000000002
 31
0.0
  0
LINE
  5
226
100
AcDbEntity
  8
0
  6
CONTINUOUS
 62
               4
100
AcDbLine
 10
13.0
 20
36.350000000000001
 30
0.0
 11
13.0
 21
-39.649999999999999
 31
0.0
  0
LINE
  5
227
100
AcDbEntity
  8
0
  6
CONTINUOUS
 62
               4
100
AcDbLine
 10
2.0
 20
36.350000000000001
 30
0.0
 11
2.0
 21
-39.649999999999999
 31
0.0
  0
LINE
  5
228
100
AcDbEntity
  8
0
  6
CONTINUOUS
 62
               4
100
AcDbLine
 10
2.0
 20
36.350000000000001
 30
0.0
 11
13.0
 21
36.350000000000001
 31
0.0
  0
LINE
  5
229
100
AcDbEntity
  8
0
  6
CONTINUOUS
 62
               4
100
AcDbLine
 10
2.0
 20
-39.649999999999999
 30
0.0
 11
13.0
 21
-39.649999999999999
 31
0.0
  0
LINE
  5
22A
100
AcDbEntity
  8
0
  6
CONTINUOUS
 62
               4
100
AcDbLine
 10
7.5
 20
-1.6499999999999999
 30
0.0
 11
13.0
 21
-1.6499999999999999
 31
0.0
  0
LINE
  5
22B
100
AcDbEntity
  8
0
  6
CONTINUOUS
 62
               4
100
AcDbLine
 10
7.5
 20
36.350000000000001
 30
0.0
 11
7.5
 21
-39.649999999999999
 31
0.0
  0
LINE
  5
22C
100
AcDbEntity
  8
0
  6
CONTINUOUS
 62
               4
100
AcDbLine
 10
2.0
 20
-5.46
 30
0.0
 11
7.5
 21
-5.46
 31
0.0
  0
LINE
  5
22D
100
AcDbEntity
  8
0
  6
CONTINUOUS
 62
               4
100
AcDbLine
 10
2.0
 20
2.1600000000000001
 30
0.0
 11
7.5
 21
2.1600000000000001
 31
0.0
  0
LINE
  5
22E
100
AcDbEntity
  8
0
  6
CONTINUOUS
 62
               4
100
AcDbLine
 10
2.0
 20
9.7799999999999994
 30
0.0
 11
7.5
 21
9.7799999999999994
 31
0.0
  0
LINE
  5
22F
100
AcDbEntity
  8
0
  6
CONTINUOUS
 62
               4
100
AcDbLine
 10
2.0
 20
17.399999999999999
 30
0.0
 11
7.5
 21
17.399999999999999
 31
0.0
  0
LINE
  5
230
100
AcDbEntity
  8
0
  6
CONTINUOUS
 62
               4
100
AcDbLine
 10
2.0
 20
25.02
 30
0.0
 11
7.5
 21
25.02
 31
0.0
  0
LINE
  5
231
100
AcDbEntity
  8
0
  6
CONTINUOUS
 62
               4
100
AcDbLine
 10
2.0
 20
32.640000000000001
 30
0.0
 11
7.5
 21
32.640000000000001
 31
0.0
  0
LINE
  5
232
100
AcDbEntity
  8
0
  6
CONTINUOUS
 62
               4
100
AcDbLine
 10
2.0
 20
-13.08
 30
0.0
 11
7.5
 21
-13.08
 31
0.0
  0
LINE
  5
233
100
AcDbEntity
  8
0
  6
CONTINUOUS
 62
               4
100
AcDbLine
 10
2.0
 20
-20.699999999999999
 30
0.0
 11
7.5
 21
-20.699999999999999
 31
0.0
  0
LINE
  5
234
100
AcDbEntity
  8
0
  6
CONTINUOUS
 62
               4
100
AcDbLine
 10
2.0
 20
-28.32
 30
0.0
 11
7.5
 21
-28.32
 31
0.0
  0
LINE
  5
235
100
AcDbEntity
  8
0
  6
CONTINUOUS
 62
               4
100
AcDbLine
 10
2.0
 20
-35.939999999999998
 30
0.0
 11
7.5
 21
-35.939999999999998
 31
0.0
  0
LINE
  5
236
100
AcDbEntity
  8
0
  6
CONTINUOUS
 62
               4
100
AcDbLine
 10
7.5
 20
5.9699999999999998
 30
0.0
 11
13.0
 21
5.9699999999999998
 31
0.0
  0
LINE
  5
237
100
AcDbEntity
  8
0
  6
CONTINUOUS
 62
               4
100
AcDbLine
 10
7.5
 20
13.59
 30
0.0
 11
13.0
 21
13.59
 31
0.0
  0
LINE
  5
238
100
AcDbEntity
  8
0
  6
CONTINUOUS
 62
               4
100
AcDbLine
 10
7.5
 20
21.210000000000001
 30
0.0
 11
13.0
 21
21.210000000000001
 31
0.0
  0
LINE
  5
239
100
AcDbEntity
  8
0
  6
CONTINUOUS
 62
               4
100
AcDbLine
 10
7.5
 20
28.829999999999998
 30
0.0
 11
13.0
 21
28.829999999999998
 31
0.0
  0
LINE
  5
23A
100
AcDbEntity
  8
0
  6
CONTINUOUS
 62
               4
100
AcDbLine
 10
7.5
 20
-9.2699999999999996
 30
0.0
 11
13.0
 21
-9.2699999999999996
 31
0.0
  0
LINE
  5
23B
100
AcDbEntity
  8
0
  6
CONTINUOUS
 62
               4
100
AcDbLine
 10
7.5
 20
-16.890000000000001
 30
0.0
 11
13.0
 21
-16.890000000000001
 31
0.0
  0
LINE
  5
23C
100
AcDbEntity
  8
0
  6
CONTINUOUS
 62
               4
100
AcDbLine
 10
7.5
 20
-24.510000000000002
 30
0.0
 11
13.0
 21
-24.510000000000002
 31
0.0
  0
LINE
  5
23D
100
AcDbEntity
  8
0
  6
CONTINUOUS
 62
               4
100
AcDbLine
 10
7.5
 20
-32.130000000000003
 30
0.0
 11
13.0
 21
-32.130000000000003
 31
0.0
  0
LINE
  5
23E
100
AcDbEntity
  8
0
  6
CONTINUOUS
 62
               4
100
AcDbLine
 10
1.5
 20
58.899999999999999
 30
0.0
 11
1.5
 21
48.899999999999999
 31
0.0
  0
LINE
  5
23F
100
AcDbEntity
  8
0
  6
CONTINUOUS
 62
               4
100
AcDbLine
 10
22.5
 20
58.899999999999999
 30
0.0
 11
22.5
 21
48.899999999999999
 31
0.0
  0
LINE
  5
240
100
AcDbEntity
  8
0
  6
CONTINUOUS
 62
               4
100
AcDbLine
 10
19.5
 20
58.899999999999999
 30
0.0
 11
19.5
 21
48.899999999999999
 31
0.0
  0
LINE
  5
241
100
AcDbEntity
  8
0
  6
CONTINUOUS
 62
               4
100
AcDbLine
 10
40.5
 20
58.899999999999999
 30
0.0
 11
40.5
 21
48.899999999999999
 31
0.0
  0
LINE
  5
242
100
AcDbEntity
  8
0
  6
CONTINUOUS
 62
               4
100
AcDbLine
 10
1.5
 20
58.899999999999999
 30
0.0
 11
19.5
 21
58.899999999999999
 31
0.0
  0
LINE
  5
243
100
AcDbEntity
  8
0
  6
CONTINUOUS
 62
               4
100
AcDbLine
 10
22.5
 20
58.899999999999999
 30
0.0
 11
40.5
 21
58.899999999999999
 31
0.0
  0
LINE
  5
244
100
AcDbEntity
  8
0
  6
CONTINUOUS
 62
               4
100
AcDbLine
 10
0.0
 20
-44.600000000000001
 30
0.0
 11
19.0
 21
-44.600000000000001
 31
0.0
  0
LINE
  5
245
100
AcDbEntity
  8
0
  6
CONTINUOUS
 62
               4
100
AcDbLine
 10
42.0
 20
60.399999999999999
 30
0.0
 11
0.0
 21
60.399999999999999
 31
0.0
  0
CIRCLE
  5
246
100
AcDbEntity
  8
0
  6
CONTINUOUS
 62
               4
100
AcDbCircle
 10
10.500030517578125
 20
42.89996337890625
 30
0.0
 40
3.1999998092651367
  0
CIRCLE
  5
247
100
AcDbEntity
  8
0
  6
CONTINUOUS
 62
               4
100
AcDbCircle
 10
31.500030517578125
 20
42.89996337890625
 30
0.0
 40
3.1999998092651367
  0
CIRCLE
  5
248
100
AcDbEntity
  8
0
  6
CONTINUOUS
 62
               4
100
AcDbCircle
 10
21.000030517578125
 20
36.449951171875
 30
0.0
 40
2.7999992370605469
  0
CIRCLE
  5
249
100
AcDbEntity
  8
0
  6
CONTINUOUS
 62
               4
100
AcDbCircle
 10
21.000030517578125
 20
-39.750045776367188
 30
0.0
 40
2.7999992370605469
  0
ENDBLK
  5
24A
100
AcDbEntity
  8
0
100
AcDbBlockEnd
  0
BLOCK
  5
24B
100
AcDbEntity
  8
0
100
AcDbBlockBegin
  2
F15_CONNECTER-6
 70
               0
 10
0.0
 20
0.0
 30
0.0
  3
F15_CONNECTER-6
  1

  0
LINE
  5
24C
100
AcDbEntity
  8
0
  6
CONTINUOUS
 62
               4
100
AcDbLine
 10
83.0
 20
39.509999999999998
 30
0.0
 11
66.599999999999994
 21
39.509999999999998
 31
0.0
  0
LINE
  5
24D
100
AcDbEntity
  8
0
  6
CONTINUOUS
 62
               4
100
AcDbLine
 10
83.0
 20
-42.810000000000002
 30
0.0
 11
66.599999999999994
 21
-42.810000000000002
 31
0.0
  0
LINE
  5
24E
100
AcDbEntity
  8
0
  6
CONTINUOUS
 62
               4
100
AcDbLine
 10
80.0
 20
-42.810000000000002
 30
0.0
 11
80.0
 21
39.509999999999998
 31
0.0
  0
LINE
  5
24F
100
AcDbEntity
  8
0
  6
CONTINUOUS
 62
               4
100
AcDbLine
 10
72.0
 20
-42.810000000000002
 30
0.0
 11
72.0
 21
39.509999999999998
 31
0.0
  0
LINE
  5
250
100
AcDbEntity
  8
0
  6
CONTINUOUS
 62
               4
100
AcDbLine
 10
66.0
 20
-42.950000000000003
 30
0.0
 11
66.0
 21
39.649999999999999
 31
0.0
  0
LINE
  5
251
100
AcDbEntity
  8
0
  6
CONTINUOUS
 62
               4
100
AcDbLine
 10
74.0
 20
-42.810000000000002
 30
0.0
 11
74.0
 21
39.509999999999998
 31
0.0
  0
LINE
  5
252
100
AcDbEntity
  8
0
  6
CONTINUOUS
 62
               4
100
AcDbLine
 10
66.599999999999994
 20
-42.810000000000002
 30
0.0
 11
66.599999999999994
 21
-36.590000000000003
 31
0.0
  0
LINE
  5
253
100
AcDbEntity
  8
0
  6
CONTINUOUS
 62
               4
100
AcDbLine
 10
72.0
 20
31.989999999999998
 30
0.0
 11
66.0
 21
31.989999999999998
 31
0.0
  0
LINE
  5
254
100
AcDbEntity
  8
0
  6
CONTINUOUS
 62
               4
100
AcDbLine
 10
72.0
 20
33.289999999999999
 30
0.0
 11
66.0
 21
33.289999999999999
 31
0.0
  0
LINE
  5
255
100
AcDbEntity
  8
0
  6
CONTINUOUS
 62
               4
100
AcDbLine
 10
72.0
 20
24.370000000000001
 30
0.0
 11
66.0
 21
24.370000000000001
 31
0.0
  0
LINE
  5
256
100
AcDbEntity
  8
0
  6
CONTINUOUS
 62
               4
100
AcDbLine
 10
72.0
 20
25.670000000000002
 30
0.0
 11
66.0
 21
25.670000000000002
 31
0.0
  0
LINE
  5
257
100
AcDbEntity
  8
0
  6
CONTINUOUS
 62
               4
100
AcDbLine
 10
72.0
 20
18.050000000000001
 30
0.0
 11
66.0
 21
18.050000000000001
 31
0.0
  0
LINE
  5
258
100
AcDbEntity
  8
0
  6
CONTINUOUS
 62
               4
100
AcDbLine
 10
72.0
 20
16.75
 30
0.0
 11
66.0
 21
16.75
 31
0.0
  0
LINE
  5
259
100
AcDbEntity
  8
0
  6
CONTINUOUS
 62
               4
100
AcDbLine
 10
72.0
 20
10.43
 30
0.0
 11
66.0
 21
10.43
 31
0.0
  0
LINE
  5
25A
100
AcDbEntity
  8
0
  6
CONTINUOUS
 62
               4
100
AcDbLine
 10
72.0
 20
9.1300000000000008
 30
0.0
 11
66.0
 21
9.1300000000000008
 31
0.0
  0
LINE
  5
25B
100
AcDbEntity
  8
0
  6
CONTINUOUS
 62
               4
100
AcDbLine
 10
72.0
 20
1.51
 30
0.0
 11
66.0
 21
1.51
 31
0.0
  0
LINE
  5
25C
100
AcDbEntity
  8
0
  6
CONTINUOUS
 62
               4
100
AcDbLine
 10
72.0
 20
2.8100000000000001
 30
0.0
 11
66.0
 21
2.8100000000000001
 31
0.0
  0
LINE
  5
25D
100
AcDbEntity
  8
0
  6
CONTINUOUS
 62
               4
100
AcDbLine
 10
72.0
 20
-4.8099999999999996
 30
0.0
 11
66.0
 21
-4.8099999999999996
 31
0.0
  0
LINE
  5
25E
100
AcDbEntity
  8
0
  6
CONTINUOUS
 62
               4
100
AcDbLine
 10
72.0
 20
-6.1100000000000003
 30
0.0
 11
66.0
 21
-6.1100000000000003
 31
0.0
  0
LINE
  5
25F
100
AcDbEntity
  8
0
  6
CONTINUOUS
 62
               4
100
AcDbLine
 10
72.0
 20
-12.43
 30
0.0
 11
66.0
 21
-12.43
 31
0.0
  0
LINE
  5
260
100
AcDbEntity
  8
0
  6
CONTINUOUS
 62
               4
100
AcDbLine
 10
72.0
 20
-13.73
 30
0.0
 11
66.0
 21
-13.73
 31
0.0
  0
LINE
  5
261
100
AcDbEntity
  8
0
  6
CONTINUOUS
 62
               4
100
AcDbLine
 10
72.0
 20
-20.050000000000001
 30
0.0
 11
66.0
 21
-20.050000000000001
 31
0.0
  0
LINE
  5
262
100
AcDbEntity
  8
0
  6
CONTINUOUS
 62
               4
100
AcDbLine
 10
72.0
 20
-21.350000000000001
 30
0.0
 11
66.0
 21
-21.350000000000001
 31
0.0
  0
LINE
  5
263
100
AcDbEntity
  8
0
  6
CONTINUOUS
 62
               4
100
AcDbLine
 10
72.0
 20
-27.670000000000002
 30
0.0
 11
66.0
 21
-27.670000000000002
 31
0.0
  0
LINE
  5
264
100
AcDbEntity
  8
0
  6
CONTINUOUS
 62
               4
100
AcDbLine
 10
72.0
 20
-28.969999999999999
 30
0.0
 11
66.0
 21
-28.969999999999999
 31
0.0
  0
LINE
  5
265
100
AcDbEntity
  8
0
  6
CONTINUOUS
 62
               4
100
AcDbLine
 10
72.0
 20
-36.590000000000003
 30
0.0
 11
66.0
 21
-36.590000000000003
 31
0.0
  0
LINE
  5
266
100
AcDbEntity
  8
0
  6
CONTINUOUS
 62
               4
100
AcDbLine
 10
72.0
 20
-35.289999999999999
 30
0.0
 11
66.0
 21
-35.289999999999999
 31
0.0
  0
LINE
  5
267
100
AcDbEntity
  8
0
  6
CONTINUOUS
 62
               4
100
AcDbLine
 10
80.0
 20
-40.399999999999999
 30
0.0
 11
74.0
 21
-40.399999999999999
 31
0.0
  0
LINE
  5
268
100
AcDbEntity
  8
0
  6
CONTINUOUS
 62
               4
100
AcDbLine
 10
67.599999999999994
 20
25.670000000000002
 30
0.0
 11
67.599999999999994
 21
31.989999999999998
 31
0.0
  0
LINE
  5
269
100
AcDbEntity
  8
0
  6
CONTINUOUS
 62
               4
100
AcDbLine
 10
66.599999999999994
 20
25.670000000000002
 30
0.0
 11
66.599999999999994
 21
31.989999999999998
 31
0.0
  0
LINE
  5
26A
100
AcDbEntity
  8
0
  6
CONTINUOUS
 62
               4
100
AcDbLine
 10
67.599999999999994
 20
18.050000000000001
 30
0.0
 11
67.599999999999994
 21
24.370000000000001
 31
0.0
  0
LINE
  5
26B
100
AcDbEntity
  8
0
  6
CONTINUOUS
 62
               4
100
AcDbLine
 10
66.599999999999994
 20
18.050000000000001
 30
0.0
 11
66.599999999999994
 21
24.370000000000001
 31
0.0
  0
LINE
  5
26C
100
AcDbEntity
  8
0
  6
CONTINUOUS
 62
               4
100
AcDbLine
 10
67.599999999999994
 20
10.43
 30
0.0
 11
67.599999999999994
 21
16.75
 31
0.0
  0
LINE
  5
26D
100
AcDbEntity
  8
0
  6
CONTINUOUS
 62
               4
100
AcDbLine
 10
66.599999999999994
 20
10.43
 30
0.0
 11
66.599999999999994
 21
16.75
 31
0.0
  0
LINE
  5
26E
100
AcDbEntity
  8
0
  6
CONTINUOUS
 62
               4
100
AcDbLine
 10
67.599999999999994
 20
2.8100000000000001
 30
0.0
 11
67.599999999999994
 21
9.1300000000000008
 31
0.0
  0
LINE
  5
26F
100
AcDbEntity
  8
0
  6
CONTINUOUS
 62
               4
100
AcDbLine
 10
66.599999999999994
 20
2.8100000000000001
 30
0.0
 11
66.599999999999994
 21
9.1300000000000008
 31
0.0
  0
LINE
  5
270
100
AcDbEntity
  8
0
  6
CONTINUOUS
 62
               4
100
AcDbLine
 10
67.599999999999994
 20
-4.8099999999999996
 30
0.0
 11
67.599999999999994
 21
1.51
 31
0.0
  0
LINE
  5
271
100
AcDbEntity
  8
0
  6
CONTINUOUS
 62
               4
100
AcDbLine
 10
66.599999999999994
 20
-4.8099999999999996
 30
0.0
 11
66.599999999999994
 21
1.51
 31
0.0
  0
LINE
  5
272
100
AcDbEntity
  8
0
  6
CONTINUOUS
 62
               4
100
AcDbLine
 10
67.599999999999994
 20
-12.43
 30
0.0
 11
67.599999999999994
 21
-6.1100000000000003
 31
0.0
  0
LINE
  5
273
100
AcDbEntity
  8
0
  6
CONTINUOUS
 62
               4
100
AcDbLine
 10
66.599999999999994
 20
-12.43
 30
0.0
 11
66.599999999999994
 21
-6.1100000000000003
 31
0.0
  0
LINE
  5
274
100
AcDbEntity
  8
0
  6
CONTINUOUS
 62
               4
100
AcDbLine
 10
67.599999999999994
 20
-20.050000000000001
 30
0.0
 11
67.599999999999994
 21
-13.73
 31
0.0
  0
LINE
  5
275
100
AcDbEntity
  8
0
  6
CONTINUOUS
 62
               4
100
AcDbLine
 10
66.599999999999994
 20
-20.050000000000001
 30
0.0
 11
66.599999999999994
 21
-13.73
 31
0.0
  0
LINE
  5
276
100
AcDbEntity
  8
0
  6
CONTINUOUS
 62
               4
100
AcDbLine
 10
67.599999999999994
 20
-27.670000000000002
 30
0.0
 11
67.599999999999994
 21
-21.350000000000001
 31
0.0
  0
LINE
  5
277
100
AcDbEntity
  8
0
  6
CONTINUOUS
 62
               4
100
AcDbLine
 10
66.599999999999994
 20
-27.670000000000002
 30
0.0
 11
66.599999999999994
 21
-21.350000000000001
 31
0.0
  0
LINE
  5
278
100
AcDbEntity
  8
0
  6
CONTINUOUS
 62
               4
100
AcDbLine
 10
67.599999999999994
 20
-35.289999999999999
 30
0.0
 11
67.599999999999994
 21
-28.969999999999999
 31
0.0
  0
LINE
  5
279
100
AcDbEntity
  8
0
  6
CONTINUOUS
 62
               4
100
AcDbLine
 10
66.599999999999994
 20
-35.289999999999999
 30
0.0
 11
66.599999999999994
 21
-28.969999999999999
 31
0.0
  0
LINE
  5
27A
100
AcDbEntity
  8
0
  6
CONTINUOUS
 62
               4
100
AcDbLine
 10
75.599999999999994
 20
-39.100000000000001
 30
0.0
 11
75.599999999999994
 21
-32.780000000000001
 31
0.0
  0
LINE
  5
27B
100
AcDbEntity
  8
0
  6
CONTINUOUS
 62
               4
100
AcDbLine
 10
74.599999999999994
 20
-39.100000000000001
 30
0.0
 11
74.599999999999994
 21
-32.780000000000001
 31
0.0
  0
LINE
  5
27C
100
AcDbEntity
  8
0
  6
CONTINUOUS
 62
               4
100
AcDbLine
 10
74.599999999999994
 20
-31.48
 30
0.0
 11
74.599999999999994
 21
-25.16
 31
0.0
  0
LINE
  5
27D
100
AcDbEntity
  8
0
  6
CONTINUOUS
 62
               4
100
AcDbLine
 10
80.0
 20
35.799999999999997
 30
0.0
 11
74.0
 21
35.799999999999997
 31
0.0
  0
LINE
  5
27E
100
AcDbEntity
  8
0
  6
CONTINUOUS
 62
               4
100
AcDbLine
 10
80.0
 20
37.100000000000001
 30
0.0
 11
74.0
 21
37.100000000000001
 31
0.0
  0
LINE
  5
27F
100
AcDbEntity
  8
0
  6
CONTINUOUS
 62
               4
100
AcDbLine
 10
80.0
 20
28.18
 30
0.0
 11
74.0
 21
28.18
 31
0.0
  0
LINE
  5
280
100
AcDbEntity
  8
0
  6
CONTINUOUS
 62
               4
100
AcDbLine
 10
80.0
 20
29.48
 30
0.0
 11
74.0
 21
29.48
 31
0.0
  0
LINE
  5
281
100
AcDbEntity
  8
0
  6
CONTINUOUS
 62
               4
100
AcDbLine
 10
80.0
 20
21.859999999999999
 30
0.0
 11
74.0
 21
21.859999999999999
 31
0.0
  0
LINE
  5
282
100
AcDbEntity
  8
0
  6
CONTINUOUS
 62
               4
100
AcDbLine
 10
80.0
 20
20.559999999999999
 30
0.0
 11
74.0
 21
20.559999999999999
 31
0.0
  0
LINE
  5
283
100
AcDbEntity
  8
0
  6
CONTINUOUS
 62
               4
100
AcDbLine
 10
80.0
 20
14.24
 30
0.0
 11
74.0
 21
14.24
 31
0.0
  0
LINE
  5
284
100
AcDbEntity
  8
0
  6
CONTINUOUS
 62
               4
100
AcDbLine
 10
80.0
 20
12.94
 30
0.0
 11
74.0
 21
12.94
 31
0.0
  0
LINE
  5
285
100
AcDbEntity
  8
0
  6
CONTINUOUS
 62
               4
100
AcDbLine
 10
80.0
 20
5.3200000000000003
 30
0.0
 11
74.0
 21
5.3200000000000003
 31
0.0
  0
LINE
  5
286
100
AcDbEntity
  8
0
  6
CONTINUOUS
 62
               4
100
AcDbLine
 10
80.0
 20
6.6200000000000001
 30
0.0
 11
74.0
 21
6.6200000000000001
 31
0.0
  0
LINE
  5
287
100
AcDbEntity
  8
0
  6
CONTINUOUS
 62
               4
100
AcDbLine
 10
80.0
 20
-1.0
 30
0.0
 11
74.0
 21
-1.0
 31
0.0
  0
LINE
  5
288
100
AcDbEntity
  8
0
  6
CONTINUOUS
 62
               4
100
AcDbLine
 10
80.0
 20
-2.2999999999999998
 30
0.0
 11
74.0
 21
-2.2999999999999998
 31
0.0
  0
LINE
  5
289
100
AcDbEntity
  8
0
  6
CONTINUOUS
 62
               4
100
AcDbLine
 10
80.0
 20
-8.6199999999999992
 30
0.0
 11
74.0
 21
-8.6199999999999992
 31
0.0
  0
LINE
  5
28A
100
AcDbEntity
  8
0
  6
CONTINUOUS
 62
               4
100
AcDbLine
 10
80.0
 20
-9.9199999999999999
 30
0.0
 11
74.0
 21
-9.9199999999999999
 31
0.0
  0
LINE
  5
28B
100
AcDbEntity
  8
0
  6
CONTINUOUS
 62
               4
100
AcDbLine
 10
80.0
 20
-16.239999999999998
 30
0.0
 11
74.0
 21
-16.239999999999998
 31
0.0
  0
LINE
  5
28C
100
AcDbEntity
  8
0
  6
CONTINUOUS
 62
               4
100
AcDbLine
 10
80.0
 20
-17.539999999999999
 30
0.0
 11
74.0
 21
-17.539999999999999
 31
0.0
  0
LINE
  5
28D
100
AcDbEntity
  8
0
  6
CONTINUOUS
 62
               4
100
AcDbLine
 10
80.0
 20
-23.859999999999999
 30
0.0
 11
74.0
 21
-23.859999999999999
 31
0.0
  0
LINE
  5
28E
100
AcDbEntity
  8
0
  6
CONTINUOUS
 62
               4
100
AcDbLine
 10
80.0
 20
-25.16
 30
0.0
 11
74.0
 21
-25.16
 31
0.0
  0
LINE
  5
28F
100
AcDbEntity
  8
0
  6
CONTINUOUS
 62
               4
100
AcDbLine
 10
80.0
 20
-32.780000000000001
 30
0.0
 11
74.0
 21
-32.780000000000001
 31
0.0
  0
LINE
  5
290
100
AcDbEntity
  8
0
  6
CONTINUOUS
 62
               4
100
AcDbLine
 10
80.0
 20
-31.48
 30
0.0
 11
74.0
 21
-31.48
 31
0.0
  0
LINE
  5
291
100
AcDbEntity
  8
0
  6
CONTINUOUS
 62
               4
100
AcDbLine
 10
80.0
 20
-39.100000000000001
 30
0.0
 11
74.0
 21
-39.100000000000001
 31
0.0
  0
LINE
  5
292
100
AcDbEntity
  8
0
  6
CONTINUOUS
 62
               4
100
AcDbLine
 10
75.599999999999994
 20
-31.48
 30
0.0
 11
75.599999999999994
 21
-25.16
 31
0.0
  0
LINE
  5
293
100
AcDbEntity
  8
0
  6
CONTINUOUS
 62
               4
100
AcDbLine
 10
66.599999999999994
 20
33.289999999999999
 30
0.0
 11
66.599999999999994
 21
39.509999999999998
 31
0.0
  0
LINE
  5
294
100
AcDbEntity
  8
0
  6
CONTINUOUS
 62
               4
100
AcDbLine
 10
75.599999999999994
 20
21.859999999999999
 30
0.0
 11
75.599999999999994
 21
28.18
 31
0.0
  0
LINE
  5
295
100
AcDbEntity
  8
0
  6
CONTINUOUS
 62
               4
100
AcDbLine
 10
74.599999999999994
 20
21.859999999999999
 30
0.0
 11
74.599999999999994
 21
28.18
 31
0.0
  0
LINE
  5
296
100
AcDbEntity
  8
0
  6
CONTINUOUS
 62
               4
100
AcDbLine
 10
75.599999999999994
 20
14.24
 30
0.0
 11
75.599999999999994
 21
20.559999999999999
 31
0.0
  0
LINE
  5
297
100
AcDbEntity
  8
0
  6
CONTINUOUS
 62
               4
100
AcDbLine
 10
74.599999999999994
 20
14.24
 30
0.0
 11
74.599999999999994
 21
20.559999999999999
 31
0.0
  0
LINE
  5
298
100
AcDbEntity
  8
0
  6
CONTINUOUS
 62
               4
100
AcDbLine
 10
75.599999999999994
 20
6.6200000000000001
 30
0.0
 11
75.599999999999994
 21
12.94
 31
0.0
  0
LINE
  5
299
100
AcDbEntity
  8
0
  6
CONTINUOUS
 62
               4
100
AcDbLine
 10
74.599999999999994
 20
6.6200000000000001
 30
0.0
 11
74.599999999999994
 21
12.94
 31
0.0
  0
LINE
  5
29A
100
AcDbEntity
  8
0
  6
CONTINUOUS
 62
               4
100
AcDbLine
 10
75.599999999999994
 20
-1.0
 30
0.0
 11
75.599999999999994
 21
5.3200000000000003
 31
0.0
  0
LINE
  5
29B
100
AcDbEntity
  8
0
  6
CONTINUOUS
 62
               4
100
AcDbLine
 10
74.599999999999994
 20
-1.0
 30
0.0
 11
74.599999999999994
 21
5.3200000000000003
 31
0.0
  0
LINE
  5
29C
100
AcDbEntity
  8
0
  6
CONTINUOUS
 62
               4
100
AcDbLine
 10
75.599999999999994
 20
-8.6199999999999992
 30
0.0
 11
75.599999999999994
 21
-2.2999999999999998
 31
0.0
  0
LINE
  5
29D
100
AcDbEntity
  8
0
  6
CONTINUOUS
 62
               4
100
AcDbLine
 10
74.599999999999994
 20
-8.6199999999999992
 30
0.0
 11
74.599999999999994
 21
-2.2999999999999998
 31
0.0
  0
LINE
  5
29E
100
AcDbEntity
  8
0
  6
CONTINUOUS
 62
               4
100
AcDbLine
 10
75.599999999999994
 20
-16.239999999999998
 30
0.0
 11
75.599999999999994
 21
-9.9199999999999999
 31
0.0
  0
LINE
  5
29F
100
AcDbEntity
  8
0
  6
CONTINUOUS
 62
               4
100
AcDbLine
 10
74.599999999999994
 20
-16.239999999999998
 30
0.0
 11
74.599999999999994
 21
-9.9199999999999999
 31
0.0
  0
LINE
  5
2A0
100
AcDbEntity
  8
0
  6
CONTINUOUS
 62
               4
100
AcDbLine
 10
75.599999999999994
 20
-23.859999999999999
 30
0.0
 11
75.599999999999994
 21
-17.539999999999999
 31
0.0
  0
LINE
  5
2A1
100
AcDbEntity
  8
0
  6
CONTINUOUS
 62
               4
100
AcDbLine
 10
74.599999999999994
 20
-23.859999999999999
 30
0.0
 11
74.599999999999994
 21
-17.539999999999999
 31
0.0
  0
LINE
  5
2A2
100
AcDbEntity
  8
0
  6
CONTINUOUS
 62
               4
100
AcDbLine
 10
75.599999999999994
 20
29.48
 30
0.0
 11
75.599999999999994
 21
35.799999999999997
 31
0.0
  0
LINE
  5
2A3
100
AcDbEntity
  8
0
  6
CONTINUOUS
 62
               4
100
AcDbLine
 10
74.599999999999994
 20
29.48
 30
0.0
 11
74.599999999999994
 21
35.799999999999997
 31
0.0
  0
LINE
  5
2A4
100
AcDbEntity
  8
0
  6
CONTINUOUS
 62
               4
100
AcDbLine
 10
76.769999999999996
 20
29.84
 30
0.0
 11
75.599999999999994
 21
29.84
 31
0.0
  0
LINE
  5
2A5
100
AcDbEntity
  8
0
  6
CONTINUOUS
 62
               4
100
AcDbLine
 10
76.769999999999996
 20
35.439999999999998
 30
0.0
 11
75.599999999999994
 21
35.439999999999998
 31
0.0
  0
LINE
  5
2A6
100
AcDbEntity
  8
0
  6
CONTINUOUS
 62
               4
100
AcDbLine
 10
68.469999999999999
 20
33.649999999999999
 30
0.0
 11
67.299999999999997
 21
33.649999999999999
 31
0.0
  0
LINE
  5
2A7
100
AcDbEntity
  8
0
  6
CONTINUOUS
 62
               4
100
AcDbLine
 10
68.469999999999999
 20
39.25
 30
0.0
 11
67.299999999999997
 21
39.25
 31
0.0
  0
LINE
  5
2A8
100
AcDbEntity
  8
0
  6
CONTINUOUS
 62
               4
100
AcDbLine
 10
76.769999999999996
 20
22.219999999999999
 30
0.0
 11
75.599999999999994
 21
22.219999999999999
 31
0.0
  0
LINE
  5
2A9
100
AcDbEntity
  8
0
  6
CONTINUOUS
 62
               4
100
AcDbLine
 10
76.769999999999996
 20
27.82
 30
0.0
 11
75.599999999999994
 21
27.82
 31
0.0
  0
LINE
  5
2AA
100
AcDbEntity
  8
0
  6
CONTINUOUS
 62
               4
100
AcDbLine
 10
68.769999999999996
 20
26.030000000000001
 30
0.0
 11
67.599999999999994
 21
26.030000000000001
 31
0.0
  0
LINE
  5
2AB
100
AcDbEntity
  8
0
  6
CONTINUOUS
 62
               4
100
AcDbLine
 10
68.769999999999996
 20
31.629999999999999
 30
0.0
 11
67.599999999999994
 21
31.629999999999999
 31
0.0
  0
LINE
  5
2AC
100
AcDbEntity
  8
0
  6
CONTINUOUS
 62
               4
100
AcDbLine
 10
76.769999999999996
 20
14.6
 30
0.0
 11
75.599999999999994
 21
14.6
 31
0.0
  0
LINE
  5
2AD
100
AcDbEntity
  8
0
  6
CONTINUOUS
 62
               4
100
AcDbLine
 10
76.769999999999996
 20
20.199999999999999
 30
0.0
 11
75.599999999999994
 21
20.199999999999999
 31
0.0
  0
LINE
  5
2AE
100
AcDbEntity
  8
0
  6
CONTINUOUS
 62
               4
100
AcDbLine
 10
68.769999999999996
 20
18.41
 30
0.0
 11
67.599999999999994
 21
18.41
 31
0.0
  0
LINE
  5
2AF
100
AcDbEntity
  8
0
  6
CONTINUOUS
 62
               4
100
AcDbLine
 10
68.769999999999996
 20
24.010000000000002
 30
0.0
 11
67.599999999999994
 21
24.010000000000002
 31
0.0
  0
LINE
  5
2B0
100
AcDbEntity
  8
0
  6
CONTINUOUS
 62
               4
100
AcDbLine
 10
68.769999999999996
 20
10.789999999999999
 30
0.0
 11
67.599999999999994
 21
10.789999999999999
 31
0.0
  0
LINE
  5
2B1
100
AcDbEntity
  8
0
  6
CONTINUOUS
 62
               4
100
AcDbLine
 10
68.769999999999996
 20
16.390000000000001
 30
0.0
 11
67.599999999999994
 21
16.390000000000001
 31
0.0
  0
LINE
  5
2B2
100
AcDbEntity
  8
0
  6
CONTINUOUS
 62
               4
100
AcDbLine
 10
76.769999999999996
 20
6.9800000000000004
 30
0.0
 11
75.599999999999994
 21
6.9800000000000004
 31
0.0
  0
LINE
  5
2B3
100
AcDbEntity
  8
0
  6
CONTINUOUS
 62
               4
100
AcDbLine
 10
76.769999999999996
 20
12.58
 30
0.0
 11
75.599999999999994
 21
12.58
 31
0.0
  0
LINE
  5
2B4
100
AcDbEntity
  8
0
  6
CONTINUOUS
 62
               4
100
AcDbLine
 10
76.769999999999996
 20
-0.64
 30
0.0
 11
75.599999999999994
 21
-0.64
 31
0.0
  0
LINE
  5
2B5
100
AcDbEntity
  8
0
  6
CONTINUOUS
 62
               4
100
AcDbLine
 10
76.769999999999996
 20
4.96
 30
0.0
 11
75.599999999999994
 21
4.96
 31
0.0
  0
LINE
  5
2B6
100
AcDbEntity
  8
0
  6
CONTINUOUS
 62
               4
100
AcDbLine
 10
68.769999999999996
 20
3.1699999999999999
 30
0.0
 11
67.599999999999994
 21
3.1699999999999999
 31
0.0
  0
LINE
  5
2B7
100
AcDbEntity
  8
0
  6
CONTINUOUS
 62
               4
100
AcDbLine
 10
68.769999999999996
 20
8.7699999999999996
 30
0.0
 11
67.599999999999994
 21
8.7699999999999996
 31
0.0
  0
LINE
  5
2B8
100
AcDbEntity
  8
0
  6
CONTINUOUS
 62
               4
100
AcDbLine
 10
68.769999999999996
 20
-4.4500000000000002
 30
0.0
 11
67.599999999999994
 21
-4.4500000000000002
 31
0.0
  0
LINE
  5
2B9
100
AcDbEntity
  8
0
  6
CONTINUOUS
 62
               4
100
AcDbLine
 10
68.769999999999996
 20
1.1499999999999999
 30
0.0
 11
67.599999999999994
 21
1.1499999999999999
 31
0.0
  0
LINE
  5
2BA
100
AcDbEntity
  8
0
  6
CONTINUOUS
 62
               4
100
AcDbLine
 10
76.769999999999996
 20
-8.2599999999999998
 30
0.0
 11
75.599999999999994
 21
-8.2599999999999998
 31
0.0
  0
LINE
  5
2BB
100
AcDbEntity
  8
0
  6
CONTINUOUS
 62
               4
100
AcDbLine
 10
76.769999999999996
 20
-2.6600000000000001
 30
0.0
 11
75.599999999999994
 21
-2.6600000000000001
 31
0.0
  0
LINE
  5
2BC
100
AcDbEntity
  8
0
  6
CONTINUOUS
 62
               4
100
AcDbLine
 10
76.769999999999996
 20
-15.880000000000001
 30
0.0
 11
75.599999999999994
 21
-15.880000000000001
 31
0.0
  0
LINE
  5
2BD
100
AcDbEntity
  8
0
  6
CONTINUOUS
 62
               4
100
AcDbLine
 10
76.769999999999996
 20
-10.279999999999999
 30
0.0
 11
75.599999999999994
 21
-10.279999999999999
 31
0.0
  0
LINE
  5
2BE
100
AcDbEntity
  8
0
  6
CONTINUOUS
 62
               4
100
AcDbLine
 10
68.769999999999996
 20
-12.07
 30
0.0
 11
67.599999999999994
 21
-12.07
 31
0.0
  0
LINE
  5
2BF
100
AcDbEntity
  8
0
  6
CONTINUOUS
 62
               4
100
AcDbLine
 10
68.769999999999996
 20
-6.4699999999999998
 30
0.0
 11
67.599999999999994
 21
-6.4699999999999998
 31
0.0
  0
LINE
  5
2C0
100
AcDbEntity
  8
0
  6
CONTINUOUS
 62
               4
100
AcDbLine
 10
68.769999999999996
 20
-19.690000000000001
 30
0.0
 11
67.599999999999994
 21
-19.690000000000001
 31
0.0
  0
LINE
  5
2C1
100
AcDbEntity
  8
0
  6
CONTINUOUS
 62
               4
100
AcDbLine
 10
68.769999999999996
 20
-14.09
 30
0.0
 11
67.599999999999994
 21
-14.09
 31
0.0
  0
LINE
  5
2C2
100
AcDbEntity
  8
0
  6
CONTINUOUS
 62
               4
100
AcDbLine
 10
76.769999999999996
 20
-23.5
 30
0.0
 11
75.599999999999994
 21
-23.5
 31
0.0
  0
LINE
  5
2C3
100
AcDbEntity
  8
0
  6
CONTINUOUS
 62
               4
100
AcDbLine
 10
76.769999999999996
 20
-17.899999999999999
 30
0.0
 11
75.599999999999994
 21
-17.899999999999999
 31
0.0
  0
LINE
  5
2C4
100
AcDbEntity
  8
0
  6
CONTINUOUS
 62
               4
100
AcDbLine
 10
68.769999999999996
 20
-27.309999999999999
 30
0.0
 11
67.599999999999994
 21
-27.309999999999999
 31
0.0
  0
LINE
  5
2C5
100
AcDbEntity
  8
0
  6
CONTINUOUS
 62
               4
100
AcDbLine
 10
68.769999999999996
 20
-21.710000000000001
 30
0.0
 11
67.599999999999994
 21
-21.710000000000001
 31
0.0
  0
LINE
  5
2C6
100
AcDbEntity
  8
0
  6
CONTINUOUS
 62
               4
100
AcDbLine
 10
76.769999999999996
 20
-31.120000000000001
 30
0.0
 11
75.599999999999994
 21
-31.120000000000001
 31
0.0
  0
LINE
  5
2C7
100
AcDbEntity
  8
0
  6
CONTINUOUS
 62
               4
100
AcDbLine
 10
76.769999999999996
 20
-25.52
 30
0.0
 11
75.599999999999994
 21
-25.52
 31
0.0
  0
LINE
  5
2C8
100
AcDbEntity
  8
0
  6
CONTINUOUS
 62
               4
100
AcDbLine
 10
68.769999999999996
 20
-34.93
 30
0.0
 11
67.599999999999994
 21
-34.93
 31
0.0
  0
LINE
  5
2C9
100
AcDbEntity
  8
0
  6
CONTINUOUS
 62
               4
100
AcDbLine
 10
68.769999999999996
 20
-29.329999999999998
 30
0.0
 11
67.599999999999994
 21
-29.329999999999998
 31
0.0
  0
LINE
  5
2CA
100
AcDbEntity
  8
0
  6
CONTINUOUS
 62
               4
100
AcDbLine
 10
76.769999999999996
 20
-38.740000000000002
 30
0.0
 11
75.599999999999994
 21
-38.740000000000002
 31
0.0
  0
LINE
  5
2CB
100
AcDbEntity
  8
0
  6
CONTINUOUS
 62
               4
100
AcDbLine
 10
76.769999999999996
 20
-33.140000000000001
 30
0.0
 11
75.599999999999994
 21
-33.140000000000001
 31
0.0
  0
LINE
  5
2CC
100
AcDbEntity
  8
0
  6
CONTINUOUS
 62
               4
100
AcDbLine
 10
68.469999999999999
 20
-42.549999999999997
 30
0.0
 11
67.299999999999997
 21
-42.549999999999997
 31
0.0
  0
LINE
  5
2CD
100
AcDbEntity
  8
0
  6
CONTINUOUS
 62
               4
100
AcDbLine
 10
68.469999999999999
 20
-36.950000000000003
 30
0.0
 11
67.299999999999997
 21
-36.950000000000003
 31
0.0
  0
LINE
  5
2CE
100
AcDbEntity
  8
0
  6
CONTINUOUS
 62
               4
100
AcDbLine
 10
67.299999999999997
 20
-42.700000000000003
 30
0.0
 11
66.599999999999994
 21
-42.700000000000003
 31
0.0
  0
LINE
  5
2CF
100
AcDbEntity
  8
0
  6
CONTINUOUS
 62
               4
100
AcDbLine
 10
67.299999999999997
 20
-42.700000000000003
 30
0.0
 11
67.299999999999997
 21
-36.799999999999997
 31
0.0
  0
LINE
  5
2D0
100
AcDbEntity
  8
0
  6
CONTINUOUS
 62
               4
100
AcDbLine
 10
67.299999999999997
 20
-36.799999999999997
 30
0.0
 11
66.599999999999994
 21
-36.799999999999997
 31
0.0
  0
LINE
  5
2D1
100
AcDbEntity
  8
0
  6
CONTINUOUS
 62
               4
100
AcDbLine
 10
67.299999999999997
 20
33.5
 30
0.0
 11
66.599999999999994
 21
33.5
 31
0.0
  0
LINE
  5
2D2
100
AcDbEntity
  8
0
  6
CONTINUOUS
 62
               4
100
AcDbLine
 10
67.299999999999997
 20
33.5
 30
0.0
 11
67.299999999999997
 21
39.399999999999999
 31
0.0
  0
LINE
  5
2D3
100
AcDbEntity
  8
0
  6
CONTINUOUS
 62
               4
100
AcDbLine
 10
67.299999999999997
 20
39.399999999999999
 30
0.0
 11
66.599999999999994
 21
39.399999999999999
 31
0.0
  0
LINE
  5
2D4
100
AcDbEntity
  8
0
  6
CONTINUOUS
 62
               4
100
AcDbLine
 10
83.0
 20
39.509999999999998
 30
0.0
 11
83.0
 21
40.450000000000003
 31
0.0
  0
LINE
  5
2D5
100
AcDbEntity
  8
0
  6
CONTINUOUS
 62
               4
100
AcDbLine
 10
81.299999999999997
 20
-42.810000000000002
 30
0.0
 11
81.299999999999997
 21
39.509999999999998
 31
0.0
  0
LINE
  5
2D6
100
AcDbEntity
  8
0
  6
CONTINUOUS
 62
               4
100
AcDbLine
 10
83.0
 20
40.450000000000003
 30
0.0
 11
66.799999999999997
 21
40.450000000000003
 31
0.0
  0
LINE
  5
2D7
100
AcDbEntity
  8
0
  6
CONTINUOUS
 62
               4
100
AcDbLine
 10
81.299999999999997
 20
40.950000000000003
 30
0.0
 11
81.299999999999997
 21
40.450000000000003
 31
0.0
  0
LINE
  5
2D8
100
AcDbEntity
  8
0
  6
CONTINUOUS
 62
               4
100
AcDbLine
 10
81.299999999999997
 20
40.950000000000003
 30
0.0
 11
80.0
 21
40.950000000000003
 31
0.0
  0
LINE
  5
2D9
100
AcDbEntity
  8
0
  6
CONTINUOUS
 62
               4
100
AcDbLine
 10
80.0
 20
40.950000000000003
 30
0.0
 11
80.0
 21
40.450000000000003
 31
0.0
  0
LINE
  5
2DA
100
AcDbEntity
  8
0
  6
CONTINUOUS
 62
               4
100
AcDbLine
 10
83.0
 20
-42.810000000000002
 30
0.0
 11
83.0
 21
-43.75
 31
0.0
  0
LINE
  5
2DB
100
AcDbEntity
  8
0
  6
CONTINUOUS
 62
               4
100
AcDbLine
 10
83.0
 20
-43.75
 30
0.0
 11
66.799999999999997
 21
-43.75
 31
0.0
  0
LINE
  5
2DC
100
AcDbEntity
  8
0
  6
CONTINUOUS
 62
               4
100
AcDbLine
 10
66.0
 20
39.509999999999998
 30
0.0
 11
59.0
 21
39.509999999999998
 31
0.0
  0
LINE
  5
2DD
100
AcDbEntity
  8
0
  6
CONTINUOUS
 62
               4
100
AcDbLine
 10
66.0
 20
-42.810000000000002
 30
0.0
 11
59.0
 21
-42.810000000000002
 31
0.0
  0
LINE
  5
2DE
100
AcDbEntity
  8
0
  6
CONTINUOUS
 62
               4
100
AcDbLine
 10
59.0
 20
59.899999999999999
 30
0.0
 11
59.0
 21
48.899999999999999
 31
0.0
  0
LINE
  5
2DF
100
AcDbEntity
  8
0
  6
CONTINUOUS
 62
               4
100
AcDbLine
 10
47.5
 20
-44.600000000000001
 30
0.0
 11
59.0
 21
-44.600000000000001
 31
0.0
  0
LINE
  5
2E0
100
AcDbEntity
  8
0
  6
CONTINUOUS
 62
               4
100
AcDbLine
 10
49.0
 20
48.399999999999999
 30
0.0
 11
59.0
 21
48.399999999999999
 31
0.0
  0
LINE
  5
2E1
100
AcDbEntity
  8
0
  6
CONTINUOUS
 62
               4
100
AcDbLine
 10
49.0
 20
48.899999999999999
 30
0.0
 11
59.0
 21
48.899999999999999
 31
0.0
  0
LINE
  5
2E2
100
AcDbEntity
  8
0
  6
CONTINUOUS
 62
               4
100
AcDbLine
 10
59.0
 20
48.399999999999999
 30
0.0
 11
59.0
 21
-44.600000000000001
 31
0.0
  0
LINE
  5
2E3
100
AcDbEntity
  8
0
  6
CONTINUOUS
 62
               4
100
AcDbLine
 10
49.0
 20
60.399999999999999
 30
0.0
 11
58.5
 21
60.399999999999999
 31
0.0
  0
ARC
  5
2E4
100
AcDbEntity
  8
0
  6
CONTINUOUS
 62
               4
100
AcDbCircle
 10
72.999997782735207
 20
-35.935000000000002
 30
0.0
 40
4.9998744274440146
100
AcDbArc
 50
330.46123026721079
 51
29.538769732788488
  0
ARC
  5
2E5
100
AcDbEntity
  8
0
  6
CONTINUOUS
 62
               4
100
AcDbCircle
 10
66.799995422399661
 20
-42.950004577600339
 30
0.0
 40
0.7999954224127577
100
AcDbArc
 50
179.99967215164921
 51
270.0003278483498
  0
ARC
  5
2E6
100
AcDbEntity
  8
0
  6
CONTINUOUS
 62
               4
100
AcDbCircle
 10
66.800012207403782
 20
39.649987792596221
 30
0.0
 40
0.8000122074969169
100
AcDbArc
 50
90.000874277553507
 51
179.99912572244642
  0
ARC
  5
2E7
100
AcDbEntity
  8
0
  6
CONTINUOUS
 62
               4
100
AcDbCircle
 10
76.773893916243466
 20
-33.807853116905413
 30
0.0
 40
0.6678644685443224
100
AcDbArc
 50
30.389173482842491
 51
90.334059140854478
  0
ARC
  5
2E8
100
AcDbEntity
  8
0
  6
CONTINUOUS
 62
               4
100
AcDbCircle
 10
76.7696224854907
 20
-38.074650122307673
 30
0.0
 40
0.6653499847917659
100
AcDbArc
 50
270.03250919026402
 51
330.7257428324715
  0
ARC
  5
2E9
100
AcDbEntity
  8
0
  6
CONTINUOUS
 62
               4
100
AcDbCircle
 10
68.77389286869689
 20
-29.997854958047888
 30
0.0
 40
0.6678663035487288
100
AcDbArc
 50
30.389264270511408
 51
90.333968353186137
  0
ARC
  5
2EA
100
AcDbEntity
  8
0
  6
CONTINUOUS
 62
               4
100
AcDbCircle
 10
64.700009991907351
 20
-39.745000000000005
 30
0.0
 40
4.9998638051956803
100
AcDbArc
 50
330.46116128954378
 51
29.538838710455543
  0
ARC
  5
2EB
100
AcDbEntity
  8
0
  6
CONTINUOUS
 62
               4
100
AcDbCircle
 10
68.473890461768107
 20
-37.617859188407564
 30
0.0
 40
0.6678705198114232
100
AcDbArc
 50
30.389472869801178
 51
90.333759753895663
  0
ARC
  5
2EC
100
AcDbEntity
  8
0
  6
CONTINUOUS
 62
               4
100
AcDbCircle
 10
68.469616761979751
 20
-41.884640358671348
 30
0.0
 40
0.6653597516985557
100
AcDbArc
 50
270.03300157887043
 51
330.72525044386526
  0
ARC
  5
2ED
100
AcDbEntity
  8
0
  6
CONTINUOUS
 62
               4
100
AcDbCircle
 10
72.999997865060379
 20
32.635000000000005
 30
0.0
 40
4.9998743558192764
100
AcDbArc
 50
330.46122980210254
 51
29.538770197896621
  0
ARC
  5
2EE
100
AcDbEntity
  8
0
  6
CONTINUOUS
 62
               4
100
AcDbCircle
 10
76.773900816192537
 20
30.507840989722212
 30
0.0
 40
0.6678523818330728
100
AcDbArc
 50
269.66534284912723
 51
329.61142452717337
  0
ARC
  5
2EF
100
AcDbEntity
  8
0
  6
CONTINUOUS
 62
               4
100
AcDbCircle
 10
76.769600050694805
 20
34.774611851185234
 30
0.0
 40
0.6653882690148479
100
AcDbArc
 50
29.276187130544304
 51
89.965560846721061
  0
ARC
  5
2F0
100
AcDbEntity
  8
0
  6
CONTINUOUS
 62
               4
100
AcDbCircle
 10
64.70001002128356
 20
36.444999999999993
 30
0.0
 40
4.999863779637745
100
AcDbArc
 50
330.46116112357782
 51
29.538838876421465
  0
ARC
  5
2F1
100
AcDbEntity
  8
0
  6
CONTINUOUS
 62
               4
100
AcDbCircle
 10
68.473897361243601
 20
34.317847062056686
 30
0.0
 40
0.6678584338932988
100
AcDbArc
 50
269.66564228796693
 51
329.61112508833509
  0
ARC
  5
2F2
100
AcDbEntity
  8
0
  6
CONTINUOUS
 62
               4
100
AcDbCircle
 10
68.469594327093446
 20
38.584602087394721
 30
0.0
 40
0.6653980362684924
100
AcDbArc
 50
29.276679470264909
 51
89.965068506996715
  0
ARC
  5
2F3
100
AcDbEntity
  8
0
  6
CONTINUOUS
 62
               4
100
AcDbCircle
 10
72.999997860849447
 20
25.015000000000001
 30
0.0
 40
4.9998743594828756
100
AcDbArc
 50
330.46122982589281
 51
29.538770174106379
  0
ARC
  5
2F4
100
AcDbEntity
  8
0
  6
CONTINUOUS
 62
               4
100
AcDbCircle
 10
76.773906224845263
 20
22.887831483605307
 30
0.0
 40
0.6678429074917318
100
AcDbArc
 50
269.66487407277828
 51
329.6118933035217
  0
ARC
  5
2F5
100
AcDbEntity
  8
0
  6
CONTINUOUS
 62
               4
100
AcDbCircle
 10
76.769602185137927
 20
27.154615492294113
 30
0.0
 40
0.6653846266270869
100
AcDbArc
 50
29.276003523709957
 51
89.965744453553555
  0
ARC
  5
2F6
100
AcDbEntity
  8
0
  6
CONTINUOUS
 62
               4
100
AcDbCircle
 10
64.999997862955439
 20
28.824999999999999
 30
0.0
 40
4.9998743576506239
100
AcDbArc
 50
330.46122981399469
 51
29.538770186004502
  0
ARC
  5
2F7
100
AcDbEntity
  8
0
  6
CONTINUOUS
 62
               4
100
AcDbCircle
 10
68.773899768679499
 20
26.697842830805737
 30
0.0
 40
0.6678542167676794
100
AcDbArc
 50
269.66543363717506
 51
329.61133373912514
  0
ARC
  5
2F8
100
AcDbEntity
  8
0
  6
CONTINUOUS
 62
               4
100
AcDbCircle
 10
68.769601117916864
 20
30.964613671740526
 30
0.0
 40
0.6653864478192662
100
AcDbArc
 50
29.27609532733517
 51
89.965652649928828
  0
ARC
  5
2F9
100
AcDbEntity
  8
0
  6
CONTINUOUS
 62
               4
100
AcDbCircle
 10
72.99999785663438
 20
17.395
 30
0.0
 40
4.9998743631500835
100
AcDbArc
 50
330.46122984970646
 51
29.538770150292777
  0
ARC
  5
2FA
100
AcDbEntity
  8
0
  6
CONTINUOUS
 62
               4
100
AcDbCircle
 10
76.773900856215789
 20
15.267840919378322
 30
0.0
 40
0.6678523117241545
100
AcDbArc
 50
269.66533938029852
 51
329.61142799600128
  0
ARC
  5
2FB
100
AcDbEntity
  8
0
  6
CONTINUOUS
 62
               4
100
AcDbCircle
 10
76.769612079949269
 20
19.534632371678153
 30
0.0
 40
0.6653677414036594
100
AcDbArc
 50
29.275152336344949
 51
89.966595640919479
  0
ARC
  5
2FC
100
AcDbEntity
  8
0
  6
CONTINUOUS
 62
               4
100
AcDbCircle
 10
64.999997858742432
 20
21.204999999999998
 30
0.0
 40
4.9998743613160288
100
AcDbArc
 50
330.46122983779668
 51
29.538770162202553
  0
ARC
  5
2FD
100
AcDbEntity
  8
0
  6
CONTINUOUS
 62
               4
100
AcDbCircle
 10
68.773905177309743
 20
19.077833324728335
 30
0.0
 40
0.6678447424570506
100
AcDbArc
 50
269.6649648653505
 51
329.61180251094976
  0
ARC
  5
2FE
100
AcDbEntity
  8
0
  6
CONTINUOUS
 62
               4
100
AcDbCircle
 10
68.76960325235801
 20
23.344617312846015
 30
0.0
 40
0.6653828054383095
100
AcDbArc
 50
29.275911719667395
 51
89.965836257596507
  0
ARC
  5
2FF
100
AcDbEntity
  8
0
  6
CONTINUOUS
 62
               4
100
AcDbCircle
 10
64.999997847927688
 20
13.585000000000001
 30
0.0
 40
4.9998743707251005
100
AcDbArc
 50
330.46122989889619
 51
29.538770101103029
  0
ARC
  5
300
100
AcDbEntity
  8
0
  6
CONTINUOUS
 62
               4
100
AcDbCircle
 10
68.773899808675438
 20
11.457842760509831
 30
0.0
 40
0.6678541467065225
100
AcDbArc
 50
269.66543017073263
 51
329.61133720556853
  0
ARC
  5
301
100
AcDbEntity
  8
0
  6
CONTINUOUS
 62
               4
100
AcDbCircle
 10
68.769616482305238
 20
15.72463988157951
 30
0.0
 40
0.6653602289514677
100
AcDbArc
 50
29.274773615917326
 51
89.966974361347496
  0
ARC
  5
302
100
AcDbEntity
  8
0
  6
CONTINUOUS
 62
               4
100
AcDbCircle
 10
72.99999784581432
 20
9.7750000000000004
 30
0.0
 40
4.99987437256378
100
AcDbArc
 50
330.46122991083598
 51
29.538770089163229
  0
ARC
  5
303
100
AcDbEntity
  8
0
  6
CONTINUOUS
 62
               4
100
AcDbCircle
 10
76.773898761134163
 20
7.647844601642996
 30
0.0
 40
0.6678559816922161
100
AcDbArc
 50
269.66552096074781
 51
329.61124641555222
  0
ARC
  5
304
100
AcDbEntity
  8
0
  6
CONTINUOUS
 62
               4
100
AcDbCircle
 10
76.769617549540499
 20
11.91464170215732
 30
0.0
 40
0.6653584077596533
100
AcDbArc
 50
29.274681803834895
 51
89.967066173428833
  0
ARC
  5
305
100
AcDbEntity
  8
0
  6
CONTINUOUS
 62
               4
100
AcDbCircle
 10
72.999999999967812
 20
2.1600000000000001
 30
0.0
 40
4.9974093288703116
100
AcDbArc
 50
330.51109218790833
 51
29.488907812090901
  0
ARC
  5
306
100
AcDbEntity
  8
0
  6
CONTINUOUS
 62
               4
100
AcDbCircle
 10
76.769636492801354
 20
0.0253259828682705
 30
0.0
 40
0.6653260821710763
100
AcDbArc
 50
270.03130409268289
 51
330.72694793005252
  0
ARC
  5
307
100
AcDbEntity
  8
0
  6
CONTINUOUS
 62
               4
100
AcDbCircle
 10
76.769619684008063
 20
4.2946453433078622
 30
0.0
 40
0.6653547653862308
100
AcDbArc
 50
29.274498178419357
 51
89.967249798845046
  0
ARC
  5
308
100
AcDbEntity
  8
0
  6
CONTINUOUS
 62
               4
100
AcDbCircle
 10
64.999997843699902
 20
5.9649999999999999
 30
0.0
 40
4.9998743744033618
100
AcDbArc
 50
330.46122992278174
 51
29.538770077217524
  0
ARC
  5
309
100
AcDbEntity
  8
0
  6
CONTINUOUS
 62
               4
100
AcDbCircle
 10
68.773923901865047
 20
3.8378004149038616
 30
0.0
 40
0.6678119429537154
100
AcDbArc
 50
269.66334188518863
 51
329.61342549111185
  0
ARC
  5
30A
100
AcDbEntity
  8
0
  6
CONTINUOUS
 62
               4
100
AcDbCircle
 10
68.769618616774778
 20
8.1046435227334381
 30
0.0
 40
0.6653565865712408
100
AcDbArc
 50
29.274589991335731
 51
89.967157985928424
  0
ARC
  5
30B
100
AcDbEntity
  8
0
  6
CONTINUOUS
 62
               4
100
AcDbCircle
 10
64.999999999975472
 20
-1.6500000000000001
 30
0.0
 40
4.9974093288636467
100
AcDbArc
 50
330.51109218786513
 51
29.488907812134105
  0
ARC
  5
30C
100
AcDbEntity
  8
0
  6
CONTINUOUS
 62
               4
100
AcDbCircle
 10
68.769600984514156
 20
-3.7846134441712076
 30
0.0
 40
0.6653866754685287
100
AcDbArc
 50
270.03435882549451
 51
330.72389319724022
  0
ARC
  5
30D
100
AcDbEntity
  8
0
  6
CONTINUOUS
 62
               4
100
AcDbCircle
 10
68.769620751240353
 20
0.4846471638805933
 30
0.0
 40
0.6653529442046227
100
AcDbArc
 50
29.274406365085614
 51
89.967341612178728
  0
ARC
  5
30E
100
AcDbEntity
  8
0
  6
CONTINUOUS
 62
               4
100
AcDbCircle
 10
72.999997812391911
 20
-5.4550000000000001
 30
0.0
 40
4.9998744016420158
100
AcDbArc
 50
330.46123009966084
 51
29.53876990033838
  0
ARC
  5
30F
100
AcDbEntity
  8
0
  6
CONTINUOUS
 62
               4
100
AcDbCircle
 10
76.769626597548893
 20
-7.5946571369951705
 30
0.0
 40
0.6653429677849259
100
AcDbArc
 50
270.03215542459543
 51
330.72609659813935
  0
ARC
  5
310
100
AcDbEntity
  8
0
  6
CONTINUOUS
 62
               4
100
AcDbCircle
 10
76.773882262234721
 20
-3.327873599708667
 30
0.0
 40
0.6678848831556765
100
AcDbArc
 50
30.390183472157055
 51
90.333049151540251
  0
ARC
  5
311
100
AcDbEntity
  8
0
  6
CONTINUOUS
 62
               4
100
AcDbCircle
 10
72.999997816650293
 20
-13.074999999999999
 30
0.0
 40
4.9998743979371341
100
AcDbArc
 50
330.46123007560243
 51
29.538769924396757
  0
ARC
  5
312
100
AcDbEntity
  8
0
  6
CONTINUOUS
 62
               4
100
AcDbCircle
 10
76.76962446315116
 20
-15.214653495963756
 30
0.0
 40
0.6653466100170483
100
AcDbArc
 50
270.03233905051593
 51
330.7259129722197
  0
ARC
  5
313
100
AcDbEntity
  8
0
  6
CONTINUOUS
 62
               4
100
AcDbCircle
 10
76.773876854096116
 20
-10.947883104921978
 30
0.0
 40
0.6678943567944735
100
AcDbArc
 50
30.390652145031222
 51
90.332580478666458
  0
ARC
  5
314
100
AcDbEntity
  8
0
  6
CONTINUOUS
 62
               4
100
AcDbCircle
 10
64.99999781452162
 20
-9.2650000000000006
 30
0.0
 40
4.9998743997891237
100
AcDbArc
 50
330.46123008762873
 51
29.538769912370494
  0
ARC
  5
315
100
AcDbEntity
  8
0
  6
CONTINUOUS
 62
               4
100
AcDbCircle
 10
68.769625530350524
 20
-11.40465531648031
 30
0.0
 40
0.6653447888992862
100
AcDbArc
 50
270.03224723776424
 51
330.72600478497088
  0
ARC
  5
316
100
AcDbEntity
  8
0
  6
CONTINUOUS
 62
               4
100
AcDbCircle
 10
68.773875806561534
 20
-7.1378849460433642
 30
0.0
 40
0.6678961918051718
100
AcDbArc
 50
30.390742923534869
 51
90.332489700162796
  0
ARC
  5
317
100
AcDbEntity
  8
0
  6
CONTINUOUS
 62
               4
100
AcDbCircle
 10
64.999997825420081
 20
-16.885000000000002
 30
0.0
 40
4.9998743903072143
100
AcDbArc
 50
330.46123002605628
 51
29.53876997394298
  0
ARC
  5
318
100
AcDbEntity
  8
0
  6
CONTINUOUS
 62
               4
100
AcDbCircle
 10
68.769620060943325
 20
-19.024645986315072
 30
0.0
 40
0.6653541221637795
100
AcDbArc
 50
270.03271777370418
 51
330.72553424902958
  0
ARC
  5
319
100
AcDbEntity
  8
0
  6
CONTINUOUS
 62
               4
100
AcDbCircle
 10
68.77387790162976
 20
-14.757881263802243
 30
0.0
 40
0.6678925217871008
100
AcDbArc
 50
30.390561366110223
 51
90.332671257587663
  0
ARC
  5
31A
100
AcDbEntity
  8
0
  6
CONTINUOUS
 62
               4
100
AcDbCircle
 10
72.999997827543439
 20
-20.695
 30
0.0
 40
4.9998743884598493
100
AcDbArc
 50
330.46123001406005
 51
29.538769985939165
  0
ARC
  5
31B
100
AcDbEntity
  8
0
  6
CONTINUOUS
 62
               4
100
AcDbCircle
 10
76.769618993738874
 20
-22.834644165789836
 30
0.0
 40
0.6653559432989766
100
AcDbArc
 50
270.03280958431782
 51
330.72544243841634
  0
ARC
  5
31C
100
AcDbEntity
  8
0
  6
CONTINUOUS
 62
               4
100
AcDbCircle
 10
76.773882222696074
 20
-18.567873669200839
 30
0.0
 40
0.6678849524168502
100
AcDbArc
 50
30.390186898650938
 51
90.333045725046588
  0
ARC
  5
31D
100
AcDbEntity
  8
0
  6
CONTINUOUS
 62
               4
100
AcDbCircle
 10
64.999997829665759
 20
-24.504999999999999
 30
0.0
 40
4.9998743866133868
100
AcDbArc
 50
330.46123000206967
 51
29.538769997929553
  0
ARC
  5
31E
100
AcDbEntity
  8
0
  6
CONTINUOUS
 62
               4
100
AcDbCircle
 10
68.769617926533428
 20
-26.644642345262916
 30
0.0
 40
0.6653577644375758
100
AcDbArc
 50
270.0329013945144
 51
330.72535062822118
  0
ARC
  5
31F
100
AcDbEntity
  8
0
  6
CONTINUOUS
 62
               4
100
AcDbCircle
 10
68.773883270224886
 20
-22.377871828089592
 30
0.0
 40
0.6678831174265243
100
AcDbArc
 50
30.390096117591956
 51
90.333136506105546
  0
ARC
  5
320
100
AcDbEntity
  8
0
  6
CONTINUOUS
 62
               4
100
AcDbCircle
 10
72.999997831787027
 20
-28.315000000000001
 30
0.0
 40
4.9998743847678266
100
AcDbArc
 50
330.4612299900852
 51
29.538770009913982
  0
ARC
  5
321
100
AcDbEntity
  8
0
  6
CONTINUOUS
 62
               4
100
AcDbCircle
 10
76.769624619949084
 20
-30.454653763442554
 30
0.0
 40
0.6653463424498123
100
AcDbArc
 50
270.0323255609884
 51
330.72592646174621
  0
ARC
  5
322
100
AcDbEntity
  8
0
  6
CONTINUOUS
 62
               4
100
AcDbCircle
 10
76.773891821149363
 20
-26.187856799192023
 30
0.0
 40
0.66786813855646
100
AcDbArc
 50
30.389355057762881
 51
90.333877565934174
  0
ARC
  5
323
100
AcDbEntity
  8
0
  6
CONTINUOUS
 62
               4
100
AcDbCircle
 10
64.999997833907273
 20
-32.125
 30
0.0
 40
4.9998743829231689
100
AcDbArc
 50
330.46122997810659
 51
29.538770021892613
  0
ARC
  5
324
100
AcDbEntity
  8
0
  6
CONTINUOUS
 62
               4
100
AcDbCircle
 10
68.76962355272039
 20
-34.264651942875958
 30
0.0
 40
0.665348163619088
100
AcDbArc
 50
270.03241737583471
 51
330.72583464689967
  0
ARC
  5
325
100
AcDbEntity
  8
0
  6
CONTINUOUS
 62
               4
100
AcDbCircle
 10
58.499981689117853
 20
59.899981689117851
 30
0.0
 40
0.5000183112174266
100
AcDbArc
 50
0.0020981956918526
 51
89.997901804307958
  0
ENDBLK
  5
326
100
AcDbEntity
  8
0
100
AcDbBlockEnd
  0
BLOCK
  5
327
100
AcDbEntity
  8
0
100
AcDbBlockBegin
  2
F15_CONNECTER-7
 70
               0
 10
0.0
 20
0.0
 30
0.0
  3
F15_CONNECTER-7
  1

  0
LINE
  5
328
100
AcDbEntity
  8
0
  6
CONTINUOUS
 62
               4
100
AcDbLine
 10
42.0
 20
59.0
 30
0.0
 11
42.0
 21
3.0
 31
0.0
  0
LINE
  5
329
100
AcDbEntity
  8
0
  6
CONTINUOUS
 62
               7
100
AcDbLine
 10
0.0
 20
0.0
 30
0.0
 11
42.5
 21
0.0
 31
0.0
  0
LINE
  5
32A
100
AcDbEntity
  8
0
  6
CONTINUOUS
 62
               4
100
AcDbLine
 10
0.0
 20
59.0
 30
0.0
 11
0.0
 21
3.0
 31
0.0
  0
LINE
  5
32B
100
AcDbEntity
  8
0
  6
CONTINUOUS
 62
               4
100
AcDbLine
 10
0.0
 20
59.0
 30
0.0
 11
42.0
 21
59.0
 31
0.0
  0
LINE
  5
32C
100
AcDbEntity
  8
0
  6
CONTINUOUS
 62
               4
100
AcDbLine
 10
16.0
 20
82.0
 30
0.0
 11
16.0
 21
59.0
 31
0.0
  0
LINE
  5
32D
100
AcDbEntity
  8
0
  6
CONTINUOUS
 62
               4
100
AcDbLine
 10
26.0
 20
80.0
 30
0.0
 11
35.0
 21
80.0
 31
0.0
  0
LINE
  5
32E
100
AcDbEntity
  8
0
  6
CONTINUOUS
 62
               4
100
AcDbLine
 10
35.0
 20
81.299999999999997
 30
0.0
 11
35.0
 21
59.0
 31
0.0
  0
LINE
  5
32F
100
AcDbEntity
  8
0
  6
CONTINUOUS
 62
               4
100
AcDbLine
 10
17.0
 20
83.0
 30
0.0
 11
25.0
 21
83.0
 31
0.0
  0
LINE
  5
330
100
AcDbEntity
  8
0
  6
CONTINUOUS
 62
               4
100
AcDbLine
 10
23.5
 20
81.299999999999997
 30
0.0
 11
18.5
 21
81.299999999999997
 31
0.0
  0
LINE
  5
331
100
AcDbEntity
  8
0
  6
CONTINUOUS
 62
               4
100
AcDbLine
 10
18.5
 20
81.299999999999997
 30
0.0
 11
18.5
 21
80.0
 31
0.0
  0
LINE
  5
332
100
AcDbEntity
  8
0
  6
CONTINUOUS
 62
               4
100
AcDbLine
 10
23.5
 20
80.0
 30
0.0
 11
18.5
 21
80.0
 31
0.0
  0
LINE
  5
333
100
AcDbEntity
  8
0
  6
CONTINUOUS
 62
               4
100
AcDbLine
 10
23.5
 20
81.299999999999997
 30
0.0
 11
23.5
 21
80.0
 31
0.0
  0
LINE
  5
334
100
AcDbEntity
  8
0
  6
CONTINUOUS
 62
               4
100
AcDbLine
 10
26.0
 20
81.299999999999997
 30
0.0
 11
35.0
 21
81.299999999999997
 31
0.0
  0
LINE
  5
335
100
AcDbEntity
  8
0
  6
CONTINUOUS
 62
               4
100
AcDbLine
 10
16.0
 20
66.0
 30
0.0
 11
26.0
 21
66.0
 31
0.0
  0
LINE
  5
336
100
AcDbEntity
  8
0
  6
CONTINUOUS
 62
               4
100
AcDbLine
 10
26.0
 20
82.0
 30
0.0
 11
26.0
 21
66.0
 31
0.0
  0
LINE
  5
337
100
AcDbEntity
  8
0
  6
CONTINUOUS
 62
               4
100
AcDbLine
 10
7.0
 20
59.0
 30
0.0
 11
7.0
 21
49.0
 31
0.0
  0
LINE
  5
338
100
AcDbEntity
  8
0
  6
CONTINUOUS
 62
               4
100
AcDbLine
 10
14.0
 20
59.0
 30
0.0
 11
14.0
 21
49.0
 31
0.0
  0
LINE
  5
339
100
AcDbEntity
  8
0
  6
CONTINUOUS
 62
               4
100
AcDbLine
 10
28.0
 20
59.0
 30
0.0
 11
28.0
 21
49.0
 31
0.0
  0
LINE
  5
33A
100
AcDbEntity
  8
0
  6
CONTINUOUS
 62
               4
100
AcDbLine
 10
35.0
 20
59.0
 30
0.0
 11
35.0
 21
49.0
 31
0.0
  0
LINE
  5
33B
100
AcDbEntity
  8
0
  6
CONTINUOUS
 62
               4
100
AcDbLine
 10
21.0
 20
49.0
 30
0.0
 11
21.0
 21
3.0
 31
0.0
  0
LINE
  5
33C
100
AcDbEntity
  8
0
  6
CONTINUOUS
 62
               4
100
AcDbLine
 10
0.0
 20
49.0
 30
0.0
 11
42.0
 21
49.0
 31
0.0
  0
LINE
  5
33D
100
AcDbEntity
  8
0
  6
CONTINUOUS
 62
               4
100
AcDbLine
 10
0.0
 20
5.0
 30
0.0
 11
42.0
 21
5.0
 31
0.0
  0
LINE
  5
33E
100
AcDbEntity
  8
0
  6
CONTINUOUS
 62
               4
100
AcDbLine
 10
0.0
 20
3.0
 30
0.0
 11
42.0
 21
3.0
 31
0.0
  0
ARC
  5
33F
100
AcDbEntity
  8
0
  6
CONTINUOUS
 62
               4
100
AcDbCircle
 10
25.0
 20
82.0
 30
0.0
 40
1.0
100
AcDbArc
 50
0.0
 51
89.999999999999815
  0
ARC
  5
340
100
AcDbEntity
  8
0
  6
CONTINUOUS
 62
               4
100
AcDbCircle
 10
17.0
 20
82.0
 30
0.0
 40
1.0
100
AcDbArc
 50
89.999999999999815
 51
179.99999999999963
  0
ENDBLK
  5
341
100
AcDbEntity
  8
0
100
AcDbBlockEnd
  0
BLOCK
  5
342
100
AcDbEntity
  8
0
100
AcDbBlockBegin
  2
F15_CONNECTER-8
 70
               0
 10
0.0
 20
0.0
 30
0.0
  3
F15_CONNECTER-8
  1

  0
LINE
  5
343
100
AcDbEntity
  8
0
  6
CONTINUOUS
 62
               4
100
AcDbLine
 10
-0.35
 20
-0.35
 30
0.0
 11
-0.35
 21
-2.77
 31
0.0
  0
LINE
  5
344
100
AcDbEntity
  8
0
  6
CONTINUOUS
 62
               4
100
AcDbLine
 10
0.35
 20
-0.35
 30
0.0
 11
0.35
 21
-2.77
 31
0.0
  0
LINE
  5
345
100
AcDbEntity
  8
0
  6
CONTINUOUS
 62
               4
100
AcDbLine
 10
-2.8999999999999999
 20
2.8999999999999999
 30
0.0
 11
2.8999999999999999
 21
2.8999999999999999
 31
0.0
  0
LINE
  5
346
100
AcDbEntity
  8
0
  6
CONTINUOUS
 62
               4
100
AcDbLine
 10
-2.8999999999999999
 20
-2.8999999999999999
 30
0.0
 11
2.8999999999999999
 21
-2.8999999999999999
 31
0.0
  0
LINE
  5
347
100
AcDbEntity
  8
0
  6
CONTINUOUS
 62
               4
100
AcDbLine
 10
-2.8999999999999999
 20
2.8999999999999999
 30
0.0
 11
-2.8999999999999999
 21
-2.8999999999999999
 31
0.0
  0
LINE
  5
348
100
AcDbEntity
  8
0
  6
CONTINUOUS
 62
               4
100
AcDbLine
 10
2.8999999999999999
 20
2.8999999999999999
 30
0.0
 11
2.8999999999999999
 21
-2.8999999999999999
 31
0.0
  0
LINE
  5
349
100
AcDbEntity
  8
0
  6
CONTINUOUS
 62
               4
100
AcDbLine
 10
3.3999999999999999
 20
2.5
 30
0.0
 11
3.3999999999999999
 21
-2.5
 31
0.0
  0
LINE
  5
34A
100
AcDbEntity
  8
0
  6
CONTINUOUS
 62
               4
100
AcDbLine
 10
-3.3999999999999999
 20
2.5
 30
0.0
 11
-3.3999999999999999
 21
-2.5
 31
0.0
  0
LINE
  5
34B
100
AcDbEntity
  8
0
  6
CONTINUOUS
 62
               4
100
AcDbLine
 10
-3.3999999999999999
 20
-2.5
 30
0.0
 11
-2.8999999999999999
 21
-2.5
 31
0.0
  0
LINE
  5
34C
100
AcDbEntity
  8
0
  6
CONTINUOUS
 62
               4
100
AcDbLine
 10
-3.3999999999999999
 20
2.5
 30
0.0
 11
-2.8999999999999999
 21
2.5
 31
0.0
  0
LINE
  5
34D
100
AcDbEntity
  8
0
  6
CONTINUOUS
 62
               4
100
AcDbLine
 10
2.8999999999999999
 20
2.5
 30
0.0
 11
3.3999999999999999
 21
2.5
 31
0.0
  0
LINE
  5
34E
100
AcDbEntity
  8
0
  6
CONTINUOUS
 62
               4
100
AcDbLine
 10
2.8999999999999999
 20
-2.5
 30
0.0
 11
3.3999999999999999
 21
-2.5
 31
0.0
  0
LINE
  5
34F
100
AcDbEntity
  8
0
  6
CONTINUOUS
 62
               4
100
AcDbLine
 10
0.35
 20
2.77
 30
0.0
 11
0.35
 21
0.35
 31
0.0
  0
LINE
  5
350
100
AcDbEntity
  8
0
  6
CONTINUOUS
 62
               4
100
AcDbLine
 10
-0.35
 20
2.77
 30
0.0
 11
-0.35
 21
0.35
 31
0.0
  0
LINE
  5
351
100
AcDbEntity
  8
0
  6
CONTINUOUS
 62
               4
100
AcDbLine
 10
-1.5
 20
-0.35
 30
0.0
 11
-0.35
 21
-0.35
 31
0.0
  0
LINE
  5
352
100
AcDbEntity
  8
0
  6
CONTINUOUS
 62
               4
100
AcDbLine
 10
-1.5
 20
0.35
 30
0.0
 11
-0.35
 21
0.35
 31
0.0
  0
LINE
  5
353
100
AcDbEntity
  8
0
  6
CONTINUOUS
 62
               4
100
AcDbLine
 10
-1.5
 20
0.35
 30
0.0
 11
-1.5
 21
-0.35
 31
0.0
  0
LINE
  5
354
100
AcDbEntity
  8
0
  6
CONTINUOUS
 62
               4
100
AcDbLine
 10
1.5
 20
0.35
 30
0.0
 11
1.5
 21
-0.35
 31
0.0
  0
LINE
  5
355
100
AcDbEntity
  8
0
  6
CONTINUOUS
 62
               4
100
AcDbLine
 10
0.35
 20
0.35
 30
0.0
 11
1.5
 21
0.35
 31
0.0
  0
LINE
  5
356
100
AcDbEntity
  8
0
  6
CONTINUOUS
 62
               4
100
AcDbLine
 10
0.35
 20
-0.35
 30
0.0
 11
1.5
 21
-0.35
 31
0.0
  0
CIRCLE
  5
357
100
AcDbEntity
  8
0
  6
CONTINUOUS
 62
               4
100
AcDbCircle
 10
0.0
 20
0.0
 30
0.0
 40
2.7999992370605469
  0
ENDBLK
  5
358
100
AcDbEntity
  8
0
100
AcDbBlockEnd
  0
BLOCK
  5
359
100
AcDbEntity
  8
0
100
AcDbBlockBegin
  2
F15_CONNECTER-9
 70
               0
 10
0.0
 20
0.0
 30
0.0
  3
F15_CONNECTER-9
  1

  0
LINE
  5
35A
100
AcDbEntity
  8
0
  6
CONTINUOUS
 62
               4
100
AcDbLine
 10
59.0
 20
59.899999999999999
 30
0.0
 11
59.0
 21
48.899999999999999
 31
0.0
  0
LINE
  5
35B
100
AcDbEntity
  8
0
  6
CONTINUOUS
 62
               4
100
AcDbLine
 10
49.0
 20
48.899999999999999
 30
0.0
 11
59.0
 21
48.899999999999999
 31
0.0
  0
LINE
  5
35C
100
AcDbEntity
  8
0
  6
CONTINUOUS
 62
               4
100
AcDbLine
 10
49.0
 20
60.399999999999999
 30
0.0
 11
58.5
 21
60.399999999999999
 31
0.0
  0
LINE
  5
35D
100
AcDbEntity
  8
0
  6
CONTINUOUS
 62
               4
100
AcDbLine
 10
59.0
 20
48.399999999999999
 30
0.0
 11
59.0
 21
-44.600000000000001
 31
0.0
  0
LINE
  5
35E
100
AcDbEntity
  8
0
  6
CONTINUOUS
 62
               4
100
AcDbLine
 10
67.5
 20
17.899999999999999
 30
0.0
 11
67.5
 21
17.27
 31
0.0
  0
LINE
  5
35F
100
AcDbEntity
  8
0
  6
CONTINUOUS
 62
               4
100
AcDbLine
 10
59.0
 20
-8.0999999999999996
 30
0.0
 11
70.760000000000005
 21
-3.6000000000000001
 31
0.0
  0
LINE
  5
360
100
AcDbEntity
  8
0
  6
CONTINUOUS
 62
               4
100
AcDbLine
 10
64.0
 20
14.76
 30
0.0
 11
64.0
 21
1.03
 31
0.0
  0
LINE
  5
361
100
AcDbEntity
  8
0
  6
CONTINUOUS
 62
               4
100
AcDbLine
 10
70.760000000000005
 20
19.399999999999999
 30
0.0
 11
59.0
 21
23.899999999999999
 31
0.0
  0
LINE
  5
362
100
AcDbEntity
  8
0
  6
CONTINUOUS
 62
               4
100
AcDbLine
 10
65.079999999999998
 20
16.210000000000001
 30
0.0
 11
67.129999999999995
 21
16.789999999999999
 31
0.0
  0
LINE
  5
363
100
AcDbEntity
  8
0
  6
CONTINUOUS
 62
               4
100
AcDbLine
 10
65.079999999999998
 20
-0.41
 30
0.0
 11
67.129999999999995
 21
-0.99
 31
0.0
  0
LINE
  5
364
100
AcDbEntity
  8
0
  6
CONTINUOUS
 62
               4
100
AcDbLine
 10
67.5
 20
-1.47
 30
0.0
 11
67.5
 21
-2.1000000000000001
 31
0.0
  0
LINE
  5
365
100
AcDbEntity
  8
0
  6
CONTINUOUS
 62
               4
100
AcDbLine
 10
67.0
 20
-3.9900000000000002
 30
0.0
 11
67.0
 21
-4.3499999999999996
 31
0.0
  0
LINE
  5
366
100
AcDbEntity
  8
0
  6
CONTINUOUS
 62
               4
100
AcDbLine
 10
67.0
 20
20.149999999999999
 30
0.0
 11
67.0
 21
19.789999999999999
 31
0.0
  0
LINE
  5
367
100
AcDbEntity
  8
0
  6
CONTINUOUS
 62
               4
100
AcDbLine
 10
67.0
 20
-2.1000000000000001
 30
0.0
 11
67.5
 21
-2.1000000000000001
 31
0.0
  0
LINE
  5
368
100
AcDbEntity
  8
0
  6
CONTINUOUS
 62
               4
100
AcDbLine
 10
67.0
 20
17.899999999999999
 30
0.0
 11
67.5
 21
17.899999999999999
 31
0.0
  0
LINE
  5
369
100
AcDbEntity
  8
0
  6
CONTINUOUS
 62
               4
100
AcDbLine
 10
67.319999999999993
 20
-1.1000000000000001
 30
0.0
 11
73.5
 21
-1.1000000000000001
 31
0.0
  0
LINE
  5
36A
100
AcDbEntity
  8
0
  6
CONTINUOUS
 62
               4
100
AcDbLine
 10
67.319999999999993
 20
16.899999999999999
 30
0.0
 11
73.5
 21
16.899999999999999
 31
0.0
  0
LINE
  5
36B
100
AcDbEntity
  8
0
  6
CONTINUOUS
 62
               4
100
AcDbLine
 10
70.760000000000005
 20
-3.6000000000000001
 30
0.0
 11
74.319999999999993
 21
-3.6000000000000001
 31
0.0
  0
LINE
  5
36C
100
AcDbEntity
  8
0
  6
CONTINUOUS
 62
               4
100
AcDbLine
 10
70.760000000000005
 20
19.399999999999999
 30
0.0
 11
74.319999999999993
 21
19.399999999999999
 31
0.0
  0
LINE
  5
36D
100
AcDbEntity
  8
0
  6
CONTINUOUS
 62
               4
100
AcDbLine
 10
68.0
 20
-1.1000000000000001
 30
0.0
 11
68.0
 21
-4.6500000000000004
 31
0.0
  0
LINE
  5
36E
100
AcDbEntity
  8
0
  6
CONTINUOUS
 62
               4
100
AcDbLine
 10
68.0
 20
20.449999999999999
 30
0.0
 11
68.0
 21
16.899999999999999
 31
0.0
  0
LINE
  5
36F
100
AcDbEntity
  8
0
  6
CONTINUOUS
 62
               4
100
AcDbLine
 10
73.5
 20
16.899999999999999
 30
0.0
 11
73.5
 21
15.9
 31
0.0
  0
LINE
  5
370
100
AcDbEntity
  8
0
  6
CONTINUOUS
 62
               4
100
AcDbLine
 10
73.5
 20
-0.1
 30
0.0
 11
73.5
 21
-1.1000000000000001
 31
0.0
  0
LINE
  5
371
100
AcDbEntity
  8
0
  6
CONTINUOUS
 62
               4
100
AcDbLine
 10
73.5
 20
14.9
 30
0.0
 11
73.689999999999998
 21
14.9
 31
0.0
  0
LINE
  5
372
100
AcDbEntity
  8
0
  6
CONTINUOUS
 62
               4
100
AcDbLine
 10
73.5
 20
0.9
 30
0.0
 11
73.689999999999998
 21
0.9
 31
0.0
  0
LINE
  5
373
100
AcDbEntity
  8
0
  6
CONTINUOUS
 62
               4
100
AcDbLine
 10
74.129999999999995
 20
0.62
 30
0.0
 11
75.0
 21
-1.1000000000000001
 31
0.0
  0
LINE
  5
374
100
AcDbEntity
  8
0
  6
CONTINUOUS
 62
               4
100
AcDbLine
 10
74.129999999999995
 20
15.17
 30
0.0
 11
75.0
 21
16.899999999999999
 31
0.0
  0
LINE
  5
375
100
AcDbEntity
  8
0
  6
CONTINUOUS
 62
               4
100
AcDbLine
 10
75.0
 20
16.899999999999999
 30
0.0
 11
75.5
 21
17.5
 31
0.0
  0
LINE
  5
376
100
AcDbEntity
  8
0
  6
CONTINUOUS
 62
               4
100
AcDbLine
 10
75.0
 20
-1.1000000000000001
 30
0.0
 11
75.5
 21
-1.7
 31
0.0
  0
LINE
  5
377
100
AcDbEntity
  8
0
  6
CONTINUOUS
 62
               4
100
AcDbLine
 10
74.319999999999993
 20
-3.6000000000000001
 30
0.0
 11
77.0
 21
-4.5700000000000003
 31
0.0
  0
LINE
  5
378
100
AcDbEntity
  8
0
  6
CONTINUOUS
 62
               4
100
AcDbLine
 10
74.319999999999993
 20
19.399999999999999
 30
0.0
 11
77.0
 21
20.370000000000001
 31
0.0
  0
LINE
  5
379
100
AcDbEntity
  8
0
  6
CONTINUOUS
 62
               4
100
AcDbLine
 10
75.5
 20
17.5
 30
0.0
 11
75.75
 21
17.5
 31
0.0
  0
LINE
  5
37A
100
AcDbEntity
  8
0
  6
CONTINUOUS
 62
               4
100
AcDbLine
 10
75.75
 20
17.800000000000001
 30
0.0
 11
76.0
 21
17.800000000000001
 31
0.0
  0
LINE
  5
37B
100
AcDbEntity
  8
0
  6
CONTINUOUS
 62
               4
100
AcDbLine
 10
76.0
 20
18.100000000000001
 30
0.0
 11
76.25
 21
18.100000000000001
 31
0.0
  0
LINE
  5
37C
100
AcDbEntity
  8
0
  6
CONTINUOUS
 62
               4
100
AcDbLine
 10
76.25
 20
18.399999999999999
 30
0.0
 11
76.5
 21
18.399999999999999
 31
0.0
  0
LINE
  5
37D
100
AcDbEntity
  8
0
  6
CONTINUOUS
 62
               4
100
AcDbLine
 10
76.5
 20
18.699999999999999
 30
0.0
 11
76.75
 21
18.699999999999999
 31
0.0
  0
LINE
  5
37E
100
AcDbEntity
  8
0
  6
CONTINUOUS
 62
               4
100
AcDbLine
 10
76.75
 20
19.0
 30
0.0
 11
77.0
 21
19.0
 31
0.0
  0
LINE
  5
37F
100
AcDbEntity
  8
0
  6
CONTINUOUS
 62
               4
100
AcDbLine
 10
77.0
 20
19.300000000000001
 30
0.0
 11
77.25
 21
19.300000000000001
 31
0.0
  0
LINE
  5
380
100
AcDbEntity
  8
0
  6
CONTINUOUS
 62
               4
100
AcDbLine
 10
75.75
 20
17.800000000000001
 30
0.0
 11
75.75
 21
17.5
 31
0.0
  0
LINE
  5
381
100
AcDbEntity
  8
0
  6
CONTINUOUS
 62
               4
100
AcDbLine
 10
76.0
 20
18.100000000000001
 30
0.0
 11
76.0
 21
17.800000000000001
 31
0.0
  0
LINE
  5
382
100
AcDbEntity
  8
0
  6
CONTINUOUS
 62
               4
100
AcDbLine
 10
76.25
 20
18.399999999999999
 30
0.0
 11
76.25
 21
18.100000000000001
 31
0.0
  0
LINE
  5
383
100
AcDbEntity
  8
0
  6
CONTINUOUS
 62
               4
100
AcDbLine
 10
76.5
 20
18.699999999999999
 30
0.0
 11
76.5
 21
18.399999999999999
 31
0.0
  0
LINE
  5
384
100
AcDbEntity
  8
0
  6
CONTINUOUS
 62
               4
100
AcDbLine
 10
76.75
 20
19.0
 30
0.0
 11
76.75
 21
18.699999999999999
 31
0.0
  0
LINE
  5
385
100
AcDbEntity
  8
0
  6
CONTINUOUS
 62
               4
100
AcDbLine
 10
77.0
 20
19.300000000000001
 30
0.0
 11
77.0
 21
19.0
 31
0.0
  0
LINE
  5
386
100
AcDbEntity
  8
0
  6
CONTINUOUS
 62
               4
100
AcDbLine
 10
77.25
 20
19.600000000000001
 30
0.0
 11
77.409999999999997
 21
19.789999999999999
 31
0.0
  0
LINE
  5
387
100
AcDbEntity
  8
0
  6
CONTINUOUS
 62
               4
100
AcDbLine
 10
77.25
 20
19.600000000000001
 30
0.0
 11
77.25
 21
19.300000000000001
 31
0.0
  0
LINE
  5
388
100
AcDbEntity
  8
0
  6
CONTINUOUS
 62
               4
100
AcDbLine
 10
75.5
 20
-1.7
 30
0.0
 11
75.75
 21
-1.7
 31
0.0
  0
LINE
  5
389
100
AcDbEntity
  8
0
  6
CONTINUOUS
 62
               4
100
AcDbLine
 10
75.75
 20
-2.0
 30
0.0
 11
76.0
 21
-2.0
 31
0.0
  0
LINE
  5
38A
100
AcDbEntity
  8
0
  6
CONTINUOUS
 62
               4
100
AcDbLine
 10
76.0
 20
-2.2999999999999998
 30
0.0
 11
76.25
 21
-2.2999999999999998
 31
0.0
  0
LINE
  5
38B
100
AcDbEntity
  8
0
  6
CONTINUOUS
 62
               4
100
AcDbLine
 10
76.25
 20
-2.6000000000000001
 30
0.0
 11
76.5
 21
-2.6000000000000001
 31
0.0
  0
LINE
  5
38C
100
AcDbEntity
  8
0
  6
CONTINUOUS
 62
               4
100
AcDbLine
 10
76.5
 20
-2.8999999999999999
 30
0.0
 11
76.75
 21
-2.8999999999999999
 31
0.0
  0
LINE
  5
38D
100
AcDbEntity
  8
0
  6
CONTINUOUS
 62
               4
100
AcDbLine
 10
76.75
 20
-3.2000000000000002
 30
0.0
 11
77.0
 21
-3.2000000000000002
 31
0.0
  0
LINE
  5
38E
100
AcDbEntity
  8
0
  6
CONTINUOUS
 62
               4
100
AcDbLine
 10
77.0
 20
-3.5
 30
0.0
 11
77.25
 21
-3.5
 31
0.0
  0
LINE
  5
38F
100
AcDbEntity
  8
0
  6
CONTINUOUS
 62
               4
100
AcDbLine
 10
77.25
 20
-3.5
 30
0.0
 11
77.25
 21
-3.7999999999999998
 31
0.0
  0
LINE
  5
390
100
AcDbEntity
  8
0
  6
CONTINUOUS
 62
               4
100
AcDbLine
 10
77.0
 20
-3.2000000000000002
 30
0.0
 11
77.0
 21
-3.5
 31
0.0
  0
LINE
  5
391
100
AcDbEntity
  8
0
  6
CONTINUOUS
 62
               4
100
AcDbLine
 10
76.75
 20
-2.8999999999999999
 30
0.0
 11
76.75
 21
-3.2000000000000002
 31
0.0
  0
LINE
  5
392
100
AcDbEntity
  8
0
  6
CONTINUOUS
 62
               4
100
AcDbLine
 10
76.5
 20
-2.6000000000000001
 30
0.0
 11
76.5
 21
-2.8999999999999999
 31
0.0
  0
LINE
  5
393
100
AcDbEntity
  8
0
  6
CONTINUOUS
 62
               4
100
AcDbLine
 10
76.25
 20
-2.2999999999999998
 30
0.0
 11
76.25
 21
-2.6000000000000001
 31
0.0
  0
LINE
  5
394
100
AcDbEntity
  8
0
  6
CONTINUOUS
 62
               4
100
AcDbLine
 10
76.0
 20
-2.0
 30
0.0
 11
76.0
 21
-2.2999999999999998
 31
0.0
  0
LINE
  5
395
100
AcDbEntity
  8
0
  6
CONTINUOUS
 62
               4
100
AcDbLine
 10
75.75
 20
-1.7
 30
0.0
 11
75.75
 21
-2.0
 31
0.0
  0
LINE
  5
396
100
AcDbEntity
  8
0
  6
CONTINUOUS
 62
               4
100
AcDbLine
 10
77.25
 20
-3.7999999999999998
 30
0.0
 11
77.409999999999997
 21
-3.9900000000000002
 31
0.0
  0
LINE
  5
397
100
AcDbEntity
  8
0
  6
CONTINUOUS
 62
               4
100
AcDbLine
 10
47.5
 20
-44.600000000000001
 30
0.0
 11
59.0
 21
-44.600000000000001
 31
0.0
  0
LINE
  5
398
100
AcDbEntity
  8
0
  6
CONTINUOUS
 62
               4
100
AcDbLine
 10
49.0
 20
48.399999999999999
 30
0.0
 11
59.0
 21
48.399999999999999
 31
0.0
  0
ARC
  5
399
100
AcDbEntity
  8
0
  6
CONTINUOUS
 62
               4
100
AcDbCircle
 10
65.500683461291487
 20
14.769456456417373
 30
0.0
 40
1.5007132556094056
100
AcDbArc
 50
106.27944429261244
 51
180.36104074212579
  0
ARC
  5
39A
100
AcDbEntity
  8
0
  6
CONTINUOUS
 62
               4
100
AcDbCircle
 10
65.500695501199672
 20
1.0305216258997612
 30
0.0
 40
1.5006955918555049
100
AcDbArc
 50
180.01991540676497
 51
253.71987988492231
  0
ARC
  5
39B
100
AcDbEntity
  8
0
  6
CONTINUOUS
 62
               4
100
AcDbCircle
 10
66.99789752066647
 20
17.274433161152935
 30
0.0
 40
0.502122049576287
100
AcDbArc
 50
285.25339523982575
 51
359.49413748283189
  0
ARC
  5
39C
100
AcDbEntity
  8
0
  6
CONTINUOUS
 62
               4
100
AcDbCircle
 10
66.997891576469499
 20
-1.4744377431381006
 30
0.0
 40
0.5021280340156793
100
AcDbArc
 50
0.5063793400785031
 51
74.746087937262274
  0
ARC
  5
39D
100
AcDbEntity
  8
0
  6
CONTINUOUS
 62
               4
100
AcDbCircle
 10
66.004532227176384
 20
20.146393492112519
 30
0.0
 40
0.99547430586106
100
AcDbArc
 50
0.2075775653415747
 51
69.693725258409245
  0
ARC
  5
39E
100
AcDbEntity
  8
0
  6
CONTINUOUS
 62
               4
100
AcDbCircle
 10
66.004537905092633
 20
-4.3463974605486166
 30
0.0
 40
0.9954686136126294
100
AcDbArc
 50
290.30604751740805
 51
359.79264965884016
  0
ARC
  5
39F
100
AcDbEntity
  8
0
  6
CONTINUOUS
 62
               4
100
AcDbCircle
 10
67.000710017872208
 20
18.646617486266898
 30
0.0
 40
0.7466178238730181
100
AcDbArc
 50
113.75101956819888
 51
269.9455129086291
  0
ARC
  5
3A0
100
AcDbEntity
  8
0
  6
CONTINUOUS
 62
               4
100
AcDbCircle
 10
67.000712482016496
 20
-2.8466180032202453
 30
0.0
 40
0.7466183431735456
100
AcDbArc
 50
90.0546761529409
 51
246.24879137022961
  0
ARC
  5
3A1
100
AcDbEntity
  8
0
  6
CONTINUOUS
 62
               4
100
AcDbCircle
 10
66.496597415406939
 20
19.790479946473731
 30
0.0
 40
0.5034028133846562
100
AcDbArc
 50
293.83194213769656
 51
359.94537394155878
  0
ARC
  5
3A2
100
AcDbEntity
  8
0
  6
CONTINUOUS
 62
               4
100
AcDbCircle
 10
66.496591741934367
 20
-3.990483646564535
 30
0.0
 40
0.5034084903958854
100
AcDbArc
 50
0.0550465709568157
 51
66.167637349785466
  0
ARC
  5
3A3
100
AcDbEntity
  8
0
  6
CONTINUOUS
 62
               4
100
AcDbCircle
 10
73.500003051767123
 20
15.399996948232875
 30
0.0
 40
0.5000030517764391
100
AcDbArc
 50
90.000349704617832
 51
179.9996502953814
  0
ARC
  5
3A4
100
AcDbEntity
  8
0
  6
CONTINUOUS
 62
               4
100
AcDbCircle
 10
73.499996948251507
 20
0.3999969482515007
 30
0.0
 40
0.4999969482608139
100
AcDbArc
 50
179.99965029324687
 51
270.00034970675142
  0
ARC
  5
3A5
100
AcDbEntity
  8
0
  6
CONTINUOUS
 62
               4
100
AcDbCircle
 10
73.499996948251507
 20
15.3999969482515
 30
0.0
 40
0.4999969482608138
100
AcDbArc
 50
179.99965029324679
 51
270.00034970675142
  0
ARC
  5
3A6
100
AcDbEntity
  8
0
  6
CONTINUOUS
 62
               4
100
AcDbCircle
 10
73.500003051767123
 20
0.3999969482328744
 30
0.0
 40
0.5000030517764389
100
AcDbArc
 50
90.000349704617832
 51
179.99965029538134
  0
ARC
  5
3A7
100
AcDbEntity
  8
0
  6
CONTINUOUS
 62
               4
100
AcDbCircle
 10
73.687373213749737
 20
15.397799207222654
 30
0.0
 40
0.4978061376856525
100
AcDbArc
 50
270.30233549342046
 51
332.7672483169539
  0
ARC
  5
3A8
100
AcDbEntity
  8
0
  6
CONTINUOUS
 62
               4
100
AcDbCircle
 10
73.68377555584793
 20
0.4045044449039044
 30
0.0
 40
0.4955346494696309
100
AcDbArc
 50
25.777330495937999
 51
89.280284922363762
  0
ARC
  5
3A9
100
AcDbEntity
  8
0
  6
CONTINUOUS
 62
               4
100
AcDbCircle
 10
77.134721972408784
 20
20.030320704633791
 30
0.0
 40
0.3654203518554965
100
AcDbArc
 50
318.87868785046589
 51
111.63402957545858
  0
ARC
  5
3AA
100
AcDbEntity
  8
0
  6
CONTINUOUS
 62
               4
100
AcDbCircle
 10
77.134727709906556
 20
-4.2303247604511887
 30
0.0
 40
0.3654186970848753
100
AcDbArc
 50
248.36489973182577
 51
41.122382842248378
  0
ENDBLK
  5
3AB
100
AcDbEntity
  8
0
100
AcDbBlockEnd
  0
BLOCK
  5
3AC
100
AcDbEntity
  8
0
100
AcDbBlockBegin
  2
F15_CONNECTER-10
 70
               0
 10
0.0
 20
0.0
 30
0.0
  3
F15_CONNECTER-10
  1

  0
LINE
  5
3AD
100
AcDbEntity
  8
0
  6
CONTINUOUS
 62
               7
100
AcDbLine
 10
0.0
 20
0.0
 30
0.0
 11
21.0
 21
0.0
 31
0.0
  0
LINE
  5
3AE
100
AcDbEntity
  8
0
  6
CONTINUOUS
 62
               4
100
AcDbLine
 10
0.0
 20
49.0
 30
0.0
 11
0.0
 21
3.0
 31
0.0
  0
LINE
  5
3AF
100
AcDbEntity
  8
0
  6
CONTINUOUS
 62
               4
100
AcDbLine
 10
21.0
 20
49.0
 30
0.0
 11
21.0
 21
3.0
 31
0.0
  0
LINE
  5
3B0
100
AcDbEntity
  8
0
  6
CONTINUOUS
 62
               4
100
AcDbLine
 10
0.0
 20
49.0
 30
0.0
 11
21.0
 21
49.0
 31
0.0
  0
LINE
  5
3B1
100
AcDbEntity
  8
0
  6
CONTINUOUS
 62
               4
100
AcDbLine
 10
0.0
 20
5.0
 30
0.0
 11
21.0
 21
5.0
 31
0.0
  0
LINE
  5
3B2
100
AcDbEntity
  8
0
  6
CONTINUOUS
 62
               4
100
AcDbLine
 10
0.0
 20
59.0
 30
0.0
 11
21.0
 21
59.0
 31
0.0
  0
LINE
  5
3B3
100
AcDbEntity
  8
0
  6
CONTINUOUS
 62
               4
100
AcDbLine
 10
0.0
 20
59.0
 30
0.0
 11
0.0
 21
49.0
 31
0.0
  0
LINE
  5
3B4
100
AcDbEntity
  8
0
  6
CONTINUOUS
 62
               4
100
AcDbLine
 10
21.0
 20
59.0
 30
0.0
 11
21.0
 21
49.0
 31
0.0
  0
LINE
  5
3B5
100
AcDbEntity
  8
0
  6
CONTINUOUS
 62
               4
100
AcDbLine
 10
2.5
 20
50.5
 30
0.0
 11
18.5
 21
50.5
 31
0.0
  0
LINE
  5
3B6
100
AcDbEntity
  8
0
  6
CONTINUOUS
 62
               4
100
AcDbLine
 10
1.5
 20
59.0
 30
0.0
 11
1.5
 21
49.0
 31
0.0
  0
LINE
  5
3B7
100
AcDbEntity
  8
0
  6
CONTINUOUS
 62
               4
100
AcDbLine
 10
19.5
 20
59.0
 30
0.0
 11
19.5
 21
49.0
 31
0.0
  0
LINE
  5
3B8
100
AcDbEntity
  8
0
  6
CONTINUOUS
 62
               4
100
AcDbLine
 10
18.5
 20
57.5
 30
0.0
 11
18.5
 21
50.5
 31
0.0
  0
LINE
  5
3B9
100
AcDbEntity
  8
0
  6
CONTINUOUS
 62
               4
100
AcDbLine
 10
2.5
 20
57.5
 30
0.0
 11
2.5
 21
50.5
 31
0.0
  0
LINE
  5
3BA
100
AcDbEntity
  8
0
  6
CONTINUOUS
 62
               4
100
AcDbLine
 10
1.5
 20
57.5
 30
0.0
 11
19.5
 21
57.5
 31
0.0
  0
LINE
  5
3BB
100
AcDbEntity
  8
0
  6
CONTINUOUS
 62
               4
100
AcDbLine
 10
9.5
 20
57.5
 30
0.0
 11
9.5
 21
50.5
 31
0.0
  0
LINE
  5
3BC
100
AcDbEntity
  8
0
  6
CONTINUOUS
 62
               4
100
AcDbLine
 10
11.5
 20
57.5
 30
0.0
 11
11.5
 21
50.5
 31
0.0
  0
LINE
  5
3BD
100
AcDbEntity
  8
0
  6
CONTINUOUS
 62
               4
100
AcDbLine
 10
2.5
 20
56.5
 30
0.0
 11
9.5
 21
56.5
 31
0.0
  0
LINE
  5
3BE
100
AcDbEntity
  8
0
  6
CONTINUOUS
 62
               4
100
AcDbLine
 10
11.5
 20
56.5
 30
0.0
 11
18.5
 21
56.5
 31
0.0
  0
LINE
  5
3BF
100
AcDbEntity
  8
0
  6
CONTINUOUS
 62
               4
100
AcDbLine
 10
3.0499999999999998
 20
51.299999999999997
 30
0.0
 11
8.9499999999999993
 21
51.299999999999997
 31
0.0
  0
LINE
  5
3C0
100
AcDbEntity
  8
0
  6
CONTINUOUS
 62
               4
100
AcDbLine
 10
3.0499999999999998
 20
51.299999999999997
 30
0.0
 11
3.0499999999999998
 21
50.5
 31
0.0
  0
LINE
  5
3C1
100
AcDbEntity
  8
0
  6
CONTINUOUS
 62
               4
100
AcDbLine
 10
3.8500000000000001
 20
51.299999999999997
 30
0.0
 11
3.8500000000000001
 21
50.5
 31
0.0
  0
LINE
  5
3C2
100
AcDbEntity
  8
0
  6
CONTINUOUS
 62
               4
100
AcDbLine
 10
8.1500000000000004
 20
51.299999999999997
 30
0.0
 11
8.1500000000000004
 21
50.5
 31
0.0
  0
LINE
  5
3C3
100
AcDbEntity
  8
0
  6
CONTINUOUS
 62
               4
100
AcDbLine
 10
8.9499999999999993
 20
51.299999999999997
 30
0.0
 11
8.9499999999999993
 21
50.5
 31
0.0
  0
LINE
  5
3C4
100
AcDbEntity
  8
0
  6
CONTINUOUS
 62
               4
100
AcDbLine
 10
12.050000000000001
 20
51.299999999999997
 30
0.0
 11
12.050000000000001
 21
50.5
 31
0.0
  0
LINE
  5
3C5
100
AcDbEntity
  8
0
  6
CONTINUOUS
 62
               4
100
AcDbLine
 10
12.85
 20
51.299999999999997
 30
0.0
 11
12.85
 21
50.5
 31
0.0
  0
LINE
  5
3C6
100
AcDbEntity
  8
0
  6
CONTINUOUS
 62
               4
100
AcDbLine
 10
17.149999999999999
 20
51.299999999999997
 30
0.0
 11
17.149999999999999
 21
50.5
 31
0.0
  0
LINE
  5
3C7
100
AcDbEntity
  8
0
  6
CONTINUOUS
 62
               4
100
AcDbLine
 10
17.949999999999999
 20
51.299999999999997
 30
0.0
 11
17.949999999999999
 21
50.5
 31
0.0
  0
LINE
  5
3C8
100
AcDbEntity
  8
0
  6
CONTINUOUS
 62
               4
100
AcDbLine
 10
12.050000000000001
 20
51.299999999999997
 30
0.0
 11
17.949999999999999
 21
51.299999999999997
 31
0.0
  0
LINE
  5
3C9
100
AcDbEntity
  8
0
  6
CONTINUOUS
 62
               4
100
AcDbLine
 10
8.9499999999999993
 20
52.0
 30
0.0
 11
3.0499999999999998
 21
52.0
 31
0.0
  0
LINE
  5
3CA
100
AcDbEntity
  8
0
  6
CONTINUOUS
 62
               4
100
AcDbLine
 10
8.9499999999999993
 20
52.0
 30
0.0
 11
8.9499999999999993
 21
51.299999999999997
 31
0.0
  0
LINE
  5
3CB
100
AcDbEntity
  8
0
  6
CONTINUOUS
 62
               4
100
AcDbLine
 10
3.0499999999999998
 20
52.0
 30
0.0
 11
3.0499999999999998
 21
51.299999999999997
 31
0.0
  0
LINE
  5
3CC
100
AcDbEntity
  8
0
  6
CONTINUOUS
 62
               4
100
AcDbLine
 10
17.949999999999999
 20
52.0
 30
0.0
 11
12.050000000000001
 21
52.0
 31
0.0
  0
LINE
  5
3CD
100
AcDbEntity
  8
0
  6
CONTINUOUS
 62
               4
100
AcDbLine
 10
17.949999999999999
 20
52.0
 30
0.0
 11
17.949999999999999
 21
51.299999999999997
 31
0.0
  0
LINE
  5
3CE
100
AcDbEntity
  8
0
  6
CONTINUOUS
 62
               4
100
AcDbLine
 10
12.050000000000001
 20
52.0
 30
0.0
 11
12.050000000000001
 21
51.299999999999997
 31
0.0
  0
LINE
  5
3CF
100
AcDbEntity
  8
0
  6
CONTINUOUS
 62
               4
100
AcDbLine
 10
8.8000000000000007
 20
53.170000000000002
 30
0.0
 11
8.8000000000000007
 21
52.0
 31
0.0
  0
LINE
  5
3D0
100
AcDbEntity
  8
0
  6
CONTINUOUS
 62
               4
100
AcDbLine
 10
3.2000000000000002
 20
53.170000000000002
 30
0.0
 11
3.2000000000000002
 21
52.0
 31
0.0
  0
LINE
  5
3D1
100
AcDbEntity
  8
0
  6
CONTINUOUS
 62
               4
100
AcDbLine
 10
17.800000000000001
 20
53.170000000000002
 30
0.0
 11
17.800000000000001
 21
52.0
 31
0.0
  0
LINE
  5
3D2
100
AcDbEntity
  8
0
  6
CONTINUOUS
 62
               4
100
AcDbLine
 10
12.199999999999999
 20
53.170000000000002
 30
0.0
 11
12.199999999999999
 21
52.0
 31
0.0
  0
LINE
  5
3D3
100
AcDbEntity
  8
0
  6
CONTINUOUS
 62
               4
100
AcDbLine
 10
6.5
 20
68.0
 30
0.0
 11
6.5
 21
59.0
 31
0.0
  0
LINE
  5
3D4
100
AcDbEntity
  8
0
  6
CONTINUOUS
 62
               4
100
AcDbLine
 10
15.0
 20
68.0
 30
0.0
 11
15.0
 21
59.0
 31
0.0
  0
LINE
  5
3D5
100
AcDbEntity
  8
0
  6
CONTINUOUS
 62
               4
100
AcDbLine
 10
8.75
 20
77.5
 30
0.0
 11
8.75
 21
68.200000000000003
 31
0.0
  0
LINE
  5
3D6
100
AcDbEntity
  8
0
  6
CONTINUOUS
 62
               4
100
AcDbLine
 10
12.75
 20
77.5
 30
0.0
 11
12.75
 21
68.200000000000003
 31
0.0
  0
LINE
  5
3D7
100
AcDbEntity
  8
0
  6
CONTINUOUS
 62
               4
100
AcDbLine
 10
6.5
 20
68.0
 30
0.0
 11
9.25
 21
68.0
 31
0.0
  0
LINE
  5
3D8
100
AcDbEntity
  8
0
  6
CONTINUOUS
 62
               4
100
AcDbLine
 10
9.25
 20
68.200000000000003
 30
0.0
 11
9.25
 21
59.0
 31
0.0
  0
LINE
  5
3D9
100
AcDbEntity
  8
0
  6
CONTINUOUS
 62
               4
100
AcDbLine
 10
12.25
 20
68.200000000000003
 30
0.0
 11
12.25
 21
59.0
 31
0.0
  0
LINE
  5
3DA
100
AcDbEntity
  8
0
  6
CONTINUOUS
 62
               4
100
AcDbLine
 10
12.25
 20
68.0
 30
0.0
 11
15.0
 21
68.0
 31
0.0
  0
LINE
  5
3DB
100
AcDbEntity
  8
0
  6
CONTINUOUS
 62
               4
100
AcDbLine
 10
12.25
 20
68.200000000000003
 30
0.0
 11
12.75
 21
68.200000000000003
 31
0.0
  0
LINE
  5
3DC
100
AcDbEntity
  8
0
  6
CONTINUOUS
 62
               4
100
AcDbLine
 10
8.75
 20
68.200000000000003
 30
0.0
 11
9.25
 21
68.200000000000003
 31
0.0
  0
LINE
  5
3DD
100
AcDbEntity
  8
0
  6
CONTINUOUS
 62
               4
100
AcDbLine
 10
8.75
 20
74.5
 30
0.0
 11
12.75
 21
74.5
 31
0.0
  0
LINE
  5
3DE
100
AcDbEntity
  8
0
  6
CONTINUOUS
 62
               4
100
AcDbLine
 10
8.75
 20
77.5
 30
0.0
 11
12.75
 21
77.5
 31
0.0
  0
LINE
  5
3DF
100
AcDbEntity
  8
0
  6
CONTINUOUS
 62
               4
100
AcDbLine
 10
9.25
 20
59.5
 30
0.0
 11
12.25
 21
59.5
 31
0.0
  0
LINE
  5
3E0
100
AcDbEntity
  8
0
  6
CONTINUOUS
 62
               4
100
AcDbLine
 10
6.5
 20
67.5
 30
0.0
 11
9.25
 21
67.5
 31
0.0
  0
LINE
  5
3E1
100
AcDbEntity
  8
0
  6
CONTINUOUS
 62
               4
100
AcDbLine
 10
12.25
 20
67.5
 30
0.0
 11
15.0
 21
67.5
 31
0.0
  0
LINE
  5
3E2
100
AcDbEntity
  8
0
  6
CONTINUOUS
 62
               4
100
AcDbLine
 10
8.75
 20
70.799999999999997
 30
0.0
 11
12.75
 21
70.799999999999997
 31
0.0
  0
LINE
  5
3E3
100
AcDbEntity
  8
0
  6
CONTINUOUS
 62
               4
100
AcDbLine
 10
0.0
 20
3.0
 30
0.0
 11
21.0
 21
3.0
 31
0.0
  0
ARC
  5
3E4
100
AcDbEntity
  8
0
  6
CONTINUOUS
 62
               4
100
AcDbCircle
 10
5.9950000000000001
 20
49.400006980160171
 30
0.0
 40
4.9998664254813097
100
AcDbArc
 50
60.461178304918043
 51
119.53882169508157
  0
ARC
  5
3E5
100
AcDbEntity
  8
0
  6
CONTINUOUS
 62
               4
100
AcDbCircle
 10
8.134627656357754
 20
53.169609315795924
 30
0.0
 40
0.6653724583405332
100
AcDbArc
 50
0.0336421458714143
 51
60.724609876865323
  0
ARC
  5
3E6
100
AcDbEntity
  8
0
  6
CONTINUOUS
 62
               4
100
AcDbCircle
 10
3.8678490002748012
 20
53.173896258464339
 30
0.0
 40
0.667860365643951
100
AcDbArc
 50
120.38897048789522
 51
180.33426213580151
  0
ARC
  5
3E7
100
AcDbEntity
  8
0
  6
CONTINUOUS
 62
               4
100
AcDbCircle
 10
14.995000000000001
 20
49.400006980160171
 30
0.0
 40
4.9998664254813097
100
AcDbArc
 50
60.46117830491805
 51
119.53882169508159
  0
ARC
  5
3E8
100
AcDbEntity
  8
0
  6
CONTINUOUS
 62
               4
100
AcDbCircle
 10
17.134627656357754
 20
53.169609315795924
 30
0.0
 40
0.6653724583405332
100
AcDbArc
 50
0.0336421458714143
 51
60.724609876865323
  0
ARC
  5
3E9
100
AcDbEntity
  8
0
  6
CONTINUOUS
 62
               4
100
AcDbCircle
 10
12.8678490002748
 20
53.173896258464339
 30
0.0
 40
0.6678603656439516
100
AcDbArc
 50
120.38897048789516
 51
180.33426213580151
  0
ENDBLK
  5
3EA
100
AcDbEntity
  8
0
100
AcDbBlockEnd
  0
BLOCK
  5
3EB
100
AcDbEntity
  8
0
100
AcDbBlockBegin
  2
F15_CONNECTER-11
 70
               0
 10
0.0
 20
0.0
 30
0.0
  3
F15_CONNECTER-11
  1

  0
LINE
  5
3EC
100
AcDbEntity
  8
0
  6
CONTINUOUS
 62
               4
100
AcDbLine
 10
21.0
 20
-44.600000000000001
 30
0.0
 11
21.0
 21
60.399999999999999
 31
0.0
  0
LINE
  5
3ED
100
AcDbEntity
  8
0
  6
CONTINUOUS
 62
               4
100
AcDbLine
 10
0.0
 20
-44.600000000000001
 30
0.0
 11
1.5
 21
-44.600000000000001
 31
0.0
  0
LINE
  5
3EE
100
AcDbEntity
  8
0
  6
CONTINUOUS
 62
               4
100
AcDbLine
 10
0.0
 20
-44.600000000000001
 30
0.0
 11
0.0
 21
60.399999999999999
 31
0.0
  0
LINE
  5
3EF
100
AcDbEntity
  8
0
  6
CONTINUOUS
 62
               4
100
AcDbLine
 10
21.0
 20
60.399999999999999
 30
0.0
 11
0.0
 21
60.399999999999999
 31
0.0
  0
LINE
  5
3F0
100
AcDbEntity
  8
0
  6
CONTINUOUS
 62
               4
100
AcDbLine
 10
0.0
 20
48.899999999999999
 30
0.0
 11
21.0
 21
48.899999999999999
 31
0.0
  0
LINE
  5
3F1
100
AcDbEntity
  8
0
  6
CONTINUOUS
 62
               4
100
AcDbLine
 10
1.5
 20
58.899999999999999
 30
0.0
 11
1.5
 21
48.899999999999999
 31
0.0
  0
LINE
  5
3F2
100
AcDbEntity
  8
0
  6
CONTINUOUS
 62
               4
100
AcDbLine
 10
19.5
 20
58.899999999999999
 30
0.0
 11
19.5
 21
48.899999999999999
 31
0.0
  0
LINE
  5
3F3
100
AcDbEntity
  8
0
  6
CONTINUOUS
 62
               4
100
AcDbLine
 10
1.5
 20
58.899999999999999
 30
0.0
 11
19.5
 21
58.899999999999999
 31
0.0
  0
LINE
  5
3F4
100
AcDbEntity
  8
0
  6
CONTINUOUS
 62
               4
100
AcDbLine
 10
0.0
 20
48.399999999999999
 30
0.0
 11
21.0
 21
48.399999999999999
 31
0.0
  0
LINE
  5
3F5
100
AcDbEntity
  8
0
  6
CONTINUOUS
 62
               4
100
AcDbLine
 10
9.4299999999999997
 20
41.829999999999998
 30
0.0
 11
11.56
 21
43.960000000000001
 31
0.0
  0
LINE
  5
3F6
100
AcDbEntity
  8
0
  6
CONTINUOUS
 62
               4
100
AcDbLine
 10
9.4299999999999997
 20
43.960000000000001
 30
0.0
 11
11.56
 21
41.829999999999998
 31
0.0
  0
LINE
  5
3F7
100
AcDbEntity
  8
0
  6
CONTINUOUS
 62
               4
100
AcDbLine
 10
1.5
 20
-42.899999999999999
 30
0.0
 11
19.5
 21
-42.899999999999999
 31
0.0
  0
LINE
  5
3F8
100
AcDbEntity
  8
0
  6
CONTINUOUS
 62
               4
100
AcDbLine
 10
1.5
 20
-43.100000000000001
 30
0.0
 11
19.5
 21
-43.100000000000001
 31
0.0
  0
LINE
  5
3F9
100
AcDbEntity
  8
0
  6
CONTINUOUS
 62
               4
100
AcDbLine
 10
1.5
 20
-23.600000000000001
 30
0.0
 11
1.5
 21
-44.600000000000001
 31
0.0
  0
LINE
  5
3FA
100
AcDbEntity
  8
0
  6
CONTINUOUS
 62
               4
100
AcDbLine
 10
19.5
 20
-23.600000000000001
 30
0.0
 11
19.5
 21
-44.600000000000001
 31
0.0
  0
LINE
  5
3FB
100
AcDbEntity
  8
0
  6
CONTINUOUS
 62
               4
100
AcDbLine
 10
14.0
 20
-42.899999999999999
 30
0.0
 11
14.0
 21
-43.100000000000001
 31
0.0
  0
LINE
  5
3FC
100
AcDbEntity
  8
0
  6
CONTINUOUS
 62
               4
100
AcDbLine
 10
7.0
 20
-42.899999999999999
 30
0.0
 11
7.0
 21
-43.100000000000001
 31
0.0
  0
LINE
  5
3FD
100
AcDbEntity
  8
0
  6
CONTINUOUS
 62
               4
100
AcDbLine
 10
1.5
 20
-32.600000000000001
 30
0.0
 11
19.5
 21
-32.600000000000001
 31
0.0
  0
LINE
  5
3FE
100
AcDbEntity
  8
0
  6
CONTINUOUS
 62
               4
100
AcDbLine
 10
1.5
 20
-23.600000000000001
 30
0.0
 11
19.5
 21
-23.600000000000001
 31
0.0
  0
LINE
  5
3FF
100
AcDbEntity
  8
0
  6
CONTINUOUS
 62
               4
100
AcDbLine
 10
9.5
 20
-42.399999999999999
 30
0.0
 11
11.5
 21
-42.399999999999999
 31
0.0
  0
LINE
  5
400
100
AcDbEntity
  8
0
  6
CONTINUOUS
 62
               4
100
AcDbLine
 10
11.5
 20
-32.600000000000001
 30
0.0
 11
11.5
 21
-42.399999999999999
 31
0.0
  0
LINE
  5
401
100
AcDbEntity
  8
0
  6
CONTINUOUS
 62
               4
100
AcDbLine
 10
9.5
 20
-32.600000000000001
 30
0.0
 11
9.5
 21
-42.399999999999999
 31
0.0
  0
LINE
  5
402
100
AcDbEntity
  8
0
  6
CONTINUOUS
 62
               4
100
AcDbLine
 10
3.8500000000000001
 20
-41.399999999999999
 30
0.0
 11
8.1500000000000004
 21
-41.399999999999999
 31
0.0
  0
LINE
  5
403
100
AcDbEntity
  8
0
  6
CONTINUOUS
 62
               4
100
AcDbLine
 10
3.8500000000000001
 20
-34.399999999999999
 30
0.0
 11
8.1500000000000004
 21
-34.399999999999999
 31
0.0
  0
LINE
  5
404
100
AcDbEntity
  8
0
  6
CONTINUOUS
 62
               4
100
AcDbLine
 10
12.85
 20
-34.399999999999999
 30
0.0
 11
12.85
 21
-35.200000000000003
 31
0.0
  0
LINE
  5
405
100
AcDbEntity
  8
0
  6
CONTINUOUS
 62
               4
100
AcDbLine
 10
8.1500000000000004
 20
-34.399999999999999
 30
0.0
 11
8.1500000000000004
 21
-35.200000000000003
 31
0.0
  0
LINE
  5
406
100
AcDbEntity
  8
0
  6
CONTINUOUS
 62
               4
100
AcDbLine
 10
3.8500000000000001
 20
-34.399999999999999
 30
0.0
 11
3.8500000000000001
 21
-35.200000000000003
 31
0.0
  0
LINE
  5
407
100
AcDbEntity
  8
0
  6
CONTINUOUS
 62
               4
100
AcDbLine
 10
17.149999999999999
 20
-34.399999999999999
 30
0.0
 11
17.149999999999999
 21
-35.200000000000003
 31
0.0
  0
LINE
  5
408
100
AcDbEntity
  8
0
  6
CONTINUOUS
 62
               4
100
AcDbLine
 10
2.5
 20
-32.600000000000001
 30
0.0
 11
2.5
 21
-42.899999999999999
 31
0.0
  0
LINE
  5
409
100
AcDbEntity
  8
0
  6
CONTINUOUS
 62
               4
100
AcDbLine
 10
18.5
 20
-32.600000000000001
 30
0.0
 11
18.5
 21
-42.899999999999999
 31
0.0
  0
LINE
  5
40A
100
AcDbEntity
  8
0
  6
CONTINUOUS
 62
               4
100
AcDbLine
 10
12.85
 20
-34.399999999999999
 30
0.0
 11
17.149999999999999
 21
-34.399999999999999
 31
0.0
  0
LINE
  5
40B
100
AcDbEntity
  8
0
  6
CONTINUOUS
 62
               4
100
AcDbLine
 10
12.85
 20
-41.399999999999999
 30
0.0
 11
17.149999999999999
 21
-41.399999999999999
 31
0.0
  0
LINE
  5
40C
100
AcDbEntity
  8
0
  6
CONTINUOUS
 62
               4
100
AcDbLine
 10
3.8500000000000001
 20
-40.600000000000001
 30
0.0
 11
3.8500000000000001
 21
-41.399999999999999
 31
0.0
  0
LINE
  5
40D
100
AcDbEntity
  8
0
  6
CONTINUOUS
 62
               4
100
AcDbLine
 10
8.1500000000000004
 20
-40.600000000000001
 30
0.0
 11
8.1500000000000004
 21
-41.399999999999999
 31
0.0
  0
LINE
  5
40E
100
AcDbEntity
  8
0
  6
CONTINUOUS
 62
               4
100
AcDbLine
 10
12.85
 20
-40.600000000000001
 30
0.0
 11
12.85
 21
-41.399999999999999
 31
0.0
  0
LINE
  5
40F
100
AcDbEntity
  8
0
  6
CONTINUOUS
 62
               4
100
AcDbLine
 10
17.149999999999999
 20
-40.600000000000001
 30
0.0
 11
17.149999999999999
 21
-41.399999999999999
 31
0.0
  0
LINE
  5
410
100
AcDbEntity
  8
0
  6
CONTINUOUS
 62
               4
100
AcDbLine
 10
12.050000000000001
 20
-35.200000000000003
 30
0.0
 11
12.050000000000001
 21
-40.600000000000001
 31
0.0
  0
LINE
  5
411
100
AcDbEntity
  8
0
  6
CONTINUOUS
 62
               4
100
AcDbLine
 10
17.949999999999999
 20
-35.200000000000003
 30
0.0
 11
17.949999999999999
 21
-40.600000000000001
 31
0.0
  0
LINE
  5
412
100
AcDbEntity
  8
0
  6
CONTINUOUS
 62
               4
100
AcDbLine
 10
8.9499999999999993
 20
-35.200000000000003
 30
0.0
 11
8.9499999999999993
 21
-40.600000000000001
 31
0.0
  0
LINE
  5
413
100
AcDbEntity
  8
0
  6
CONTINUOUS
 62
               4
100
AcDbLine
 10
3.0499999999999998
 20
-35.200000000000003
 30
0.0
 11
3.0499999999999998
 21
-40.600000000000001
 31
0.0
  0
LINE
  5
414
100
AcDbEntity
  8
0
  6
CONTINUOUS
 62
               4
100
AcDbLine
 10
8.1500000000000004
 20
-35.200000000000003
 30
0.0
 11
8.9499999999999993
 21
-35.200000000000003
 31
0.0
  0
LINE
  5
415
100
AcDbEntity
  8
0
  6
CONTINUOUS
 62
               4
100
AcDbLine
 10
3.0499999999999998
 20
-35.200000000000003
 30
0.0
 11
3.8500000000000001
 21
-35.200000000000003
 31
0.0
  0
LINE
  5
416
100
AcDbEntity
  8
0
  6
CONTINUOUS
 62
               4
100
AcDbLine
 10
3.0499999999999998
 20
-40.600000000000001
 30
0.0
 11
3.8500000000000001
 21
-40.600000000000001
 31
0.0
  0
LINE
  5
417
100
AcDbEntity
  8
0
  6
CONTINUOUS
 62
               4
100
AcDbLine
 10
8.1500000000000004
 20
-40.600000000000001
 30
0.0
 11
8.9499999999999993
 21
-40.600000000000001
 31
0.0
  0
LINE
  5
418
100
AcDbEntity
  8
0
  6
CONTINUOUS
 62
               4
100
AcDbLine
 10
12.050000000000001
 20
-40.600000000000001
 30
0.0
 11
12.85
 21
-40.600000000000001
 31
0.0
  0
LINE
  5
419
100
AcDbEntity
  8
0
  6
CONTINUOUS
 62
               4
100
AcDbLine
 10
17.149999999999999
 20
-40.600000000000001
 30
0.0
 11
17.949999999999999
 21
-40.600000000000001
 31
0.0
  0
LINE
  5
41A
100
AcDbEntity
  8
0
  6
CONTINUOUS
 62
               4
100
AcDbLine
 10
17.149999999999999
 20
-35.200000000000003
 30
0.0
 11
17.949999999999999
 21
-35.200000000000003
 31
0.0
  0
LINE
  5
41B
100
AcDbEntity
  8
0
  6
CONTINUOUS
 62
               4
100
AcDbLine
 10
12.050000000000001
 20
-35.200000000000003
 30
0.0
 11
12.85
 21
-35.200000000000003
 31
0.0
  0
LINE
  5
41C
100
AcDbEntity
  8
0
  6
CONTINUOUS
 62
               4
100
AcDbLine
 10
1.6000000000000001
 20
-23.850000000000001
 30
0.0
 11
1.6000000000000001
 21
-44.850000000000001
 31
0.0
  0
LINE
  5
41D
100
AcDbEntity
  8
0
  6
CONTINUOUS
 62
               4
100
AcDbLine
 10
19.399999999999999
 20
-23.850000000000001
 30
0.0
 11
19.399999999999999
 21
-44.850000000000001
 31
0.0
  0
LINE
  5
41E
100
AcDbEntity
  8
0
  6
CONTINUOUS
 62
               4
100
AcDbLine
 10
1.6000000000000001
 20
-23.850000000000001
 30
0.0
 11
19.399999999999999
 21
-23.850000000000001
 31
0.0
  0
LINE
  5
41F
100
AcDbEntity
  8
0
  6
CONTINUOUS
 62
               4
100
AcDbLine
 10
1.6000000000000001
 20
-44.850000000000001
 30
0.0
 11
19.399999999999999
 21
-44.850000000000001
 31
0.0
  0
LINE
  5
420
100
AcDbEntity
  8
0
  6
CONTINUOUS
 62
               4
100
AcDbLine
 10
2.0
 20
-21.600000000000001
 30
0.0
 11
19.0
 21
-21.600000000000001
 31
0.0
  0
LINE
  5
421
100
AcDbEntity
  8
0
  6
CONTINUOUS
 62
               4
100
AcDbLine
 10
2.0
 20
37.399999999999999
 30
0.0
 11
19.0
 21
37.399999999999999
 31
0.0
  0
LINE
  5
422
100
AcDbEntity
  8
0
  6
CONTINUOUS
 62
               4
100
AcDbLine
 10
19.0
 20
37.399999999999999
 30
0.0
 11
19.0
 21
-21.600000000000001
 31
0.0
  0
LINE
  5
423
100
AcDbEntity
  8
0
  6
CONTINUOUS
 62
               4
100
AcDbLine
 10
2.0
 20
37.399999999999999
 30
0.0
 11
2.0
 21
-21.600000000000001
 31
0.0
  0
LINE
  5
424
100
AcDbEntity
  8
0
  6
CONTINUOUS
 62
               4
100
AcDbLine
 10
4.9299999999999997
 20
-38.960000000000001
 30
0.0
 11
7.0599999999999996
 21
-36.829999999999998
 31
0.0
  0
LINE
  5
425
100
AcDbEntity
  8
0
  6
CONTINUOUS
 62
               4
100
AcDbLine
 10
4.9299999999999997
 20
-36.829999999999998
 30
0.0
 11
7.0599999999999996
 21
-38.960000000000001
 31
0.0
  0
LINE
  5
426
100
AcDbEntity
  8
0
  6
CONTINUOUS
 62
               4
100
AcDbLine
 10
13.93
 20
-38.960000000000001
 30
0.0
 11
16.059999999999999
 21
-36.829999999999998
 31
0.0
  0
LINE
  5
427
100
AcDbEntity
  8
0
  6
CONTINUOUS
 62
               4
100
AcDbLine
 10
13.93
 20
-36.829999999999998
 30
0.0
 11
16.059999999999999
 21
-38.960000000000001
 31
0.0
  0
LINE
  5
428
100
AcDbEntity
  8
0
  6
CONTINUOUS
 62
               4
100
AcDbLine
 10
19.5
 20
-44.600000000000001
 30
0.0
 11
21.0
 21
-44.600000000000001
 31
0.0
  0
LINE
  5
429
100
AcDbEntity
  8
0
  6
CONTINUOUS
 62
               4
100
AcDbLine
 10
15.0
 20
30.600000000000001
 30
0.0
 11
15.0
 21
-14.800000000000001
 31
0.0
  0
LINE
  5
42A
100
AcDbEntity
  8
0
  6
CONTINUOUS
 62
               4
100
AcDbLine
 10
6.0
 20
30.600000000000001
 30
0.0
 11
6.0
 21
-14.800000000000001
 31
0.0
  0
LINE
  5
42B
100
AcDbEntity
  8
0
  6
CONTINUOUS
 62
               4
100
AcDbLine
 10
6.5
 20
-14.550000000000001
 30
0.0
 11
15.0
 21
-14.550000000000001
 31
0.0
  0
LINE
  5
42C
100
AcDbEntity
  8
0
  6
CONTINUOUS
 62
               4
100
AcDbLine
 10
6.5
 20
30.350000000000001
 30
0.0
 11
15.0
 21
30.350000000000001
 31
0.0
  0
LINE
  5
42D
100
AcDbEntity
  8
0
  6
CONTINUOUS
 62
               4
100
AcDbLine
 10
6.5
 20
30.350000000000001
 30
0.0
 11
6.5
 21
-14.550000000000001
 31
0.0
  0
LINE
  5
42E
100
AcDbEntity
  8
0
  6
CONTINUOUS
 62
               4
100
AcDbLine
 10
8.75
 20
29.350000000000001
 30
0.0
 11
12.75
 21
29.350000000000001
 31
0.0
  0
LINE
  5
42F
100
AcDbEntity
  8
0
  6
CONTINUOUS
 62
               4
100
AcDbLine
 10
8.75
 20
-13.550000000000001
 30
0.0
 11
12.75
 21
-13.550000000000001
 31
0.0
  0
LINE
  5
430
100
AcDbEntity
  8
0
  6
CONTINUOUS
 62
               4
100
AcDbLine
 10
6.5
 20
23.350000000000001
 30
0.0
 11
8.75
 21
23.350000000000001
 31
0.0
  0
LINE
  5
431
100
AcDbEntity
  8
0
  6
CONTINUOUS
 62
               4
100
AcDbLine
 10
6.5
 20
-7.5499999999999998
 30
0.0
 11
8.75
 21
-7.5499999999999998
 31
0.0
  0
LINE
  5
432
100
AcDbEntity
  8
0
  6
CONTINUOUS
 62
               4
100
AcDbLine
 10
8.75
 20
-4.5499999999999998
 30
0.0
 11
12.75
 21
-4.5499999999999998
 31
0.0
  0
LINE
  5
433
100
AcDbEntity
  8
0
  6
CONTINUOUS
 62
               4
100
AcDbLine
 10
8.75
 20
20.350000000000001
 30
0.0
 11
12.75
 21
20.350000000000001
 31
0.0
  0
LINE
  5
434
100
AcDbEntity
  8
0
  6
CONTINUOUS
 62
               4
100
AcDbLine
 10
12.75
 20
23.350000000000001
 30
0.0
 11
15.0
 21
23.350000000000001
 31
0.0
  0
LINE
  5
435
100
AcDbEntity
  8
0
  6
CONTINUOUS
 62
               4
100
AcDbLine
 10
12.75
 20
-7.5499999999999998
 30
0.0
 11
15.0
 21
-7.5499999999999998
 31
0.0
  0
LINE
  5
436
100
AcDbEntity
  8
0
  6
CONTINUOUS
 62
               4
100
AcDbLine
 10
7.5
 20
23.350000000000001
 30
0.0
 11
7.5
 21
-7.5499999999999998
 31
0.0
  0
LINE
  5
437
100
AcDbEntity
  8
0
  6
CONTINUOUS
 62
               4
100
AcDbLine
 10
14.0
 20
23.350000000000001
 30
0.0
 11
14.0
 21
9.9000000000000004
 31
0.0
  0
LINE
  5
438
100
AcDbEntity
  8
0
  6
CONTINUOUS
 62
               4
100
AcDbLine
 10
6.5
 20
24.350000000000001
 30
0.0
 11
8.75
 21
24.350000000000001
 31
0.0
  0
LINE
  5
439
100
AcDbEntity
  8
0
  6
CONTINUOUS
 62
               4
100
AcDbLine
 10
12.75
 20
24.350000000000001
 30
0.0
 11
15.0
 21
24.350000000000001
 31
0.0
  0
LINE
  5
43A
100
AcDbEntity
  8
0
  6
CONTINUOUS
 62
               4
100
AcDbLine
 10
12.75
 20
-8.5500000000000007
 30
0.0
 11
15.0
 21
-8.5500000000000007
 31
0.0
  0
LINE
  5
43B
100
AcDbEntity
  8
0
  6
CONTINUOUS
 62
               4
100
AcDbLine
 10
6.5
 20
-8.5500000000000007
 30
0.0
 11
8.75
 21
-8.5500000000000007
 31
0.0
  0
LINE
  5
43C
100
AcDbEntity
  8
0
  6
CONTINUOUS
 62
               4
100
AcDbLine
 10
12.75
 20
-4.5499999999999998
 30
0.0
 11
12.75
 21
-14.550000000000001
 31
0.0
  0
LINE
  5
43D
100
AcDbEntity
  8
0
  6
CONTINUOUS
 62
               4
100
AcDbLine
 10
8.75
 20
-4.5499999999999998
 30
0.0
 11
8.75
 21
-14.550000000000001
 31
0.0
  0
LINE
  5
43E
100
AcDbEntity
  8
0
  6
CONTINUOUS
 62
               4
100
AcDbLine
 10
8.75
 20
30.350000000000001
 30
0.0
 11
8.75
 21
20.350000000000001
 31
0.0
  0
LINE
  5
43F
100
AcDbEntity
  8
0
  6
CONTINUOUS
 62
               4
100
AcDbLine
 10
12.75
 20
30.350000000000001
 30
0.0
 11
12.75
 21
20.350000000000001
 31
0.0
  0
LINE
  5
440
100
AcDbEntity
  8
0
  6
CONTINUOUS
 62
               4
100
AcDbLine
 10
6.5
 20
25.850000000000001
 30
0.0
 11
8.75
 21
25.850000000000001
 31
0.0
  0
LINE
  5
441
100
AcDbEntity
  8
0
  6
CONTINUOUS
 62
               4
100
AcDbLine
 10
12.75
 20
25.850000000000001
 30
0.0
 11
15.0
 21
25.850000000000001
 31
0.0
  0
LINE
  5
442
100
AcDbEntity
  8
0
  6
CONTINUOUS
 62
               4
100
AcDbLine
 10
6.5
 20
-10.050000000000001
 30
0.0
 11
8.75
 21
-10.050000000000001
 31
0.0
  0
LINE
  5
443
100
AcDbEntity
  8
0
  6
CONTINUOUS
 62
               4
100
AcDbLine
 10
12.75
 20
-10.050000000000001
 30
0.0
 11
15.0
 21
-10.050000000000001
 31
0.0
  0
LINE
  5
444
100
AcDbEntity
  8
0
  6
CONTINUOUS
 62
               4
100
AcDbLine
 10
6.5
 20
-11.300000000000001
 30
0.0
 11
8.75
 21
-11.300000000000001
 31
0.0
  0
LINE
  5
445
100
AcDbEntity
  8
0
  6
CONTINUOUS
 62
               4
100
AcDbLine
 10
12.75
 20
-11.300000000000001
 30
0.0
 11
15.0
 21
-11.300000000000001
 31
0.0
  0
LINE
  5
446
100
AcDbEntity
  8
0
  6
CONTINUOUS
 62
               4
100
AcDbLine
 10
6.5
 20
27.100000000000001
 30
0.0
 11
8.75
 21
27.100000000000001
 31
0.0
  0
LINE
  5
447
100
AcDbEntity
  8
0
  6
CONTINUOUS
 62
               4
100
AcDbLine
 10
12.75
 20
27.100000000000001
 30
0.0
 11
15.0
 21
27.100000000000001
 31
0.0
  0
LINE
  5
448
100
AcDbEntity
  8
0
  6
CONTINUOUS
 62
               4
100
AcDbLine
 10
13.0
 20
9.9000000000000004
 30
0.0
 11
15.0
 21
9.9000000000000004
 31
0.0
  0
LINE
  5
449
100
AcDbEntity
  8
0
  6
CONTINUOUS
 62
               4
100
AcDbLine
 10
13.0
 20
5.9000000000000004
 30
0.0
 11
15.0
 21
5.9000000000000004
 31
0.0
  0
LINE
  5
44A
100
AcDbEntity
  8
0
  6
CONTINUOUS
 62
               4
100
AcDbLine
 10
13.0
 20
9.9000000000000004
 30
0.0
 11
13.0
 21
5.9000000000000004
 31
0.0
  0
LINE
  5
44B
100
AcDbEntity
  8
0
  6
CONTINUOUS
 62
               4
100
AcDbLine
 10
14.0
 20
5.9000000000000004
 30
0.0
 11
14.0
 21
-7.5499999999999998
 31
0.0
  0
LINE
  5
44C
100
AcDbEntity
  8
0
  6
CONTINUOUS
 62
               4
100
AcDbLine
 10
8.75
 20
21.350000000000001
 30
0.0
 11
12.75
 21
21.350000000000001
 31
0.0
  0
LINE
  5
44D
100
AcDbEntity
  8
0
  6
CONTINUOUS
 62
               4
100
AcDbLine
 10
8.75
 20
-5.5499999999999998
 30
0.0
 11
12.75
 21
-5.5499999999999998
 31
0.0
  0
LINE
  5
44E
100
AcDbEntity
  8
0
  6
CONTINUOUS
 62
               4
100
AcDbLine
 10
8.75
 20
26.850000000000001
 30
0.0
 11
12.75
 21
26.850000000000001
 31
0.0
  0
LINE
  5
44F
100
AcDbEntity
  8
0
  6
CONTINUOUS
 62
               4
100
AcDbLine
 10
8.75
 20
-11.050000000000001
 30
0.0
 11
12.75
 21
-11.050000000000001
 31
0.0
  0
LINE
  5
450
100
AcDbEntity
  8
0
  6
CONTINUOUS
 62
               4
100
AcDbLine
 10
8.75
 20
-10.25
 30
0.0
 11
12.75
 21
-10.25
 31
0.0
  0
LINE
  5
451
100
AcDbEntity
  8
0
  6
CONTINUOUS
 62
               4
100
AcDbLine
 10
8.75
 20
26.050000000000001
 30
0.0
 11
12.75
 21
26.050000000000001
 31
0.0
  0
LINE
  5
452
100
AcDbEntity
  8
0
  6
CONTINUOUS
 62
               4
100
AcDbLine
 10
8.75
 20
25.75
 30
0.0
 11
12.75
 21
25.75
 31
0.0
  0
LINE
  5
453
100
AcDbEntity
  8
0
  6
CONTINUOUS
 62
               4
100
AcDbLine
 10
8.75
 20
25.449999999999999
 30
0.0
 11
12.75
 21
25.449999999999999
 31
0.0
  0
LINE
  5
454
100
AcDbEntity
  8
0
  6
CONTINUOUS
 62
               4
100
AcDbLine
 10
8.75
 20
25.149999999999999
 30
0.0
 11
12.75
 21
25.149999999999999
 31
0.0
  0
LINE
  5
455
100
AcDbEntity
  8
0
  6
CONTINUOUS
 62
               4
100
AcDbLine
 10
8.75
 20
24.850000000000001
 30
0.0
 11
12.75
 21
24.850000000000001
 31
0.0
  0
LINE
  5
456
100
AcDbEntity
  8
0
  6
CONTINUOUS
 62
               4
100
AcDbLine
 10
8.75
 20
24.550000000000001
 30
0.0
 11
12.75
 21
24.550000000000001
 31
0.0
  0
LINE
  5
457
100
AcDbEntity
  8
0
  6
CONTINUOUS
 62
               4
100
AcDbLine
 10
8.75
 20
24.25
 30
0.0
 11
12.75
 21
24.25
 31
0.0
  0
LINE
  5
458
100
AcDbEntity
  8
0
  6
CONTINUOUS
 62
               4
100
AcDbLine
 10
8.75
 20
23.949999999999999
 30
0.0
 11
12.75
 21
23.949999999999999
 31
0.0
  0
LINE
  5
459
100
AcDbEntity
  8
0
  6
CONTINUOUS
 62
               4
100
AcDbLine
 10
8.75
 20
-9.9499999999999993
 30
0.0
 11
12.75
 21
-9.9499999999999993
 31
0.0
  0
LINE
  5
45A
100
AcDbEntity
  8
0
  6
CONTINUOUS
 62
               4
100
AcDbLine
 10
8.75
 20
-9.6500000000000004
 30
0.0
 11
12.75
 21
-9.6500000000000004
 31
0.0
  0
LINE
  5
45B
100
AcDbEntity
  8
0
  6
CONTINUOUS
 62
               4
100
AcDbLine
 10
8.75
 20
-9.3499999999999996
 30
0.0
 11
12.75
 21
-9.3499999999999996
 31
0.0
  0
LINE
  5
45C
100
AcDbEntity
  8
0
  6
CONTINUOUS
 62
               4
100
AcDbLine
 10
8.75
 20
-9.0500000000000007
 30
0.0
 11
12.75
 21
-9.0500000000000007
 31
0.0
  0
LINE
  5
45D
100
AcDbEntity
  8
0
  6
CONTINUOUS
 62
               4
100
AcDbLine
 10
8.75
 20
-8.75
 30
0.0
 11
12.75
 21
-8.75
 31
0.0
  0
LINE
  5
45E
100
AcDbEntity
  8
0
  6
CONTINUOUS
 62
               4
100
AcDbLine
 10
8.75
 20
-8.4499999999999993
 30
0.0
 11
12.75
 21
-8.4499999999999993
 31
0.0
  0
LINE
  5
45F
100
AcDbEntity
  8
0
  6
CONTINUOUS
 62
               4
100
AcDbLine
 10
8.75
 20
-8.1500000000000004
 30
0.0
 11
12.75
 21
-8.1500000000000004
 31
0.0
  0
LINE
  5
460
100
AcDbEntity
  8
0
  6
CONTINUOUS
 62
               4
100
AcDbLine
 10
6.0
 20
30.600000000000001
 30
0.0
 11
15.0
 21
30.600000000000001
 31
0.0
  0
LINE
  5
461
100
AcDbEntity
  8
0
  6
CONTINUOUS
 62
               4
100
AcDbLine
 10
6.0
 20
-14.800000000000001
 30
0.0
 11
15.0
 21
-14.800000000000001
 31
0.0
  0
CIRCLE
  5
462
100
AcDbEntity
  8
0
  6
CONTINUOUS
 62
               4
100
AcDbCircle
 10
15.0
 20
-37.9000244140625
 30
0.0
 40
2.7999992370605469
  0
CIRCLE
  5
463
100
AcDbEntity
  8
0
  6
CONTINUOUS
 62
               4
100
AcDbCircle
 10
10.5
 20
42.899978637695313
 30
0.0
 40
2.7999992370605469
  0
CIRCLE
  5
464
100
AcDbEntity
  8
0
  6
CONTINUOUS
 62
               4
100
AcDbCircle
 10
16.0
 20
-28.100021362304687
 30
0.0
 40
1.5999994277954102
  0
CIRCLE
  5
465
100
AcDbEntity
  8
0
  6
CONTINUOUS
 62
               4
100
AcDbCircle
 10
16.0
 20
-28.100021362304687
 30
0.0
 40
1.5
  0
CIRCLE
  5
466
100
AcDbEntity
  8
0
  6
CONTINUOUS
 62
               4
100
AcDbCircle
 10
6.0
 20
-37.9000244140625
 30
0.0
 40
2.7999992370605469
  0
CIRCLE
  5
467
100
AcDbEntity
  8
0
  6
CONTINUOUS
 62
               4
100
AcDbCircle
 10
9.6999893188476563
 20
-3.5300140380859375
 30
0.0
 40
0.3199996948242188
  0
CIRCLE
  5
468
100
AcDbEntity
  8
0
  6
CONTINUOUS
 62
               4
100
AcDbCircle
 10
12.239997863769531
 20
-3.5300140380859375
 30
0.0
 40
0.3199996948242188
  0
CIRCLE
  5
469
100
AcDbEntity
  8
0
  6
CONTINUOUS
 62
               4
100
AcDbCircle
 10
9.6999893188476563
 20
19.329986572265625
 30
0.0
 40
0.3199996948242188
  0
CIRCLE
  5
46A
100
AcDbEntity
  8
0
  6
CONTINUOUS
 62
               4
100
AcDbCircle
 10
12.239997863769531
 20
19.329986572265625
 30
0.0
 40
0.3199996948242188
  0
CIRCLE
  5
46B
100
AcDbEntity
  8
0
  6
CONTINUOUS
 62
               4
100
AcDbCircle
 10
9.6999893188476563
 20
16.78997802734375
 30
0.0
 40
0.3199996948242188
  0
CIRCLE
  5
46C
100
AcDbEntity
  8
0
  6
CONTINUOUS
 62
               4
100
AcDbCircle
 10
12.239997863769531
 20
16.78997802734375
 30
0.0
 40
0.3199996948242188
  0
CIRCLE
  5
46D
100
AcDbEntity
  8
0
  6
CONTINUOUS
 62
               4
100
AcDbCircle
 10
9.6999893188476563
 20
14.249969482421875
 30
0.0
 40
0.3199996948242188
  0
CIRCLE
  5
46E
100
AcDbEntity
  8
0
  6
CONTINUOUS
 62
               4
100
AcDbCircle
 10
12.239997863769531
 20
14.249969482421875
 30
0.0
 40
0.3199996948242188
  0
CIRCLE
  5
46F
100
AcDbEntity
  8
0
  6
CONTINUOUS
 62
               4
100
AcDbCircle
 10
9.6999893188476563
 20
11.709976196289063
 30
0.0
 40
0.3199996948242188
  0
CIRCLE
  5
470
100
AcDbEntity
  8
0
  6
CONTINUOUS
 62
               4
100
AcDbCircle
 10
12.239997863769531
 20
11.709976196289063
 30
0.0
 40
0.3199996948242188
  0
CIRCLE
  5
471
100
AcDbEntity
  8
0
  6
CONTINUOUS
 62
               4
100
AcDbCircle
 10
9.6999893188476563
 20
9.16998291015625
 30
0.0
 40
0.3199996948242188
  0
CIRCLE
  5
472
100
AcDbEntity
  8
0
  6
CONTINUOUS
 62
               4
100
AcDbCircle
 10
12.239997863769531
 20
9.16998291015625
 30
0.0
 40
0.3199996948242188
  0
CIRCLE
  5
473
100
AcDbEntity
  8
0
  6
CONTINUOUS
 62
               4
100
AcDbCircle
 10
9.6999893188476563
 20
6.6299896240234375
 30
0.0
 40
0.3199996948242188
  0
CIRCLE
  5
474
100
AcDbEntity
  8
0
  6
CONTINUOUS
 62
               4
100
AcDbCircle
 10
12.239997863769531
 20
6.6299896240234375
 30
0.0
 40
0.3199996948242188
  0
CIRCLE
  5
475
100
AcDbEntity
  8
0
  6
CONTINUOUS
 62
               4
100
AcDbCircle
 10
9.6999893188476563
 20
4.089996337890625
 30
0.0
 40
0.3199996948242188
  0
CIRCLE
  5
476
100
AcDbEntity
  8
0
  6
CONTINUOUS
 62
               4
100
AcDbCircle
 10
12.239997863769531
 20
4.089996337890625
 30
0.0
 40
0.3199996948242188
  0
CIRCLE
  5
477
100
AcDbEntity
  8
0
  6
CONTINUOUS
 62
               4
100
AcDbCircle
 10
9.6999893188476563
 20
1.54998779296875
 30
0.0
 40
0.3199996948242188
  0
CIRCLE
  5
478
100
AcDbEntity
  8
0
  6
CONTINUOUS
 62
               4
100
AcDbCircle
 10
12.239997863769531
 20
1.54998779296875
 30
0.0
 40
0.3199996948242188
  0
CIRCLE
  5
479
100
AcDbEntity
  8
0
  6
CONTINUOUS
 62
               4
100
AcDbCircle
 10
9.6999893188476563
 20
-0.990020751953125
 30
0.0
 40
0.3199996948242188
  0
CIRCLE
  5
47A
100
AcDbEntity
  8
0
  6
CONTINUOUS
 62
               4
100
AcDbCircle
 10
12.239997863769531
 20
-0.990020751953125
 30
0.0
 40
0.3199996948242188
  0
ENDBLK
  5
47B
100
AcDbEntity
  8
0
100
AcDbBlockEnd
  0
BLOCK
  5
47C
100
AcDbEntity
  8
0
100
AcDbBlockBegin
  2
F15_CONNECTER-12
 70
               0
 10
0.0
 20
0.0
 30
0.0
  3
F15_CONNECTER-12
  1

  0
LINE
  5
47D
100
AcDbEntity
  8
0
  6
CONTINUOUS
 62
               4
100
AcDbLine
 10
59.0
 20
59.899999999999999
 30
0.0
 11
59.0
 21
48.899999999999999
 31
0.0
  0
LINE
  5
47E
100
AcDbEntity
  8
0
  6
CONTINUOUS
 62
               4
100
AcDbLine
 10
49.0
 20
48.899999999999999
 30
0.0
 11
59.0
 21
48.899999999999999
 31
0.0
  0
LINE
  5
47F
100
AcDbEntity
  8
0
  6
CONTINUOUS
 62
               4
100
AcDbLine
 10
49.0
 20
60.399999999999999
 30
0.0
 11
58.5
 21
60.399999999999999
 31
0.0
  0
LINE
  5
480
100
AcDbEntity
  8
0
  6
CONTINUOUS
 62
               4
100
AcDbLine
 10
59.0
 20
48.399999999999999
 30
0.0
 11
59.0
 21
-44.600000000000001
 31
0.0
  0
LINE
  5
481
100
AcDbEntity
  8
0
  6
CONTINUOUS
 62
               4
100
AcDbLine
 10
47.5
 20
-44.600000000000001
 30
0.0
 11
59.0
 21
-44.600000000000001
 31
0.0
  0
LINE
  5
482
100
AcDbEntity
  8
0
  6
CONTINUOUS
 62
               4
100
AcDbLine
 10
49.0
 20
48.399999999999999
 30
0.0
 11
59.0
 21
48.399999999999999
 31
0.0
  0
LINE
  5
483
100
AcDbEntity
  8
0
  6
CONTINUOUS
 62
               4
100
AcDbLine
 10
67.5
 20
24.350000000000001
 30
0.0
 11
67.5
 21
23.719999999999999
 31
0.0
  0
LINE
  5
484
100
AcDbEntity
  8
0
  6
CONTINUOUS
 62
               4
100
AcDbLine
 10
59.0
 20
-14.550000000000001
 30
0.0
 11
70.760000000000005
 21
-10.050000000000001
 31
0.0
  0
LINE
  5
485
100
AcDbEntity
  8
0
  6
CONTINUOUS
 62
               4
100
AcDbLine
 10
64.0
 20
21.210000000000001
 30
0.0
 11
64.0
 21
-5.4100000000000001
 31
0.0
  0
LINE
  5
486
100
AcDbEntity
  8
0
  6
CONTINUOUS
 62
               4
100
AcDbLine
 10
70.760000000000005
 20
25.850000000000001
 30
0.0
 11
59.0
 21
30.350000000000001
 31
0.0
  0
LINE
  5
487
100
AcDbEntity
  8
0
  6
CONTINUOUS
 62
               4
100
AcDbLine
 10
65.079999999999998
 20
22.66
 30
0.0
 11
67.129999999999995
 21
23.239999999999998
 31
0.0
  0
LINE
  5
488
100
AcDbEntity
  8
0
  6
CONTINUOUS
 62
               4
100
AcDbLine
 10
65.079999999999998
 20
-6.8600000000000003
 30
0.0
 11
67.129999999999995
 21
-7.4400000000000004
 31
0.0
  0
LINE
  5
489
100
AcDbEntity
  8
0
  6
CONTINUOUS
 62
               4
100
AcDbLine
 10
67.5
 20
-7.9199999999999999
 30
0.0
 11
67.5
 21
-8.5500000000000007
 31
0.0
  0
LINE
  5
48A
100
AcDbEntity
  8
0
  6
CONTINUOUS
 62
               4
100
AcDbLine
 10
67.0
 20
-10.44
 30
0.0
 11
67.0
 21
-10.800000000000001
 31
0.0
  0
LINE
  5
48B
100
AcDbEntity
  8
0
  6
CONTINUOUS
 62
               4
100
AcDbLine
 10
67.0
 20
26.600000000000001
 30
0.0
 11
67.0
 21
26.239999999999998
 31
0.0
  0
LINE
  5
48C
100
AcDbEntity
  8
0
  6
CONTINUOUS
 62
               4
100
AcDbLine
 10
67.0
 20
-8.5500000000000007
 30
0.0
 11
67.5
 21
-8.5500000000000007
 31
0.0
  0
LINE
  5
48D
100
AcDbEntity
  8
0
  6
CONTINUOUS
 62
               4
100
AcDbLine
 10
67.0
 20
24.350000000000001
 30
0.0
 11
67.5
 21
24.350000000000001
 31
0.0
  0
LINE
  5
48E
100
AcDbEntity
  8
0
  6
CONTINUOUS
 62
               4
100
AcDbLine
 10
67.319999999999993
 20
-7.5499999999999998
 30
0.0
 11
73.5
 21
-7.5499999999999998
 31
0.0
  0
LINE
  5
48F
100
AcDbEntity
  8
0
  6
CONTINUOUS
 62
               4
100
AcDbLine
 10
67.319999999999993
 20
23.350000000000001
 30
0.0
 11
73.5
 21
23.350000000000001
 31
0.0
  0
LINE
  5
490
100
AcDbEntity
  8
0
  6
CONTINUOUS
 62
               4
100
AcDbLine
 10
70.760000000000005
 20
-10.050000000000001
 30
0.0
 11
74.319999999999993
 21
-10.050000000000001
 31
0.0
  0
LINE
  5
491
100
AcDbEntity
  8
0
  6
CONTINUOUS
 62
               4
100
AcDbLine
 10
70.760000000000005
 20
25.850000000000001
 30
0.0
 11
74.319999999999993
 21
25.850000000000001
 31
0.0
  0
LINE
  5
492
100
AcDbEntity
  8
0
  6
CONTINUOUS
 62
               4
100
AcDbLine
 10
68.0
 20
-7.5499999999999998
 30
0.0
 11
68.0
 21
-11.1
 31
0.0
  0
LINE
  5
493
100
AcDbEntity
  8
0
  6
CONTINUOUS
 62
               4
100
AcDbLine
 10
68.0
 20
26.899999999999999
 30
0.0
 11
68.0
 21
23.350000000000001
 31
0.0
  0
LINE
  5
494
100
AcDbEntity
  8
0
  6
CONTINUOUS
 62
               4
100
AcDbLine
 10
73.5
 20
23.350000000000001
 30
0.0
 11
73.5
 21
22.350000000000001
 31
0.0
  0
LINE
  5
495
100
AcDbEntity
  8
0
  6
CONTINUOUS
 62
               4
100
AcDbLine
 10
73.5
 20
-6.5499999999999998
 30
0.0
 11
73.5
 21
-7.5499999999999998
 31
0.0
  0
LINE
  5
496
100
AcDbEntity
  8
0
  6
CONTINUOUS
 62
               4
100
AcDbLine
 10
73.5
 20
21.350000000000001
 30
0.0
 11
73.689999999999998
 21
21.350000000000001
 31
0.0
  0
LINE
  5
497
100
AcDbEntity
  8
0
  6
CONTINUOUS
 62
               4
100
AcDbLine
 10
73.5
 20
-5.5499999999999998
 30
0.0
 11
73.689999999999998
 21
-5.5499999999999998
 31
0.0
  0
LINE
  5
498
100
AcDbEntity
  8
0
  6
CONTINUOUS
 62
               4
100
AcDbLine
 10
74.129999999999995
 20
-5.8200000000000003
 30
0.0
 11
75.0
 21
-7.5499999999999998
 31
0.0
  0
LINE
  5
499
100
AcDbEntity
  8
0
  6
CONTINUOUS
 62
               4
100
AcDbLine
 10
74.129999999999995
 20
21.620000000000001
 30
0.0
 11
75.0
 21
23.350000000000001
 31
0.0
  0
LINE
  5
49A
100
AcDbEntity
  8
0
  6
CONTINUOUS
 62
               4
100
AcDbLine
 10
75.0
 20
23.350000000000001
 30
0.0
 11
75.5
 21
23.949999999999999
 31
0.0
  0
LINE
  5
49B
100
AcDbEntity
  8
0
  6
CONTINUOUS
 62
               4
100
AcDbLine
 10
75.0
 20
-7.5499999999999998
 30
0.0
 11
75.5
 21
-8.1500000000000004
 31
0.0
  0
LINE
  5
49C
100
AcDbEntity
  8
0
  6
CONTINUOUS
 62
               4
100
AcDbLine
 10
74.319999999999993
 20
-10.050000000000001
 30
0.0
 11
77.0
 21
-11.02
 31
0.0
  0
LINE
  5
49D
100
AcDbEntity
  8
0
  6
CONTINUOUS
 62
               4
100
AcDbLine
 10
74.319999999999993
 20
25.850000000000001
 30
0.0
 11
77.0
 21
26.82
 31
0.0
  0
LINE
  5
49E
100
AcDbEntity
  8
0
  6
CONTINUOUS
 62
               4
100
AcDbLine
 10
75.5
 20
23.949999999999999
 30
0.0
 11
75.75
 21
23.949999999999999
 31
0.0
  0
LINE
  5
49F
100
AcDbEntity
  8
0
  6
CONTINUOUS
 62
               4
100
AcDbLine
 10
75.75
 20
24.25
 30
0.0
 11
76.0
 21
24.25
 31
0.0
  0
LINE
  5
4A0
100
AcDbEntity
  8
0
  6
CONTINUOUS
 62
               4
100
AcDbLine
 10
76.0
 20
24.550000000000001
 30
0.0
 11
76.25
 21
24.550000000000001
 31
0.0
  0
LINE
  5
4A1
100
AcDbEntity
  8
0
  6
CONTINUOUS
 62
               4
100
AcDbLine
 10
76.25
 20
24.850000000000001
 30
0.0
 11
76.5
 21
24.850000000000001
 31
0.0
  0
LINE
  5
4A2
100
AcDbEntity
  8
0
  6
CONTINUOUS
 62
               4
100
AcDbLine
 10
76.5
 20
25.149999999999999
 30
0.0
 11
76.75
 21
25.149999999999999
 31
0.0
  0
LINE
  5
4A3
100
AcDbEntity
  8
0
  6
CONTINUOUS
 62
               4
100
AcDbLine
 10
76.75
 20
25.449999999999999
 30
0.0
 11
77.0
 21
25.449999999999999
 31
0.0
  0
LINE
  5
4A4
100
AcDbEntity
  8
0
  6
CONTINUOUS
 62
               4
100
AcDbLine
 10
77.0
 20
25.75
 30
0.0
 11
77.25
 21
25.75
 31
0.0
  0
LINE
  5
4A5
100
AcDbEntity
  8
0
  6
CONTINUOUS
 62
               4
100
AcDbLine
 10
75.75
 20
24.25
 30
0.0
 11
75.75
 21
23.949999999999999
 31
0.0
  0
LINE
  5
4A6
100
AcDbEntity
  8
0
  6
CONTINUOUS
 62
               4
100
AcDbLine
 10
76.0
 20
24.550000000000001
 30
0.0
 11
76.0
 21
24.25
 31
0.0
  0
LINE
  5
4A7
100
AcDbEntity
  8
0
  6
CONTINUOUS
 62
               4
100
AcDbLine
 10
76.25
 20
24.850000000000001
 30
0.0
 11
76.25
 21
24.550000000000001
 31
0.0
  0
LINE
  5
4A8
100
AcDbEntity
  8
0
  6
CONTINUOUS
 62
               4
100
AcDbLine
 10
76.5
 20
25.149999999999999
 30
0.0
 11
76.5
 21
24.850000000000001
 31
0.0
  0
LINE
  5
4A9
100
AcDbEntity
  8
0
  6
CONTINUOUS
 62
               4
100
AcDbLine
 10
76.75
 20
25.449999999999999
 30
0.0
 11
76.75
 21
25.149999999999999
 31
0.0
  0
LINE
  5
4AA
100
AcDbEntity
  8
0
  6
CONTINUOUS
 62
               4
100
AcDbLine
 10
77.0
 20
25.75
 30
0.0
 11
77.0
 21
25.449999999999999
 31
0.0
  0
LINE
  5
4AB
100
AcDbEntity
  8
0
  6
CONTINUOUS
 62
               4
100
AcDbLine
 10
77.25
 20
26.050000000000001
 30
0.0
 11
77.409999999999997
 21
26.239999999999998
 31
0.0
  0
LINE
  5
4AC
100
AcDbEntity
  8
0
  6
CONTINUOUS
 62
               4
100
AcDbLine
 10
77.25
 20
26.050000000000001
 30
0.0
 11
77.25
 21
25.75
 31
0.0
  0
LINE
  5
4AD
100
AcDbEntity
  8
0
  6
CONTINUOUS
 62
               4
100
AcDbLine
 10
75.5
 20
-8.1500000000000004
 30
0.0
 11
75.75
 21
-8.1500000000000004
 31
0.0
  0
LINE
  5
4AE
100
AcDbEntity
  8
0
  6
CONTINUOUS
 62
               4
100
AcDbLine
 10
75.75
 20
-8.4499999999999993
 30
0.0
 11
76.0
 21
-8.4499999999999993
 31
0.0
  0
LINE
  5
4AF
100
AcDbEntity
  8
0
  6
CONTINUOUS
 62
               4
100
AcDbLine
 10
76.0
 20
-8.75
 30
0.0
 11
76.25
 21
-8.75
 31
0.0
  0
LINE
  5
4B0
100
AcDbEntity
  8
0
  6
CONTINUOUS
 62
               4
100
AcDbLine
 10
76.25
 20
-9.0500000000000007
 30
0.0
 11
76.5
 21
-9.0500000000000007
 31
0.0
  0
LINE
  5
4B1
100
AcDbEntity
  8
0
  6
CONTINUOUS
 62
               4
100
AcDbLine
 10
76.5
 20
-9.3499999999999996
 30
0.0
 11
76.75
 21
-9.3499999999999996
 31
0.0
  0
LINE
  5
4B2
100
AcDbEntity
  8
0
  6
CONTINUOUS
 62
               4
100
AcDbLine
 10
76.75
 20
-9.6500000000000004
 30
0.0
 11
77.0
 21
-9.6500000000000004
 31
0.0
  0
LINE
  5
4B3
100
AcDbEntity
  8
0
  6
CONTINUOUS
 62
               4
100
AcDbLine
 10
77.0
 20
-9.9499999999999993
 30
0.0
 11
77.25
 21
-9.9499999999999993
 31
0.0
  0
LINE
  5
4B4
100
AcDbEntity
  8
0
  6
CONTINUOUS
 62
               4
100
AcDbLine
 10
77.25
 20
-9.9499999999999993
 30
0.0
 11
77.25
 21
-10.25
 31
0.0
  0
LINE
  5
4B5
100
AcDbEntity
  8
0
  6
CONTINUOUS
 62
               4
100
AcDbLine
 10
77.0
 20
-9.6500000000000004
 30
0.0
 11
77.0
 21
-9.9499999999999993
 31
0.0
  0
LINE
  5
4B6
100
AcDbEntity
  8
0
  6
CONTINUOUS
 62
               4
100
AcDbLine
 10
76.75
 20
-9.3499999999999996
 30
0.0
 11
76.75
 21
-9.6500000000000004
 31
0.0
  0
LINE
  5
4B7
100
AcDbEntity
  8
0
  6
CONTINUOUS
 62
               4
100
AcDbLine
 10
76.5
 20
-9.0500000000000007
 30
0.0
 11
76.5
 21
-9.3499999999999996
 31
0.0
  0
LINE
  5
4B8
100
AcDbEntity
  8
0
  6
CONTINUOUS
 62
               4
100
AcDbLine
 10
76.25
 20
-8.75
 30
0.0
 11
76.25
 21
-9.0500000000000007
 31
0.0
  0
LINE
  5
4B9
100
AcDbEntity
  8
0
  6
CONTINUOUS
 62
               4
100
AcDbLine
 10
76.0
 20
-8.4499999999999993
 30
0.0
 11
76.0
 21
-8.75
 31
0.0
  0
LINE
  5
4BA
100
AcDbEntity
  8
0
  6
CONTINUOUS
 62
               4
100
AcDbLine
 10
75.75
 20
-8.1500000000000004
 30
0.0
 11
75.75
 21
-8.4499999999999993
 31
0.0
  0
LINE
  5
4BB
100
AcDbEntity
  8
0
  6
CONTINUOUS
 62
               4
100
AcDbLine
 10
77.25
 20
-10.25
 30
0.0
 11
77.409999999999997
 21
-10.44
 31
0.0
  0
ARC
  5
4BC
100
AcDbEntity
  8
0
  6
CONTINUOUS
 62
               4
100
AcDbCircle
 10
58.499989318733569
 20
59.899989318733567
 30
0.0
 40
0.5000106813805171
100
AcDbArc
 50
0.0012239568257363
 51
89.998776043174061
  0
ARC
  5
4BD
100
AcDbEntity
  8
0
  6
CONTINUOUS
 62
               4
100
AcDbCircle
 10
65.500692240355832
 20
21.21944991752807
 30
0.0
 40
1.5007219933103859
100
AcDbArc
 50
106.27969604670311
 51
180.36078898803527
  0
ARC
  5
4BE
100
AcDbEntity
  8
0
  6
CONTINUOUS
 62
               4
100
AcDbCircle
 10
65.500671756015393
 20
-5.4194651748299103
 30
0.0
 40
1.5007016055288611
100
AcDbArc
 50
179.63862358529411
 51
253.72089137996613
  0
ARC
  5
4BF
100
AcDbEntity
  8
0
  6
CONTINUOUS
 62
               4
100
AcDbCircle
 10
66.997906436742284
 20
23.724426288344489
 30
0.0
 40
0.5021130732149299
100
AcDbArc
 50
285.25262000145807
 51
359.49491272120031
  0
ARC
  5
4C0
100
AcDbEntity
  8
0
  6
CONTINUOUS
 62
               4
100
AcDbCircle
 10
66.997885632155374
 20
-7.9244423252135618
 30
0.0
 40
0.5021340186138608
100
AcDbArc
 50
0.5068961608551554
 51
74.745571116484115
  0
ARC
  5
4C1
100
AcDbEntity
  8
0
  6
CONTINUOUS
 62
               4
100
AcDbCircle
 10
66.004523710174382
 20
26.596387539369193
 30
0.0
 40
0.9954828443909912
100
AcDbArc
 50
0.2079184018494117
 51
69.693384421901015
  0
ARC
  5
4C2
100
AcDbEntity
  8
0
  6
CONTINUOUS
 62
               4
100
AcDbCircle
 10
66.00454358294084
 20
-10.796401428937145
 30
0.0
 40
0.9954629214480829
100
AcDbArc
 50
290.30582029335034
 51
359.79287688289747
  0
ARC
  5
4C3
100
AcDbEntity
  8
0
  6
CONTINUOUS
 62
               4
100
AcDbCircle
 10
67.000706321728757
 20
25.096616710852189
 30
0.0
 40
0.7466170449528491
100
AcDbArc
 50
113.75073598094905
 51
269.94579649587877
  0
ARC
  5
4C4
100
AcDbEntity
  8
0
  6
CONTINUOUS
 62
               4
100
AcDbCircle
 10
67.000714946199707
 20
-9.2966185201817595
 30
0.0
 40
0.7466188624904059
100
AcDbArc
 50
90.054865217235005
 51
246.24860230593555
  0
ARC
  5
4C5
100
AcDbEntity
  8
0
  6
CONTINUOUS
 62
               4
100
AcDbCircle
 10
66.496605925344525
 20
26.240474396514436
 30
0.0
 40
0.5033942981900887
100
AcDbArc
 50
293.83131137124496
 51
359.94600470801038
  0
ARC
  5
4C6
100
AcDbEntity
  8
0
  6
CONTINUOUS
 62
               4
100
AcDbCircle
 10
66.496586068317129
 20
-10.440487346749693
 30
0.0
 40
0.5034141675789952
100
AcDbArc
 50
0.0554670847120447
 51
66.16721683603069
  0
ARC
  5
4C7
100
AcDbEntity
  8
0
  6
CONTINUOUS
 62
               4
100
AcDbCircle
 10
73.500012207180262
 20
21.849987792819739
 30
0.0
 40
0.5000122073292739
100
AcDbArc
 50
90.001398805666142
 51
179.99860119433325
  0
ARC
  5
4C8
100
AcDbEntity
  8
0
  6
CONTINUOUS
 62
               4
100
AcDbCircle
 10
73.499990844810384
 20
-6.0500091551896187
 30
0.0
 40
0.4999908448942005
100
AcDbArc
 50
179.9989508733382
 51
270.00104912666046
  0
ARC
  5
4C9
100
AcDbEntity
  8
0
  6
CONTINUOUS
 62
               4
100
AcDbCircle
 10
73.499987793117768
 20
21.849987793117762
 30
0.0
 40
0.4999877932667725
100
AcDbArc
 50
179.99860116018229
 51
270.00139883981586
  0
ARC
  5
4CA
100
AcDbEntity
  8
0
  6
CONTINUOUS
 62
               4
100
AcDbCircle
 10
73.500009155357262
 20
-6.0500091553572561
 30
0.0
 40
0.5000091554410757
100
AcDbArc
 50
90.001049107451834
 51
179.99895089254821
  0
ARC
  5
4CB
100
AcDbEntity
  8
0
  6
CONTINUOUS
 62
               4
100
AcDbCircle
 10
73.687381412340912
 20
21.847785846555549
 30
0.0
 40
0.4977927340091999
100
AcDbArc
 50
270.30139996601008
 51
332.76818384436501
  0
ARC
  5
4CC
100
AcDbEntity
  8
0
  6
CONTINUOUS
 62
               4
100
AcDbCircle
 10
73.687366406534764
 20
-6.0478103004618644
 30
0.0
 40
0.4978172667359695
100
AcDbArc
 50
27.233528404584394
 51
89.696887785039067
  0
ARC
  5
4CD
100
AcDbEntity
  8
0
  6
CONTINUOUS
 62
               4
100
AcDbCircle
 10
77.134713366068553
 20
26.480314620841568
 30
0.0
 40
0.3654228342776757
100
AcDbArc
 50
318.88029388881495
 51
111.63242353710903
  0
ARC
  5
4CE
100
AcDbEntity
  8
0
  6
CONTINUOUS
 62
               4
100
AcDbCircle
 10
77.134733447354449
 20
-10.680328816233324
 30
0.0
 40
0.3654170424562481
100
AcDbArc
 50
248.36382903872268
 51
41.123453535351757
  0
ENDBLK
  5
4CF
100
AcDbEntity
  8
0
100
AcDbBlockEnd
  0
BLOCK
  5
4D0
100
AcDbEntity
  8
0
100
AcDbBlockBegin
  2
F15_CONNECTER-13
 70
               0
 10
0.0
 20
0.0
 30
0.0
  3
F15_CONNECTER-13
  1

  0
LINE
  5
4D1
100
AcDbEntity
  8
0
  6
CONTINUOUS
 62
               4
100
AcDbLine
 10
0.0
 20
3.0
 30
0.0
 11
21.0
 21
3.0
 31
0.0
  0
LINE
  5
4D2
100
AcDbEntity
  8
0
  6
CONTINUOUS
 62
               7
100
AcDbLine
 10
0.0
 20
0.0
 30
0.0
 11
21.0
 21
0.0
 31
0.0
  0
LINE
  5
4D3
100
AcDbEntity
  8
0
  6
CONTINUOUS
 62
               4
100
AcDbLine
 10
0.0
 20
49.0
 30
0.0
 11
0.0
 21
3.0
 31
0.0
  0
LINE
  5
4D4
100
AcDbEntity
  8
0
  6
CONTINUOUS
 62
               4
100
AcDbLine
 10
21.0
 20
49.0
 30
0.0
 11
21.0
 21
3.0
 31
0.0
  0
LINE
  5
4D5
100
AcDbEntity
  8
0
  6
CONTINUOUS
 62
               4
100
AcDbLine
 10
0.0
 20
49.0
 30
0.0
 11
21.0
 21
49.0
 31
0.0
  0
LINE
  5
4D6
100
AcDbEntity
  8
0
  6
CONTINUOUS
 62
               4
100
AcDbLine
 10
0.0
 20
5.0
 30
0.0
 11
21.0
 21
5.0
 31
0.0
  0
LINE
  5
4D7
100
AcDbEntity
  8
0
  6
CONTINUOUS
 62
               4
100
AcDbLine
 10
0.0
 20
59.0
 30
0.0
 11
21.0
 21
59.0
 31
0.0
  0
LINE
  5
4D8
100
AcDbEntity
  8
0
  6
CONTINUOUS
 62
               4
100
AcDbLine
 10
0.0
 20
59.0
 30
0.0
 11
0.0
 21
49.0
 31
0.0
  0
LINE
  5
4D9
100
AcDbEntity
  8
0
  6
CONTINUOUS
 62
               4
100
AcDbLine
 10
21.0
 20
59.0
 30
0.0
 11
21.0
 21
49.0
 31
0.0
  0
LINE
  5
4DA
100
AcDbEntity
  8
0
  6
CONTINUOUS
 62
               4
100
AcDbLine
 10
2.5
 20
50.5
 30
0.0
 11
18.5
 21
50.5
 31
0.0
  0
LINE
  5
4DB
100
AcDbEntity
  8
0
  6
CONTINUOUS
 62
               4
100
AcDbLine
 10
1.5
 20
59.0
 30
0.0
 11
1.5
 21
49.0
 31
0.0
  0
LINE
  5
4DC
100
AcDbEntity
  8
0
  6
CONTINUOUS
 62
               4
100
AcDbLine
 10
19.5
 20
59.0
 30
0.0
 11
19.5
 21
49.0
 31
0.0
  0
LINE
  5
4DD
100
AcDbEntity
  8
0
  6
CONTINUOUS
 62
               4
100
AcDbLine
 10
18.5
 20
57.5
 30
0.0
 11
18.5
 21
50.5
 31
0.0
  0
LINE
  5
4DE
100
AcDbEntity
  8
0
  6
CONTINUOUS
 62
               4
100
AcDbLine
 10
2.5
 20
57.5
 30
0.0
 11
2.5
 21
50.5
 31
0.0
  0
LINE
  5
4DF
100
AcDbEntity
  8
0
  6
CONTINUOUS
 62
               4
100
AcDbLine
 10
1.5
 20
57.5
 30
0.0
 11
19.5
 21
57.5
 31
0.0
  0
LINE
  5
4E0
100
AcDbEntity
  8
0
  6
CONTINUOUS
 62
               4
100
AcDbLine
 10
9.5
 20
57.5
 30
0.0
 11
9.5
 21
50.5
 31
0.0
  0
LINE
  5
4E1
100
AcDbEntity
  8
0
  6
CONTINUOUS
 62
               4
100
AcDbLine
 10
11.5
 20
57.5
 30
0.0
 11
11.5
 21
50.5
 31
0.0
  0
LINE
  5
4E2
100
AcDbEntity
  8
0
  6
CONTINUOUS
 62
               4
100
AcDbLine
 10
2.5
 20
56.5
 30
0.0
 11
9.5
 21
56.5
 31
0.0
  0
LINE
  5
4E3
100
AcDbEntity
  8
0
  6
CONTINUOUS
 62
               4
100
AcDbLine
 10
11.5
 20
56.5
 30
0.0
 11
18.5
 21
56.5
 31
0.0
  0
LINE
  5
4E4
100
AcDbEntity
  8
0
  6
CONTINUOUS
 62
               4
100
AcDbLine
 10
3.0499999999999998
 20
51.299999999999997
 30
0.0
 11
8.9499999999999993
 21
51.299999999999997
 31
0.0
  0
LINE
  5
4E5
100
AcDbEntity
  8
0
  6
CONTINUOUS
 62
               4
100
AcDbLine
 10
3.0499999999999998
 20
51.299999999999997
 30
0.0
 11
3.0499999999999998
 21
50.5
 31
0.0
  0
LINE
  5
4E6
100
AcDbEntity
  8
0
  6
CONTINUOUS
 62
               4
100
AcDbLine
 10
3.8500000000000001
 20
51.299999999999997
 30
0.0
 11
3.8500000000000001
 21
50.5
 31
0.0
  0
LINE
  5
4E7
100
AcDbEntity
  8
0
  6
CONTINUOUS
 62
               4
100
AcDbLine
 10
8.1500000000000004
 20
51.299999999999997
 30
0.0
 11
8.1500000000000004
 21
50.5
 31
0.0
  0
LINE
  5
4E8
100
AcDbEntity
  8
0
  6
CONTINUOUS
 62
               4
100
AcDbLine
 10
8.9499999999999993
 20
51.299999999999997
 30
0.0
 11
8.9499999999999993
 21
50.5
 31
0.0
  0
LINE
  5
4E9
100
AcDbEntity
  8
0
  6
CONTINUOUS
 62
               4
100
AcDbLine
 10
12.050000000000001
 20
51.299999999999997
 30
0.0
 11
12.050000000000001
 21
50.5
 31
0.0
  0
LINE
  5
4EA
100
AcDbEntity
  8
0
  6
CONTINUOUS
 62
               4
100
AcDbLine
 10
12.85
 20
51.299999999999997
 30
0.0
 11
12.85
 21
50.5
 31
0.0
  0
LINE
  5
4EB
100
AcDbEntity
  8
0
  6
CONTINUOUS
 62
               4
100
AcDbLine
 10
17.149999999999999
 20
51.299999999999997
 30
0.0
 11
17.149999999999999
 21
50.5
 31
0.0
  0
LINE
  5
4EC
100
AcDbEntity
  8
0
  6
CONTINUOUS
 62
               4
100
AcDbLine
 10
17.949999999999999
 20
51.299999999999997
 30
0.0
 11
17.949999999999999
 21
50.5
 31
0.0
  0
LINE
  5
4ED
100
AcDbEntity
  8
0
  6
CONTINUOUS
 62
               4
100
AcDbLine
 10
12.050000000000001
 20
51.299999999999997
 30
0.0
 11
17.949999999999999
 21
51.299999999999997
 31
0.0
  0
LINE
  5
4EE
100
AcDbEntity
  8
0
  6
CONTINUOUS
 62
               4
100
AcDbLine
 10
8.9499999999999993
 20
52.0
 30
0.0
 11
3.0499999999999998
 21
52.0
 31
0.0
  0
LINE
  5
4EF
100
AcDbEntity
  8
0
  6
CONTINUOUS
 62
               4
100
AcDbLine
 10
8.9499999999999993
 20
52.0
 30
0.0
 11
8.9499999999999993
 21
51.299999999999997
 31
0.0
  0
LINE
  5
4F0
100
AcDbEntity
  8
0
  6
CONTINUOUS
 62
               4
100
AcDbLine
 10
3.0499999999999998
 20
52.0
 30
0.0
 11
3.0499999999999998
 21
51.299999999999997
 31
0.0
  0
LINE
  5
4F1
100
AcDbEntity
  8
0
  6
CONTINUOUS
 62
               4
100
AcDbLine
 10
17.949999999999999
 20
52.0
 30
0.0
 11
12.050000000000001
 21
52.0
 31
0.0
  0
LINE
  5
4F2
100
AcDbEntity
  8
0
  6
CONTINUOUS
 62
               4
100
AcDbLine
 10
17.949999999999999
 20
52.0
 30
0.0
 11
17.949999999999999
 21
51.299999999999997
 31
0.0
  0
LINE
  5
4F3
100
AcDbEntity
  8
0
  6
CONTINUOUS
 62
               4
100
AcDbLine
 10
12.050000000000001
 20
52.0
 30
0.0
 11
12.050000000000001
 21
51.299999999999997
 31
0.0
  0
LINE
  5
4F4
100
AcDbEntity
  8
0
  6
CONTINUOUS
 62
               4
100
AcDbLine
 10
8.8000000000000007
 20
53.170000000000002
 30
0.0
 11
8.8000000000000007
 21
52.0
 31
0.0
  0
LINE
  5
4F5
100
AcDbEntity
  8
0
  6
CONTINUOUS
 62
               4
100
AcDbLine
 10
3.2000000000000002
 20
53.170000000000002
 30
0.0
 11
3.2000000000000002
 21
52.0
 31
0.0
  0
LINE
  5
4F6
100
AcDbEntity
  8
0
  6
CONTINUOUS
 62
               4
100
AcDbLine
 10
17.800000000000001
 20
53.170000000000002
 30
0.0
 11
17.800000000000001
 21
52.0
 31
0.0
  0
LINE
  5
4F7
100
AcDbEntity
  8
0
  6
CONTINUOUS
 62
               4
100
AcDbLine
 10
12.199999999999999
 20
53.170000000000002
 30
0.0
 11
12.199999999999999
 21
52.0
 31
0.0
  0
LINE
  5
4F8
100
AcDbEntity
  8
0
  6
CONTINUOUS
 62
               4
100
AcDbLine
 10
6.5
 20
68.0
 30
0.0
 11
6.5
 21
59.0
 31
0.0
  0
LINE
  5
4F9
100
AcDbEntity
  8
0
  6
CONTINUOUS
 62
               4
100
AcDbLine
 10
15.0
 20
68.0
 30
0.0
 11
15.0
 21
59.0
 31
0.0
  0
LINE
  5
4FA
100
AcDbEntity
  8
0
  6
CONTINUOUS
 62
               4
100
AcDbLine
 10
8.75
 20
77.5
 30
0.0
 11
8.75
 21
68.200000000000003
 31
0.0
  0
LINE
  5
4FB
100
AcDbEntity
  8
0
  6
CONTINUOUS
 62
               4
100
AcDbLine
 10
12.75
 20
77.5
 30
0.0
 11
12.75
 21
68.200000000000003
 31
0.0
  0
LINE
  5
4FC
100
AcDbEntity
  8
0
  6
CONTINUOUS
 62
               4
100
AcDbLine
 10
6.5
 20
68.0
 30
0.0
 11
9.25
 21
68.0
 31
0.0
  0
LINE
  5
4FD
100
AcDbEntity
  8
0
  6
CONTINUOUS
 62
               4
100
AcDbLine
 10
9.25
 20
68.200000000000003
 30
0.0
 11
9.25
 21
59.0
 31
0.0
  0
LINE
  5
4FE
100
AcDbEntity
  8
0
  6
CONTINUOUS
 62
               4
100
AcDbLine
 10
12.25
 20
68.200000000000003
 30
0.0
 11
12.25
 21
59.0
 31
0.0
  0
LINE
  5
4FF
100
AcDbEntity
  8
0
  6
CONTINUOUS
 62
               4
100
AcDbLine
 10
12.25
 20
68.0
 30
0.0
 11
15.0
 21
68.0
 31
0.0
  0
LINE
  5
500
100
AcDbEntity
  8
0
  6
CONTINUOUS
 62
               4
100
AcDbLine
 10
12.25
 20
68.200000000000003
 30
0.0
 11
12.75
 21
68.200000000000003
 31
0.0
  0
LINE
  5
501
100
AcDbEntity
  8
0
  6
CONTINUOUS
 62
               4
100
AcDbLine
 10
8.75
 20
68.200000000000003
 30
0.0
 11
9.25
 21
68.200000000000003
 31
0.0
  0
LINE
  5
502
100
AcDbEntity
  8
0
  6
CONTINUOUS
 62
               4
100
AcDbLine
 10
8.75
 20
74.5
 30
0.0
 11
12.75
 21
74.5
 31
0.0
  0
LINE
  5
503
100
AcDbEntity
  8
0
  6
CONTINUOUS
 62
               4
100
AcDbLine
 10
8.75
 20
77.5
 30
0.0
 11
12.75
 21
77.5
 31
0.0
  0
LINE
  5
504
100
AcDbEntity
  8
0
  6
CONTINUOUS
 62
               4
100
AcDbLine
 10
9.25
 20
59.5
 30
0.0
 11
12.25
 21
59.5
 31
0.0
  0
LINE
  5
505
100
AcDbEntity
  8
0
  6
CONTINUOUS
 62
               4
100
AcDbLine
 10
6.5
 20
67.5
 30
0.0
 11
9.25
 21
67.5
 31
0.0
  0
LINE
  5
506
100
AcDbEntity
  8
0
  6
CONTINUOUS
 62
               4
100
AcDbLine
 10
12.25
 20
67.5
 30
0.0
 11
15.0
 21
67.5
 31
0.0
  0
LINE
  5
507
100
AcDbEntity
  8
0
  6
CONTINUOUS
 62
               4
100
AcDbLine
 10
8.75
 20
70.799999999999997
 30
0.0
 11
12.75
 21
70.799999999999997
 31
0.0
  0
ARC
  5
508
100
AcDbEntity
  8
0
  6
CONTINUOUS
 62
               4
100
AcDbCircle
 10
5.9950000000000001
 20
49.400006980160171
 30
0.0
 40
4.9998664254813097
100
AcDbArc
 50
60.461178304918043
 51
119.53882169508157
  0
ARC
  5
509
100
AcDbEntity
  8
0
  6
CONTINUOUS
 62
               4
100
AcDbCircle
 10
8.134627656357754
 20
53.169609315795924
 30
0.0
 40
0.6653724583405332
100
AcDbArc
 50
0.0336421458714143
 51
60.724609876865323
  0
ARC
  5
50A
100
AcDbEntity
  8
0
  6
CONTINUOUS
 62
               4
100
AcDbCircle
 10
3.8678490002748012
 20
53.173896258464339
 30
0.0
 40
0.667860365643951
100
AcDbArc
 50
120.38897048789522
 51
180.33426213580151
  0
ARC
  5
50B
100
AcDbEntity
  8
0
  6
CONTINUOUS
 62
               4
100
AcDbCircle
 10
14.995000000000001
 20
49.400006980160171
 30
0.0
 40
4.9998664254813097
100
AcDbArc
 50
60.46117830491805
 51
119.53882169508159
  0
ARC
  5
50C
100
AcDbEntity
  8
0
  6
CONTINUOUS
 62
               4
100
AcDbCircle
 10
17.134627656357754
 20
53.169609315795924
 30
0.0
 40
0.6653724583405332
100
AcDbArc
 50
0.0336421458714143
 51
60.724609876865323
  0
ARC
  5
50D
100
AcDbEntity
  8
0
  6
CONTINUOUS
 62
               4
100
AcDbCircle
 10
12.8678490002748
 20
53.173896258464339
 30
0.0
 40
0.6678603656439516
100
AcDbArc
 50
120.38897048789516
 51
180.33426213580151
  0
ENDBLK
  5
50E
100
AcDbEntity
  8
0
100
AcDbBlockEnd
  0
BLOCK
  5
50F
100
AcDbEntity
  8
0
100
AcDbBlockBegin
  2
F15_CONNECTER-14
 70
               0
 10
0.0
 20
0.0
 30
0.0
  3
F15_CONNECTER-14
  1

  0
LINE
  5
510
100
AcDbEntity
  8
0
  6
CONTINUOUS
 62
               4
100
AcDbLine
 10
21.0
 20
-44.600000000000001
 30
0.0
 11
21.0
 21
60.399999999999999
 31
0.0
  0
LINE
  5
511
100
AcDbEntity
  8
0
  6
CONTINUOUS
 62
               4
100
AcDbLine
 10
0.0
 20
-44.600000000000001
 30
0.0
 11
1.5
 21
-44.600000000000001
 31
0.0
  0
LINE
  5
512
100
AcDbEntity
  8
0
  6
CONTINUOUS
 62
               4
100
AcDbLine
 10
0.0
 20
-44.600000000000001
 30
0.0
 11
0.0
 21
60.399999999999999
 31
0.0
  0
LINE
  5
513
100
AcDbEntity
  8
0
  6
CONTINUOUS
 62
               4
100
AcDbLine
 10
21.0
 20
60.399999999999999
 30
0.0
 11
0.0
 21
60.399999999999999
 31
0.0
  0
LINE
  5
514
100
AcDbEntity
  8
0
  6
CONTINUOUS
 62
               4
100
AcDbLine
 10
0.0
 20
48.899999999999999
 30
0.0
 11
21.0
 21
48.899999999999999
 31
0.0
  0
LINE
  5
515
100
AcDbEntity
  8
0
  6
CONTINUOUS
 62
               4
100
AcDbLine
 10
1.5
 20
58.899999999999999
 30
0.0
 11
1.5
 21
48.899999999999999
 31
0.0
  0
LINE
  5
516
100
AcDbEntity
  8
0
  6
CONTINUOUS
 62
               4
100
AcDbLine
 10
19.5
 20
58.899999999999999
 30
0.0
 11
19.5
 21
48.899999999999999
 31
0.0
  0
LINE
  5
517
100
AcDbEntity
  8
0
  6
CONTINUOUS
 62
               4
100
AcDbLine
 10
1.5
 20
58.899999999999999
 30
0.0
 11
19.5
 21
58.899999999999999
 31
0.0
  0
LINE
  5
518
100
AcDbEntity
  8
0
  6
CONTINUOUS
 62
               4
100
AcDbLine
 10
0.0
 20
48.399999999999999
 30
0.0
 11
21.0
 21
48.399999999999999
 31
0.0
  0
LINE
  5
519
100
AcDbEntity
  8
0
  6
CONTINUOUS
 62
               4
100
AcDbLine
 10
9.4299999999999997
 20
41.829999999999998
 30
0.0
 11
11.56
 21
43.960000000000001
 31
0.0
  0
LINE
  5
51A
100
AcDbEntity
  8
0
  6
CONTINUOUS
 62
               4
100
AcDbLine
 10
9.4299999999999997
 20
43.960000000000001
 30
0.0
 11
11.56
 21
41.829999999999998
 31
0.0
  0
LINE
  5
51B
100
AcDbEntity
  8
0
  6
CONTINUOUS
 62
               4
100
AcDbLine
 10
1.5
 20
-42.899999999999999
 30
0.0
 11
19.5
 21
-42.899999999999999
 31
0.0
  0
LINE
  5
51C
100
AcDbEntity
  8
0
  6
CONTINUOUS
 62
               4
100
AcDbLine
 10
1.5
 20
-43.100000000000001
 30
0.0
 11
19.5
 21
-43.100000000000001
 31
0.0
  0
LINE
  5
51D
100
AcDbEntity
  8
0
  6
CONTINUOUS
 62
               4
100
AcDbLine
 10
1.5
 20
-23.600000000000001
 30
0.0
 11
1.5
 21
-44.600000000000001
 31
0.0
  0
LINE
  5
51E
100
AcDbEntity
  8
0
  6
CONTINUOUS
 62
               4
100
AcDbLine
 10
19.5
 20
-23.600000000000001
 30
0.0
 11
19.5
 21
-44.600000000000001
 31
0.0
  0
LINE
  5
51F
100
AcDbEntity
  8
0
  6
CONTINUOUS
 62
               4
100
AcDbLine
 10
14.0
 20
-42.899999999999999
 30
0.0
 11
14.0
 21
-43.100000000000001
 31
0.0
  0
LINE
  5
520
100
AcDbEntity
  8
0
  6
CONTINUOUS
 62
               4
100
AcDbLine
 10
7.0
 20
-42.899999999999999
 30
0.0
 11
7.0
 21
-43.100000000000001
 31
0.0
  0
LINE
  5
521
100
AcDbEntity
  8
0
  6
CONTINUOUS
 62
               4
100
AcDbLine
 10
1.5
 20
-32.600000000000001
 30
0.0
 11
19.5
 21
-32.600000000000001
 31
0.0
  0
LINE
  5
522
100
AcDbEntity
  8
0
  6
CONTINUOUS
 62
               4
100
AcDbLine
 10
1.5
 20
-23.600000000000001
 30
0.0
 11
19.5
 21
-23.600000000000001
 31
0.0
  0
LINE
  5
523
100
AcDbEntity
  8
0
  6
CONTINUOUS
 62
               4
100
AcDbLine
 10
9.5
 20
-42.399999999999999
 30
0.0
 11
11.5
 21
-42.399999999999999
 31
0.0
  0
LINE
  5
524
100
AcDbEntity
  8
0
  6
CONTINUOUS
 62
               4
100
AcDbLine
 10
11.5
 20
-32.600000000000001
 30
0.0
 11
11.5
 21
-42.399999999999999
 31
0.0
  0
LINE
  5
525
100
AcDbEntity
  8
0
  6
CONTINUOUS
 62
               4
100
AcDbLine
 10
9.5
 20
-32.600000000000001
 30
0.0
 11
9.5
 21
-42.399999999999999
 31
0.0
  0
LINE
  5
526
100
AcDbEntity
  8
0
  6
CONTINUOUS
 62
               4
100
AcDbLine
 10
3.8500000000000001
 20
-41.399999999999999
 30
0.0
 11
8.1500000000000004
 21
-41.399999999999999
 31
0.0
  0
LINE
  5
527
100
AcDbEntity
  8
0
  6
CONTINUOUS
 62
               4
100
AcDbLine
 10
3.8500000000000001
 20
-34.399999999999999
 30
0.0
 11
8.1500000000000004
 21
-34.399999999999999
 31
0.0
  0
LINE
  5
528
100
AcDbEntity
  8
0
  6
CONTINUOUS
 62
               4
100
AcDbLine
 10
12.85
 20
-34.399999999999999
 30
0.0
 11
12.85
 21
-35.200000000000003
 31
0.0
  0
LINE
  5
529
100
AcDbEntity
  8
0
  6
CONTINUOUS
 62
               4
100
AcDbLine
 10
8.1500000000000004
 20
-34.399999999999999
 30
0.0
 11
8.1500000000000004
 21
-35.200000000000003
 31
0.0
  0
LINE
  5
52A
100
AcDbEntity
  8
0
  6
CONTINUOUS
 62
               4
100
AcDbLine
 10
3.8500000000000001
 20
-34.399999999999999
 30
0.0
 11
3.8500000000000001
 21
-35.200000000000003
 31
0.0
  0
LINE
  5
52B
100
AcDbEntity
  8
0
  6
CONTINUOUS
 62
               4
100
AcDbLine
 10
17.149999999999999
 20
-34.399999999999999
 30
0.0
 11
17.149999999999999
 21
-35.200000000000003
 31
0.0
  0
LINE
  5
52C
100
AcDbEntity
  8
0
  6
CONTINUOUS
 62
               4
100
AcDbLine
 10
2.5
 20
-32.600000000000001
 30
0.0
 11
2.5
 21
-42.899999999999999
 31
0.0
  0
LINE
  5
52D
100
AcDbEntity
  8
0
  6
CONTINUOUS
 62
               4
100
AcDbLine
 10
18.5
 20
-32.600000000000001
 30
0.0
 11
18.5
 21
-42.899999999999999
 31
0.0
  0
LINE
  5
52E
100
AcDbEntity
  8
0
  6
CONTINUOUS
 62
               4
100
AcDbLine
 10
12.85
 20
-34.399999999999999
 30
0.0
 11
17.149999999999999
 21
-34.399999999999999
 31
0.0
  0
LINE
  5
52F
100
AcDbEntity
  8
0
  6
CONTINUOUS
 62
               4
100
AcDbLine
 10
12.85
 20
-41.399999999999999
 30
0.0
 11
17.149999999999999
 21
-41.399999999999999
 31
0.0
  0
LINE
  5
530
100
AcDbEntity
  8
0
  6
CONTINUOUS
 62
               4
100
AcDbLine
 10
3.8500000000000001
 20
-40.600000000000001
 30
0.0
 11
3.8500000000000001
 21
-41.399999999999999
 31
0.0
  0
LINE
  5
531
100
AcDbEntity
  8
0
  6
CONTINUOUS
 62
               4
100
AcDbLine
 10
8.1500000000000004
 20
-40.600000000000001
 30
0.0
 11
8.1500000000000004
 21
-41.399999999999999
 31
0.0
  0
LINE
  5
532
100
AcDbEntity
  8
0
  6
CONTINUOUS
 62
               4
100
AcDbLine
 10
12.85
 20
-40.600000000000001
 30
0.0
 11
12.85
 21
-41.399999999999999
 31
0.0
  0
LINE
  5
533
100
AcDbEntity
  8
0
  6
CONTINUOUS
 62
               4
100
AcDbLine
 10
17.149999999999999
 20
-40.600000000000001
 30
0.0
 11
17.149999999999999
 21
-41.399999999999999
 31
0.0
  0
LINE
  5
534
100
AcDbEntity
  8
0
  6
CONTINUOUS
 62
               4
100
AcDbLine
 10
12.050000000000001
 20
-35.200000000000003
 30
0.0
 11
12.050000000000001
 21
-40.600000000000001
 31
0.0
  0
LINE
  5
535
100
AcDbEntity
  8
0
  6
CONTINUOUS
 62
               4
100
AcDbLine
 10
17.949999999999999
 20
-35.200000000000003
 30
0.0
 11
17.949999999999999
 21
-40.600000000000001
 31
0.0
  0
LINE
  5
536
100
AcDbEntity
  8
0
  6
CONTINUOUS
 62
               4
100
AcDbLine
 10
8.9499999999999993
 20
-35.200000000000003
 30
0.0
 11
8.9499999999999993
 21
-40.600000000000001
 31
0.0
  0
LINE
  5
537
100
AcDbEntity
  8
0
  6
CONTINUOUS
 62
               4
100
AcDbLine
 10
3.0499999999999998
 20
-35.200000000000003
 30
0.0
 11
3.0499999999999998
 21
-40.600000000000001
 31
0.0
  0
LINE
  5
538
100
AcDbEntity
  8
0
  6
CONTINUOUS
 62
               4
100
AcDbLine
 10
8.1500000000000004
 20
-35.200000000000003
 30
0.0
 11
8.9499999999999993
 21
-35.200000000000003
 31
0.0
  0
LINE
  5
539
100
AcDbEntity
  8
0
  6
CONTINUOUS
 62
               4
100
AcDbLine
 10
3.0499999999999998
 20
-35.200000000000003
 30
0.0
 11
3.8500000000000001
 21
-35.200000000000003
 31
0.0
  0
LINE
  5
53A
100
AcDbEntity
  8
0
  6
CONTINUOUS
 62
               4
100
AcDbLine
 10
3.0499999999999998
 20
-40.600000000000001
 30
0.0
 11
3.8500000000000001
 21
-40.600000000000001
 31
0.0
  0
LINE
  5
53B
100
AcDbEntity
  8
0
  6
CONTINUOUS
 62
               4
100
AcDbLine
 10
8.1500000000000004
 20
-40.600000000000001
 30
0.0
 11
8.9499999999999993
 21
-40.600000000000001
 31
0.0
  0
LINE
  5
53C
100
AcDbEntity
  8
0
  6
CONTINUOUS
 62
               4
100
AcDbLine
 10
12.050000000000001
 20
-40.600000000000001
 30
0.0
 11
12.85
 21
-40.600000000000001
 31
0.0
  0
LINE
  5
53D
100
AcDbEntity
  8
0
  6
CONTINUOUS
 62
               4
100
AcDbLine
 10
17.149999999999999
 20
-40.600000000000001
 30
0.0
 11
17.949999999999999
 21
-40.600000000000001
 31
0.0
  0
LINE
  5
53E
100
AcDbEntity
  8
0
  6
CONTINUOUS
 62
               4
100
AcDbLine
 10
17.149999999999999
 20
-35.200000000000003
 30
0.0
 11
17.949999999999999
 21
-35.200000000000003
 31
0.0
  0
LINE
  5
53F
100
AcDbEntity
  8
0
  6
CONTINUOUS
 62
               4
100
AcDbLine
 10
12.050000000000001
 20
-35.200000000000003
 30
0.0
 11
12.85
 21
-35.200000000000003
 31
0.0
  0
LINE
  5
540
100
AcDbEntity
  8
0
  6
CONTINUOUS
 62
               4
100
AcDbLine
 10
1.6000000000000001
 20
-23.850000000000001
 30
0.0
 11
1.6000000000000001
 21
-44.850000000000001
 31
0.0
  0
LINE
  5
541
100
AcDbEntity
  8
0
  6
CONTINUOUS
 62
               4
100
AcDbLine
 10
19.399999999999999
 20
-23.850000000000001
 30
0.0
 11
19.399999999999999
 21
-44.850000000000001
 31
0.0
  0
LINE
  5
542
100
AcDbEntity
  8
0
  6
CONTINUOUS
 62
               4
100
AcDbLine
 10
1.6000000000000001
 20
-23.850000000000001
 30
0.0
 11
19.399999999999999
 21
-23.850000000000001
 31
0.0
  0
LINE
  5
543
100
AcDbEntity
  8
0
  6
CONTINUOUS
 62
               4
100
AcDbLine
 10
1.6000000000000001
 20
-44.850000000000001
 30
0.0
 11
19.399999999999999
 21
-44.850000000000001
 31
0.0
  0
LINE
  5
544
100
AcDbEntity
  8
0
  6
CONTINUOUS
 62
               4
100
AcDbLine
 10
2.0
 20
-21.600000000000001
 30
0.0
 11
19.0
 21
-21.600000000000001
 31
0.0
  0
LINE
  5
545
100
AcDbEntity
  8
0
  6
CONTINUOUS
 62
               4
100
AcDbLine
 10
2.0
 20
37.399999999999999
 30
0.0
 11
19.0
 21
37.399999999999999
 31
0.0
  0
LINE
  5
546
100
AcDbEntity
  8
0
  6
CONTINUOUS
 62
               4
100
AcDbLine
 10
19.0
 20
37.399999999999999
 30
0.0
 11
19.0
 21
-21.600000000000001
 31
0.0
  0
LINE
  5
547
100
AcDbEntity
  8
0
  6
CONTINUOUS
 62
               4
100
AcDbLine
 10
2.0
 20
37.399999999999999
 30
0.0
 11
2.0
 21
-21.600000000000001
 31
0.0
  0
LINE
  5
548
100
AcDbEntity
  8
0
  6
CONTINUOUS
 62
               4
100
AcDbLine
 10
4.9299999999999997
 20
-38.960000000000001
 30
0.0
 11
7.0599999999999996
 21
-36.829999999999998
 31
0.0
  0
LINE
  5
549
100
AcDbEntity
  8
0
  6
CONTINUOUS
 62
               4
100
AcDbLine
 10
4.9299999999999997
 20
-36.829999999999998
 30
0.0
 11
7.0599999999999996
 21
-38.960000000000001
 31
0.0
  0
LINE
  5
54A
100
AcDbEntity
  8
0
  6
CONTINUOUS
 62
               4
100
AcDbLine
 10
13.93
 20
-38.960000000000001
 30
0.0
 11
16.059999999999999
 21
-36.829999999999998
 31
0.0
  0
LINE
  5
54B
100
AcDbEntity
  8
0
  6
CONTINUOUS
 62
               4
100
AcDbLine
 10
13.93
 20
-36.829999999999998
 30
0.0
 11
16.059999999999999
 21
-38.960000000000001
 31
0.0
  0
LINE
  5
54C
100
AcDbEntity
  8
0
  6
CONTINUOUS
 62
               4
100
AcDbLine
 10
19.5
 20
-44.600000000000001
 30
0.0
 11
21.0
 21
-44.600000000000001
 31
0.0
  0
LINE
  5
54D
100
AcDbEntity
  8
0
  6
CONTINUOUS
 62
               4
100
AcDbLine
 10
15.0
 20
34.399999999999999
 30
0.0
 11
15.0
 21
-18.600000000000001
 31
0.0
  0
LINE
  5
54E
100
AcDbEntity
  8
0
  6
CONTINUOUS
 62
               4
100
AcDbLine
 10
6.0
 20
34.399999999999999
 30
0.0
 11
6.0
 21
-18.600000000000001
 31
0.0
  0
LINE
  5
54F
100
AcDbEntity
  8
0
  6
CONTINUOUS
 62
               4
100
AcDbLine
 10
6.5
 20
-18.350000000000001
 30
0.0
 11
15.0
 21
-18.350000000000001
 31
0.0
  0
LINE
  5
550
100
AcDbEntity
  8
0
  6
CONTINUOUS
 62
               4
100
AcDbLine
 10
6.5
 20
34.149999999999999
 30
0.0
 11
15.0
 21
34.149999999999999
 31
0.0
  0
LINE
  5
551
100
AcDbEntity
  8
0
  6
CONTINUOUS
 62
               4
100
AcDbLine
 10
6.5
 20
34.149999999999999
 30
0.0
 11
6.5
 21
-18.350000000000001
 31
0.0
  0
LINE
  5
552
100
AcDbEntity
  8
0
  6
CONTINUOUS
 62
               4
100
AcDbLine
 10
8.75
 20
33.149999999999999
 30
0.0
 11
12.75
 21
33.149999999999999
 31
0.0
  0
LINE
  5
553
100
AcDbEntity
  8
0
  6
CONTINUOUS
 62
               4
100
AcDbLine
 10
8.75
 20
-17.350000000000001
 30
0.0
 11
12.75
 21
-17.350000000000001
 31
0.0
  0
LINE
  5
554
100
AcDbEntity
  8
0
  6
CONTINUOUS
 62
               4
100
AcDbLine
 10
6.5
 20
27.149999999999999
 30
0.0
 11
8.75
 21
27.149999999999999
 31
0.0
  0
LINE
  5
555
100
AcDbEntity
  8
0
  6
CONTINUOUS
 62
               4
100
AcDbLine
 10
6.5
 20
-11.35
 30
0.0
 11
8.75
 21
-11.35
 31
0.0
  0
LINE
  5
556
100
AcDbEntity
  8
0
  6
CONTINUOUS
 62
               4
100
AcDbLine
 10
8.75
 20
-8.3499999999999996
 30
0.0
 11
12.75
 21
-8.3499999999999996
 31
0.0
  0
LINE
  5
557
100
AcDbEntity
  8
0
  6
CONTINUOUS
 62
               4
100
AcDbLine
 10
8.75
 20
24.149999999999999
 30
0.0
 11
12.75
 21
24.149999999999999
 31
0.0
  0
LINE
  5
558
100
AcDbEntity
  8
0
  6
CONTINUOUS
 62
               4
100
AcDbLine
 10
12.75
 20
27.149999999999999
 30
0.0
 11
15.0
 21
27.149999999999999
 31
0.0
  0
LINE
  5
559
100
AcDbEntity
  8
0
  6
CONTINUOUS
 62
               4
100
AcDbLine
 10
12.75
 20
-11.35
 30
0.0
 11
15.0
 21
-11.35
 31
0.0
  0
LINE
  5
55A
100
AcDbEntity
  8
0
  6
CONTINUOUS
 62
               4
100
AcDbLine
 10
7.5
 20
27.149999999999999
 30
0.0
 11
7.5
 21
-11.35
 31
0.0
  0
LINE
  5
55B
100
AcDbEntity
  8
0
  6
CONTINUOUS
 62
               4
100
AcDbLine
 10
14.0
 20
27.149999999999999
 30
0.0
 11
14.0
 21
9.9000000000000004
 31
0.0
  0
LINE
  5
55C
100
AcDbEntity
  8
0
  6
CONTINUOUS
 62
               4
100
AcDbLine
 10
6.5
 20
28.149999999999999
 30
0.0
 11
8.75
 21
28.149999999999999
 31
0.0
  0
LINE
  5
55D
100
AcDbEntity
  8
0
  6
CONTINUOUS
 62
               4
100
AcDbLine
 10
12.75
 20
28.149999999999999
 30
0.0
 11
15.0
 21
28.149999999999999
 31
0.0
  0
LINE
  5
55E
100
AcDbEntity
  8
0
  6
CONTINUOUS
 62
               4
100
AcDbLine
 10
12.75
 20
-12.35
 30
0.0
 11
15.0
 21
-12.35
 31
0.0
  0
LINE
  5
55F
100
AcDbEntity
  8
0
  6
CONTINUOUS
 62
               4
100
AcDbLine
 10
6.5
 20
-12.35
 30
0.0
 11
8.75
 21
-12.35
 31
0.0
  0
LINE
  5
560
100
AcDbEntity
  8
0
  6
CONTINUOUS
 62
               4
100
AcDbLine
 10
12.75
 20
-8.3499999999999996
 30
0.0
 11
12.75
 21
-18.350000000000001
 31
0.0
  0
LINE
  5
561
100
AcDbEntity
  8
0
  6
CONTINUOUS
 62
               4
100
AcDbLine
 10
8.75
 20
-8.3499999999999996
 30
0.0
 11
8.75
 21
-18.350000000000001
 31
0.0
  0
LINE
  5
562
100
AcDbEntity
  8
0
  6
CONTINUOUS
 62
               4
100
AcDbLine
 10
8.75
 20
34.149999999999999
 30
0.0
 11
8.75
 21
24.149999999999999
 31
0.0
  0
LINE
  5
563
100
AcDbEntity
  8
0
  6
CONTINUOUS
 62
               4
100
AcDbLine
 10
12.75
 20
34.149999999999999
 30
0.0
 11
12.75
 21
24.149999999999999
 31
0.0
  0
LINE
  5
564
100
AcDbEntity
  8
0
  6
CONTINUOUS
 62
               4
100
AcDbLine
 10
6.5
 20
29.649999999999999
 30
0.0
 11
8.75
 21
29.649999999999999
 31
0.0
  0
LINE
  5
565
100
AcDbEntity
  8
0
  6
CONTINUOUS
 62
               4
100
AcDbLine
 10
12.75
 20
29.649999999999999
 30
0.0
 11
15.0
 21
29.649999999999999
 31
0.0
  0
LINE
  5
566
100
AcDbEntity
  8
0
  6
CONTINUOUS
 62
               4
100
AcDbLine
 10
6.5
 20
-13.85
 30
0.0
 11
8.75
 21
-13.85
 31
0.0
  0
LINE
  5
567
100
AcDbEntity
  8
0
  6
CONTINUOUS
 62
               4
100
AcDbLine
 10
12.75
 20
-13.85
 30
0.0
 11
15.0
 21
-13.85
 31
0.0
  0
LINE
  5
568
100
AcDbEntity
  8
0
  6
CONTINUOUS
 62
               4
100
AcDbLine
 10
6.5
 20
-15.1
 30
0.0
 11
8.75
 21
-15.1
 31
0.0
  0
LINE
  5
569
100
AcDbEntity
  8
0
  6
CONTINUOUS
 62
               4
100
AcDbLine
 10
12.75
 20
-15.1
 30
0.0
 11
15.0
 21
-15.1
 31
0.0
  0
LINE
  5
56A
100
AcDbEntity
  8
0
  6
CONTINUOUS
 62
               4
100
AcDbLine
 10
6.5
 20
30.899999999999999
 30
0.0
 11
8.75
 21
30.899999999999999
 31
0.0
  0
LINE
  5
56B
100
AcDbEntity
  8
0
  6
CONTINUOUS
 62
               4
100
AcDbLine
 10
12.75
 20
30.899999999999999
 30
0.0
 11
15.0
 21
30.899999999999999
 31
0.0
  0
LINE
  5
56C
100
AcDbEntity
  8
0
  6
CONTINUOUS
 62
               4
100
AcDbLine
 10
13.0
 20
9.9000000000000004
 30
0.0
 11
15.0
 21
9.9000000000000004
 31
0.0
  0
LINE
  5
56D
100
AcDbEntity
  8
0
  6
CONTINUOUS
 62
               4
100
AcDbLine
 10
13.0
 20
5.9000000000000004
 30
0.0
 11
15.0
 21
5.9000000000000004
 31
0.0
  0
LINE
  5
56E
100
AcDbEntity
  8
0
  6
CONTINUOUS
 62
               4
100
AcDbLine
 10
13.0
 20
9.9000000000000004
 30
0.0
 11
13.0
 21
5.9000000000000004
 31
0.0
  0
LINE
  5
56F
100
AcDbEntity
  8
0
  6
CONTINUOUS
 62
               4
100
AcDbLine
 10
14.0
 20
5.9000000000000004
 30
0.0
 11
14.0
 21
-11.35
 31
0.0
  0
LINE
  5
570
100
AcDbEntity
  8
0
  6
CONTINUOUS
 62
               4
100
AcDbLine
 10
8.75
 20
25.149999999999999
 30
0.0
 11
12.75
 21
25.149999999999999
 31
0.0
  0
LINE
  5
571
100
AcDbEntity
  8
0
  6
CONTINUOUS
 62
               4
100
AcDbLine
 10
8.75
 20
-9.3499999999999996
 30
0.0
 11
12.75
 21
-9.3499999999999996
 31
0.0
  0
LINE
  5
572
100
AcDbEntity
  8
0
  6
CONTINUOUS
 62
               4
100
AcDbLine
 10
8.75
 20
30.649999999999999
 30
0.0
 11
12.75
 21
30.649999999999999
 31
0.0
  0
LINE
  5
573
100
AcDbEntity
  8
0
  6
CONTINUOUS
 62
               4
100
AcDbLine
 10
8.75
 20
-14.85
 30
0.0
 11
12.75
 21
-14.85
 31
0.0
  0
LINE
  5
574
100
AcDbEntity
  8
0
  6
CONTINUOUS
 62
               4
100
AcDbLine
 10
8.75
 20
-14.050000000000001
 30
0.0
 11
12.75
 21
-14.050000000000001
 31
0.0
  0
LINE
  5
575
100
AcDbEntity
  8
0
  6
CONTINUOUS
 62
               4
100
AcDbLine
 10
8.75
 20
29.850000000000001
 30
0.0
 11
12.75
 21
29.850000000000001
 31
0.0
  0
LINE
  5
576
100
AcDbEntity
  8
0
  6
CONTINUOUS
 62
               4
100
AcDbLine
 10
8.75
 20
29.550000000000001
 30
0.0
 11
12.75
 21
29.550000000000001
 31
0.0
  0
LINE
  5
577
100
AcDbEntity
  8
0
  6
CONTINUOUS
 62
               4
100
AcDbLine
 10
8.75
 20
29.25
 30
0.0
 11
12.75
 21
29.25
 31
0.0
  0
LINE
  5
578
100
AcDbEntity
  8
0
  6
CONTINUOUS
 62
               4
100
AcDbLine
 10
8.75
 20
28.949999999999999
 30
0.0
 11
12.75
 21
28.949999999999999
 31
0.0
  0
LINE
  5
579
100
AcDbEntity
  8
0
  6
CONTINUOUS
 62
               4
100
AcDbLine
 10
8.75
 20
28.649999999999999
 30
0.0
 11
12.75
 21
28.649999999999999
 31
0.0
  0
LINE
  5
57A
100
AcDbEntity
  8
0
  6
CONTINUOUS
 62
               4
100
AcDbLine
 10
8.75
 20
28.350000000000001
 30
0.0
 11
12.75
 21
28.350000000000001
 31
0.0
  0
LINE
  5
57B
100
AcDbEntity
  8
0
  6
CONTINUOUS
 62
               4
100
AcDbLine
 10
8.75
 20
28.050000000000001
 30
0.0
 11
12.75
 21
28.050000000000001
 31
0.0
  0
LINE
  5
57C
100
AcDbEntity
  8
0
  6
CONTINUOUS
 62
               4
100
AcDbLine
 10
8.75
 20
27.75
 30
0.0
 11
12.75
 21
27.75
 31
0.0
  0
LINE
  5
57D
100
AcDbEntity
  8
0
  6
CONTINUOUS
 62
               4
100
AcDbLine
 10
8.75
 20
-13.75
 30
0.0
 11
12.75
 21
-13.75
 31
0.0
  0
LINE
  5
57E
100
AcDbEntity
  8
0
  6
CONTINUOUS
 62
               4
100
AcDbLine
 10
8.75
 20
-13.449999999999999
 30
0.0
 11
12.75
 21
-13.449999999999999
 31
0.0
  0
LINE
  5
57F
100
AcDbEntity
  8
0
  6
CONTINUOUS
 62
               4
100
AcDbLine
 10
8.75
 20
-13.15
 30
0.0
 11
12.75
 21
-13.15
 31
0.0
  0
LINE
  5
580
100
AcDbEntity
  8
0
  6
CONTINUOUS
 62
               4
100
AcDbLine
 10
8.75
 20
-12.85
 30
0.0
 11
12.75
 21
-12.85
 31
0.0
  0
LINE
  5
581
100
AcDbEntity
  8
0
  6
CONTINUOUS
 62
               4
100
AcDbLine
 10
8.75
 20
-12.550000000000001
 30
0.0
 11
12.75
 21
-12.550000000000001
 31
0.0
  0
LINE
  5
582
100
AcDbEntity
  8
0
  6
CONTINUOUS
 62
               4
100
AcDbLine
 10
8.75
 20
-12.25
 30
0.0
 11
12.75
 21
-12.25
 31
0.0
  0
LINE
  5
583
100
AcDbEntity
  8
0
  6
CONTINUOUS
 62
               4
100
AcDbLine
 10
8.75
 20
-11.949999999999999
 30
0.0
 11
12.75
 21
-11.949999999999999
 31
0.0
  0
LINE
  5
584
100
AcDbEntity
  8
0
  6
CONTINUOUS
 62
               4
100
AcDbLine
 10
6.0
 20
34.399999999999999
 30
0.0
 11
15.0
 21
34.399999999999999
 31
0.0
  0
LINE
  5
585
100
AcDbEntity
  8
0
  6
CONTINUOUS
 62
               4
100
AcDbLine
 10
6.0
 20
-18.600000000000001
 30
0.0
 11
15.0
 21
-18.600000000000001
 31
0.0
  0
CIRCLE
  5
586
100
AcDbEntity
  8
0
  6
CONTINUOUS
 62
               4
100
AcDbCircle
 10
15.0
 20
-37.9000244140625
 30
0.0
 40
2.7999992370605469
  0
CIRCLE
  5
587
100
AcDbEntity
  8
0
  6
CONTINUOUS
 62
               4
100
AcDbCircle
 10
10.5
 20
42.899978637695313
 30
0.0
 40
3.1999998092651367
  0
CIRCLE
  5
588
100
AcDbEntity
  8
0
  6
CONTINUOUS
 62
               4
100
AcDbCircle
 10
16.0
 20
-28.100021362304687
 30
0.0
 40
1.5999994277954102
  0
CIRCLE
  5
589
100
AcDbEntity
  8
0
  6
CONTINUOUS
 62
               4
100
AcDbCircle
 10
6.0
 20
-37.9000244140625
 30
0.0
 40
2.7999992370605469
  0
CIRCLE
  5
58A
100
AcDbEntity
  8
0
  6
CONTINUOUS
 62
               4
100
AcDbCircle
 10
9.699981689453125
 20
-7.34002685546875
 30
0.0
 40
0.3199996948242188
  0
CIRCLE
  5
58B
100
AcDbEntity
  8
0
  6
CONTINUOUS
 62
               4
100
AcDbCircle
 10
12.239990234375
 20
-7.34002685546875
 30
0.0
 40
0.3199996948242188
  0
CIRCLE
  5
58C
100
AcDbEntity
  8
0
  6
CONTINUOUS
 62
               4
100
AcDbCircle
 10
12.239990234375
 20
23.139984130859375
 30
0.0
 40
0.3199996948242188
  0
CIRCLE
  5
58D
100
AcDbEntity
  8
0
  6
CONTINUOUS
 62
               4
100
AcDbCircle
 10
9.699981689453125
 20
23.139984130859375
 30
0.0
 40
0.3199996948242188
  0
CIRCLE
  5
58E
100
AcDbEntity
  8
0
  6
CONTINUOUS
 62
               4
100
AcDbCircle
 10
12.239990234375
 20
20.5999755859375
 30
0.0
 40
0.3199996948242188
  0
CIRCLE
  5
58F
100
AcDbEntity
  8
0
  6
CONTINUOUS
 62
               4
100
AcDbCircle
 10
9.699981689453125
 20
20.5999755859375
 30
0.0
 40
0.3199996948242188
  0
CIRCLE
  5
590
100
AcDbEntity
  8
0
  6
CONTINUOUS
 62
               4
100
AcDbCircle
 10
12.239990234375
 20
18.059967041015625
 30
0.0
 40
0.3199996948242188
  0
CIRCLE
  5
591
100
AcDbEntity
  8
0
  6
CONTINUOUS
 62
               4
100
AcDbCircle
 10
9.699981689453125
 20
18.059967041015625
 30
0.0
 40
0.3199996948242188
  0
CIRCLE
  5
592
100
AcDbEntity
  8
0
  6
CONTINUOUS
 62
               4
100
AcDbCircle
 10
12.239990234375
 20
15.519973754882813
 30
0.0
 40
0.3199996948242188
  0
CIRCLE
  5
593
100
AcDbEntity
  8
0
  6
CONTINUOUS
 62
               4
100
AcDbCircle
 10
9.699981689453125
 20
15.519973754882813
 30
0.0
 40
0.3199996948242188
  0
CIRCLE
  5
594
100
AcDbEntity
  8
0
  6
CONTINUOUS
 62
               4
100
AcDbCircle
 10
12.239990234375
 20
12.97998046875
 30
0.0
 40
0.3199996948242188
  0
CIRCLE
  5
595
100
AcDbEntity
  8
0
  6
CONTINUOUS
 62
               4
100
AcDbCircle
 10
9.699981689453125
 20
12.97998046875
 30
0.0
 40
0.3199996948242188
  0
CIRCLE
  5
596
100
AcDbEntity
  8
0
  6
CONTINUOUS
 62
               4
100
AcDbCircle
 10
12.239990234375
 20
10.439987182617187
 30
0.0
 40
0.3199996948242188
  0
CIRCLE
  5
597
100
AcDbEntity
  8
0
  6
CONTINUOUS
 62
               4
100
AcDbCircle
 10
9.699981689453125
 20
10.439987182617187
 30
0.0
 40
0.3199996948242188
  0
CIRCLE
  5
598
100
AcDbEntity
  8
0
  6
CONTINUOUS
 62
               4
100
AcDbCircle
 10
12.239990234375
 20
7.899993896484375
 30
0.0
 40
0.3199996948242188
  0
CIRCLE
  5
599
100
AcDbEntity
  8
0
  6
CONTINUOUS
 62
               4
100
AcDbCircle
 10
9.699981689453125
 20
7.899993896484375
 30
0.0
 40
0.3199996948242188
  0
CIRCLE
  5
59A
100
AcDbEntity
  8
0
  6
CONTINUOUS
 62
               4
100
AcDbCircle
 10
12.239990234375
 20
5.3599853515625
 30
0.0
 40
0.3199996948242188
  0
CIRCLE
  5
59B
100
AcDbEntity
  8
0
  6
CONTINUOUS
 62
               4
100
AcDbCircle
 10
9.699981689453125
 20
5.3599853515625
 30
0.0
 40
0.3199996948242188
  0
CIRCLE
  5
59C
100
AcDbEntity
  8
0
  6
CONTINUOUS
 62
               4
100
AcDbCircle
 10
12.239990234375
 20
2.819976806640625
 30
0.0
 40
0.3199996948242188
  0
CIRCLE
  5
59D
100
AcDbEntity
  8
0
  6
CONTINUOUS
 62
               4
100
AcDbCircle
 10
9.699981689453125
 20
2.819976806640625
 30
0.0
 40
0.3199996948242188
  0
CIRCLE
  5
59E
100
AcDbEntity
  8
0
  6
CONTINUOUS
 62
               4
100
AcDbCircle
 10
12.239990234375
 20
0.2799835205078125
 30
0.0
 40
0.3199996948242188
  0
CIRCLE
  5
59F
100
AcDbEntity
  8
0
  6
CONTINUOUS
 62
               4
100
AcDbCircle
 10
9.699981689453125
 20
0.2799835205078125
 30
0.0
 40
0.3199996948242188
  0
CIRCLE
  5
5A0
100
AcDbEntity
  8
0
  6
CONTINUOUS
 62
               4
100
AcDbCircle
 10
12.239990234375
 20
-2.260009765625
 30
0.0
 40
0.3199996948242188
  0
CIRCLE
  5
5A1
100
AcDbEntity
  8
0
  6
CONTINUOUS
 62
               4
100
AcDbCircle
 10
9.699981689453125
 20
-2.260009765625
 30
0.0
 40
0.3199996948242188
  0
CIRCLE
  5
5A2
100
AcDbEntity
  8
0
  6
CONTINUOUS
 62
               4
100
AcDbCircle
 10
12.239990234375
 20
-4.800018310546875
 30
0.0
 40
0.3199996948242188
  0
CIRCLE
  5
5A3
100
AcDbEntity
  8
0
  6
CONTINUOUS
 62
               4
100
AcDbCircle
 10
9.699981689453125
 20
-4.800018310546875
 30
0.0
 40
0.3199996948242188
  0
ENDBLK
  5
5A4
100
AcDbEntity
  8
0
100
AcDbBlockEnd
  0
BLOCK
  5
5A5
100
AcDbEntity
  8
0
100
AcDbBlockBegin
  2
F15_CONNECTER-15
 70
               0
 10
0.0
 20
0.0
 30
0.0
  3
F15_CONNECTER-15
  1

  0
LINE
  5
5A6
100
AcDbEntity
  8
0
  6
CONTINUOUS
 62
               4
100
AcDbLine
 10
59.0
 20
59.899999999999999
 30
0.0
 11
59.0
 21
48.899999999999999
 31
0.0
  0
LINE
  5
5A7
100
AcDbEntity
  8
0
  6
CONTINUOUS
 62
               4
100
AcDbLine
 10
49.0
 20
48.899999999999999
 30
0.0
 11
59.0
 21
48.899999999999999
 31
0.0
  0
LINE
  5
5A8
100
AcDbEntity
  8
0
  6
CONTINUOUS
 62
               4
100
AcDbLine
 10
49.0
 20
60.399999999999999
 30
0.0
 11
58.5
 21
60.399999999999999
 31
0.0
  0
LINE
  5
5A9
100
AcDbEntity
  8
0
  6
CONTINUOUS
 62
               4
100
AcDbLine
 10
59.0
 20
48.399999999999999
 30
0.0
 11
59.0
 21
-44.600000000000001
 31
0.0
  0
LINE
  5
5AA
100
AcDbEntity
  8
0
  6
CONTINUOUS
 62
               4
100
AcDbLine
 10
47.5
 20
-44.600000000000001
 30
0.0
 11
59.0
 21
-44.600000000000001
 31
0.0
  0
LINE
  5
5AB
100
AcDbEntity
  8
0
  6
CONTINUOUS
 62
               4
100
AcDbLine
 10
49.0
 20
48.399999999999999
 30
0.0
 11
59.0
 21
48.399999999999999
 31
0.0
  0
LINE
  5
5AC
100
AcDbEntity
  8
0
  6
CONTINUOUS
 62
               4
100
AcDbLine
 10
67.5
 20
28.149999999999999
 30
0.0
 11
67.5
 21
27.52
 31
0.0
  0
LINE
  5
5AD
100
AcDbEntity
  8
0
  6
CONTINUOUS
 62
               4
100
AcDbLine
 10
59.0
 20
-18.350000000000001
 30
0.0
 11
70.760000000000005
 21
-13.85
 31
0.0
  0
LINE
  5
5AE
100
AcDbEntity
  8
0
  6
CONTINUOUS
 62
               4
100
AcDbLine
 10
64.0
 20
25.010000000000002
 30
0.0
 11
64.0
 21
-9.2100000000000009
 31
0.0
  0
LINE
  5
5AF
100
AcDbEntity
  8
0
  6
CONTINUOUS
 62
               4
100
AcDbLine
 10
70.760000000000005
 20
29.649999999999999
 30
0.0
 11
59.0
 21
34.149999999999999
 31
0.0
  0
LINE
  5
5B0
100
AcDbEntity
  8
0
  6
CONTINUOUS
 62
               4
100
AcDbLine
 10
65.079999999999998
 20
26.460000000000001
 30
0.0
 11
67.129999999999995
 21
27.039999999999999
 31
0.0
  0
LINE
  5
5B1
100
AcDbEntity
  8
0
  6
CONTINUOUS
 62
               4
100
AcDbLine
 10
65.079999999999998
 20
-10.66
 30
0.0
 11
67.129999999999995
 21
-11.24
 31
0.0
  0
LINE
  5
5B2
100
AcDbEntity
  8
0
  6
CONTINUOUS
 62
               4
100
AcDbLine
 10
67.5
 20
-11.720000000000001
 30
0.0
 11
67.5
 21
-12.35
 31
0.0
  0
LINE
  5
5B3
100
AcDbEntity
  8
0
  6
CONTINUOUS
 62
               4
100
AcDbLine
 10
67.0
 20
-14.24
 30
0.0
 11
67.0
 21
-14.6
 31
0.0
  0
LINE
  5
5B4
100
AcDbEntity
  8
0
  6
CONTINUOUS
 62
               4
100
AcDbLine
 10
67.0
 20
30.399999999999999
 30
0.0
 11
67.0
 21
30.039999999999999
 31
0.0
  0
LINE
  5
5B5
100
AcDbEntity
  8
0
  6
CONTINUOUS
 62
               4
100
AcDbLine
 10
67.0
 20
-12.35
 30
0.0
 11
67.5
 21
-12.35
 31
0.0
  0
LINE
  5
5B6
100
AcDbEntity
  8
0
  6
CONTINUOUS
 62
               4
100
AcDbLine
 10
67.0
 20
28.149999999999999
 30
0.0
 11
67.5
 21
28.149999999999999
 31
0.0
  0
LINE
  5
5B7
100
AcDbEntity
  8
0
  6
CONTINUOUS
 62
               4
100
AcDbLine
 10
67.319999999999993
 20
-11.35
 30
0.0
 11
73.5
 21
-11.35
 31
0.0
  0
LINE
  5
5B8
100
AcDbEntity
  8
0
  6
CONTINUOUS
 62
               4
100
AcDbLine
 10
67.319999999999993
 20
27.149999999999999
 30
0.0
 11
73.5
 21
27.149999999999999
 31
0.0
  0
LINE
  5
5B9
100
AcDbEntity
  8
0
  6
CONTINUOUS
 62
               4
100
AcDbLine
 10
70.760000000000005
 20
-13.85
 30
0.0
 11
74.319999999999993
 21
-13.85
 31
0.0
  0
LINE
  5
5BA
100
AcDbEntity
  8
0
  6
CONTINUOUS
 62
               4
100
AcDbLine
 10
70.760000000000005
 20
29.649999999999999
 30
0.0
 11
74.319999999999993
 21
29.649999999999999
 31
0.0
  0
LINE
  5
5BB
100
AcDbEntity
  8
0
  6
CONTINUOUS
 62
               4
100
AcDbLine
 10
68.0
 20
-11.35
 30
0.0
 11
68.0
 21
-14.9
 31
0.0
  0
LINE
  5
5BC
100
AcDbEntity
  8
0
  6
CONTINUOUS
 62
               4
100
AcDbLine
 10
68.0
 20
30.699999999999999
 30
0.0
 11
68.0
 21
27.149999999999999
 31
0.0
  0
LINE
  5
5BD
100
AcDbEntity
  8
0
  6
CONTINUOUS
 62
               4
100
AcDbLine
 10
73.5
 20
27.149999999999999
 30
0.0
 11
73.5
 21
26.149999999999999
 31
0.0
  0
LINE
  5
5BE
100
AcDbEntity
  8
0
  6
CONTINUOUS
 62
               4
100
AcDbLine
 10
73.5
 20
-10.35
 30
0.0
 11
73.5
 21
-11.35
 31
0.0
  0
LINE
  5
5BF
100
AcDbEntity
  8
0
  6
CONTINUOUS
 62
               4
100
AcDbLine
 10
73.5
 20
25.149999999999999
 30
0.0
 11
73.689999999999998
 21
25.149999999999999
 31
0.0
  0
LINE
  5
5C0
100
AcDbEntity
  8
0
  6
CONTINUOUS
 62
               4
100
AcDbLine
 10
73.5
 20
-9.3499999999999996
 30
0.0
 11
73.689999999999998
 21
-9.3499999999999996
 31
0.0
  0
LINE
  5
5C1
100
AcDbEntity
  8
0
  6
CONTINUOUS
 62
               4
100
AcDbLine
 10
74.129999999999995
 20
-9.6199999999999992
 30
0.0
 11
75.0
 21
-11.35
 31
0.0
  0
LINE
  5
5C2
100
AcDbEntity
  8
0
  6
CONTINUOUS
 62
               4
100
AcDbLine
 10
74.129999999999995
 20
25.420000000000002
 30
0.0
 11
75.0
 21
27.149999999999999
 31
0.0
  0
LINE
  5
5C3
100
AcDbEntity
  8
0
  6
CONTINUOUS
 62
               4
100
AcDbLine
 10
75.0
 20
27.149999999999999
 30
0.0
 11
75.5
 21
27.75
 31
0.0
  0
LINE
  5
5C4
100
AcDbEntity
  8
0
  6
CONTINUOUS
 62
               4
100
AcDbLine
 10
75.0
 20
-11.35
 30
0.0
 11
75.5
 21
-11.949999999999999
 31
0.0
  0
LINE
  5
5C5
100
AcDbEntity
  8
0
  6
CONTINUOUS
 62
               4
100
AcDbLine
 10
74.319999999999993
 20
-13.85
 30
0.0
 11
77.0
 21
-14.82
 31
0.0
  0
LINE
  5
5C6
100
AcDbEntity
  8
0
  6
CONTINUOUS
 62
               4
100
AcDbLine
 10
74.319999999999993
 20
29.649999999999999
 30
0.0
 11
77.0
 21
30.620000000000001
 31
0.0
  0
LINE
  5
5C7
100
AcDbEntity
  8
0
  6
CONTINUOUS
 62
               4
100
AcDbLine
 10
75.5
 20
27.75
 30
0.0
 11
75.75
 21
27.75
 31
0.0
  0
LINE
  5
5C8
100
AcDbEntity
  8
0
  6
CONTINUOUS
 62
               4
100
AcDbLine
 10
75.75
 20
28.050000000000001
 30
0.0
 11
75.939999999999998
 21
28.050000000000001
 31
0.0
  0
LINE
  5
5C9
100
AcDbEntity
  8
0
  6
CONTINUOUS
 62
               4
100
AcDbLine
 10
76.0
 20
28.350000000000001
 30
0.0
 11
76.25
 21
28.350000000000001
 31
0.0
  0
LINE
  5
5CA
100
AcDbEntity
  8
0
  6
CONTINUOUS
 62
               4
100
AcDbLine
 10
76.25
 20
28.649999999999999
 30
0.0
 11
76.5
 21
28.649999999999999
 31
0.0
  0
LINE
  5
5CB
100
AcDbEntity
  8
0
  6
CONTINUOUS
 62
               4
100
AcDbLine
 10
76.5
 20
28.949999999999999
 30
0.0
 11
76.75
 21
28.949999999999999
 31
0.0
  0
LINE
  5
5CC
100
AcDbEntity
  8
0
  6
CONTINUOUS
 62
               4
100
AcDbLine
 10
76.75
 20
29.25
 30
0.0
 11
77.0
 21
29.25
 31
0.0
  0
LINE
  5
5CD
100
AcDbEntity
  8
0
  6
CONTINUOUS
 62
               4
100
AcDbLine
 10
77.0
 20
29.550000000000001
 30
0.0
 11
77.25
 21
29.550000000000001
 31
0.0
  0
LINE
  5
5CE
100
AcDbEntity
  8
0
  6
CONTINUOUS
 62
               4
100
AcDbLine
 10
75.75
 20
28.050000000000001
 30
0.0
 11
75.75
 21
27.75
 31
0.0
  0
LINE
  5
5CF
100
AcDbEntity
  8
0
  6
CONTINUOUS
 62
               4
100
AcDbLine
 10
76.0
 20
28.350000000000001
 30
0.0
 11
76.0
 21
28.050000000000001
 31
0.0
  0
LINE
  5
5D0
100
AcDbEntity
  8
0
  6
CONTINUOUS
 62
               4
100
AcDbLine
 10
76.25
 20
28.649999999999999
 30
0.0
 11
76.25
 21
28.350000000000001
 31
0.0
  0
LINE
  5
5D1
100
AcDbEntity
  8
0
  6
CONTINUOUS
 62
               4
100
AcDbLine
 10
76.5
 20
28.949999999999999
 30
0.0
 11
76.5
 21
28.649999999999999
 31
0.0
  0
LINE
  5
5D2
100
AcDbEntity
  8
0
  6
CONTINUOUS
 62
               4
100
AcDbLine
 10
76.75
 20
29.25
 30
0.0
 11
76.75
 21
28.949999999999999
 31
0.0
  0
LINE
  5
5D3
100
AcDbEntity
  8
0
  6
CONTINUOUS
 62
               4
100
AcDbLine
 10
77.0
 20
29.550000000000001
 30
0.0
 11
77.0
 21
29.25
 31
0.0
  0
LINE
  5
5D4
100
AcDbEntity
  8
0
  6
CONTINUOUS
 62
               4
100
AcDbLine
 10
77.25
 20
29.850000000000001
 30
0.0
 11
77.409999999999997
 21
30.039999999999999
 31
0.0
  0
LINE
  5
5D5
100
AcDbEntity
  8
0
  6
CONTINUOUS
 62
               4
100
AcDbLine
 10
77.25
 20
29.850000000000001
 30
0.0
 11
77.25
 21
29.550000000000001
 31
0.0
  0
LINE
  5
5D6
100
AcDbEntity
  8
0
  6
CONTINUOUS
 62
               4
100
AcDbLine
 10
75.5
 20
-11.949999999999999
 30
0.0
 11
75.75
 21
-11.949999999999999
 31
0.0
  0
LINE
  5
5D7
100
AcDbEntity
  8
0
  6
CONTINUOUS
 62
               4
100
AcDbLine
 10
75.75
 20
-12.25
 30
0.0
 11
76.0
 21
-12.25
 31
0.0
  0
LINE
  5
5D8
100
AcDbEntity
  8
0
  6
CONTINUOUS
 62
               4
100
AcDbLine
 10
76.0
 20
-12.550000000000001
 30
0.0
 11
76.25
 21
-12.550000000000001
 31
0.0
  0
LINE
  5
5D9
100
AcDbEntity
  8
0
  6
CONTINUOUS
 62
               4
100
AcDbLine
 10
76.25
 20
-12.85
 30
0.0
 11
76.5
 21
-12.85
 31
0.0
  0
LINE
  5
5DA
100
AcDbEntity
  8
0
  6
CONTINUOUS
 62
               4
100
AcDbLine
 10
76.5
 20
-13.15
 30
0.0
 11
76.75
 21
-13.15
 31
0.0
  0
LINE
  5
5DB
100
AcDbEntity
  8
0
  6
CONTINUOUS
 62
               4
100
AcDbLine
 10
76.75
 20
-13.449999999999999
 30
0.0
 11
77.0
 21
-13.449999999999999
 31
0.0
  0
LINE
  5
5DC
100
AcDbEntity
  8
0
  6
CONTINUOUS
 62
               4
100
AcDbLine
 10
77.0
 20
-13.75
 30
0.0
 11
77.25
 21
-13.75
 31
0.0
  0
LINE
  5
5DD
100
AcDbEntity
  8
0
  6
CONTINUOUS
 62
               4
100
AcDbLine
 10
77.25
 20
-13.75
 30
0.0
 11
77.25
 21
-14.050000000000001
 31
0.0
  0
LINE
  5
5DE
100
AcDbEntity
  8
0
  6
CONTINUOUS
 62
               4
100
AcDbLine
 10
77.0
 20
-13.449999999999999
 30
0.0
 11
77.0
 21
-13.75
 31
0.0
  0
LINE
  5
5DF
100
AcDbEntity
  8
0
  6
CONTINUOUS
 62
               4
100
AcDbLine
 10
76.75
 20
-13.15
 30
0.0
 11
76.75
 21
-13.449999999999999
 31
0.0
  0
LINE
  5
5E0
100
AcDbEntity
  8
0
  6
CONTINUOUS
 62
               4
100
AcDbLine
 10
76.5
 20
-12.85
 30
0.0
 11
76.5
 21
-13.15
 31
0.0
  0
LINE
  5
5E1
100
AcDbEntity
  8
0
  6
CONTINUOUS
 62
               4
100
AcDbLine
 10
76.25
 20
-12.550000000000001
 30
0.0
 11
76.25
 21
-12.85
 31
0.0
  0
LINE
  5
5E2
100
AcDbEntity
  8
0
  6
CONTINUOUS
 62
               4
100
AcDbLine
 10
76.0
 20
-12.25
 30
0.0
 11
76.0
 21
-12.550000000000001
 31
0.0
  0
LINE
  5
5E3
100
AcDbEntity
  8
0
  6
CONTINUOUS
 62
               4
100
AcDbLine
 10
75.75
 20
-11.949999999999999
 30
0.0
 11
75.75
 21
-12.25
 31
0.0
  0
LINE
  5
5E4
100
AcDbEntity
  8
0
  6
CONTINUOUS
 62
               4
100
AcDbLine
 10
77.25
 20
-14.050000000000001
 30
0.0
 11
77.409999999999997
 21
-14.24
 31
0.0
  0
ARC
  5
5E5
100
AcDbEntity
  8
0
  6
CONTINUOUS
 62
               4
100
AcDbCircle
 10
58.499989318733569
 20
59.899989318733567
 30
0.0
 40
0.5000106813805171
100
AcDbArc
 50
0.0012239568257363
 51
89.998776043174061
  0
ARC
  5
5E6
100
AcDbEntity
  8
0
  6
CONTINUOUS
 62
               4
100
AcDbCircle
 10
65.500690777172053
 20
25.019451007347708
 30
0.0
 40
1.5007205370185219
100
AcDbArc
 50
106.27965408770835
 51
180.36083094702974
  0
ARC
  5
5E7
100
AcDbEntity
  8
0
  6
CONTINUOUS
 62
               4
100
AcDbCircle
 10
65.500670292867369
 20
-9.2194662646229162
 30
0.0
 40
1.5007001492838543
100
AcDbArc
 50
179.63858162618493
 51
253.72093333907563
  0
ARC
  5
5E8
100
AcDbEntity
  8
0
  6
CONTINUOUS
 62
               4
100
AcDbCircle
 10
66.997904950747952
 20
27.524427433798458
 30
0.0
 40
0.5021145692503447
100
AcDbArc
 50
285.252749208186
 51
359.49478351447186
  0
ARC
  5
5E9
100
AcDbEntity
  8
0
  6
CONTINUOUS
 62
               4
100
AcDbCircle
 10
66.997884146058553
 20
-11.724443470746536
 30
0.0
 40
0.5021355147882169
100
AcDbArc
 50
0.507025365715691
 51
74.745441911624681
  0
ARC
  5
5EA
100
AcDbEntity
  8
0
  6
CONTINUOUS
 62
               4
100
AcDbCircle
 10
66.004525129685348
 20
30.396388531500513
 30
0.0
 40
0.9954814212895613
100
AcDbArc
 50
0.2078615957451229
 51
69.693441228005085
  0
ARC
  5
5EB
100
AcDbEntity
  8
0
  6
CONTINUOUS
 62
               4
100
AcDbCircle
 10
66.004545002392263
 20
-14.596402421026845
 30
0.0
 40
0.9954614984200527
100
AcDbArc
 50
290.30576348735525
 51
359.79293368889233
  0
ARC
  5
5EC
100
AcDbEntity
  8
0
  6
CONTINUOUS
 62
               4
100
AcDbCircle
 10
67.000706937746585
 20
28.896616840086697
 30
0.0
 40
0.7466171747703256
100
AcDbArc
 50
113.75078324506534
 51
269.94574923176253
  0
ARC
  5
5ED
100
AcDbEntity
  8
0
  6
CONTINUOUS
 62
               4
100
AcDbCircle
 10
67.0007155622516
 20
-13.096618649423412
 30
0.0
 40
0.7466189923221731
100
AcDbArc
 50
90.05491248373464
 51
246.24855503943593
  0
ARC
  5
5EE
100
AcDbEntity
  8
0
  6
CONTINUOUS
 62
               4
100
AcDbCircle
 10
66.496604507044196
 20
30.040475321492909
 30
0.0
 40
0.5033957173623276
100
AcDbArc
 50
293.83141649879337
 51
359.9458995804622
  0
ARC
  5
5EF
100
AcDbEntity
  8
0
  6
CONTINUOUS
 62
               4
100
AcDbCircle
 10
66.49658464989021
 20
-14.240488271810722
 30
0.0
 40
0.5034155869016292
100
AcDbArc
 50
0.0555722133438979
 51
66.16711170739805
  0
ARC
  5
5F0
100
AcDbEntity
  8
0
  6
CONTINUOUS
 62
               4
100
AcDbCircle
 10
73.500010681266431
 20
25.649989318733567
 30
0.0
 40
0.5000106813805171
100
AcDbArc
 50
90.001223956825541
 51
179.99877604317388
  0
ARC
  5
5F1
100
AcDbEntity
  8
0
  6
CONTINUOUS
 62
               4
100
AcDbCircle
 10
73.499989318961738
 20
-9.8500106810382562
 30
0.0
 40
0.4999893190758301
100
AcDbArc
 50
179.99877601702713
 51
270.00122398297242
  0
ARC
  5
5F2
100
AcDbEntity
  8
0
  6
CONTINUOUS
 62
               4
100
AcDbCircle
 10
73.499989318961738
 20
25.649989318961744
 30
0.0
 40
0.499989319075831
100
AcDbArc
 50
179.99877601702735
 51
270.00122398297242
  0
ARC
  5
5F3
100
AcDbEntity
  8
0
  6
CONTINUOUS
 62
               4
100
AcDbCircle
 10
73.500010681266431
 20
-9.850010681266431
 30
0.0
 40
0.500010681380518
100
AcDbArc
 50
90.001223956825541
 51
179.99877604317388
  0
ARC
  5
5F4
100
AcDbEntity
  8
0
  6
CONTINUOUS
 62
               4
100
AcDbCircle
 10
73.687380045914679
 20
25.647788073324215
 30
0.0
 40
0.4977949679368452
100
AcDbArc
 50
270.30155589010133
 51
332.76802792027479
  0
ARC
  5
5F5
100
AcDbEntity
  8
0
  6
CONTINUOUS
 62
               4
100
AcDbCircle
 10
73.68736504005841
 20
-9.8478125273122128
 30
0.0
 40
0.4978195007860449
100
AcDbArc
 50
27.233684319026249
 51
89.696731870596608
  0
ARC
  5
5F6
100
AcDbEntity
  8
0
  6
CONTINUOUS
 62
               4
100
AcDbCircle
 10
77.134714800466384
 20
30.28031563481245
 30
0.0
 40
0.365422420518458
100
AcDbArc
 50
318.88002621581774
 51
111.63269121010603
  0
ARC
  5
5F7
100
AcDbEntity
  8
0
  6
CONTINUOUS
 62
               4
100
AcDbCircle
 10
77.134734881708638
 20
-14.480329830173348
 30
0.0
 40
0.3654166288212772
100
AcDbArc
 50
248.36356136538495
 51
41.123721208689034
  0
ENDBLK
  5
5F8
100
AcDbEntity
  8
0
100
AcDbBlockEnd
  0
BLOCK
  5
5F9
100
AcDbEntity
  8
0
100
AcDbBlockBegin
  2
F15_CONNECTER-16
 70
               0
 10
0.0
 20
0.0
 30
0.0
  3
F15_CONNECTER-16
  1

  0
LINE
  5
5FA
100
AcDbEntity
  8
0
  6
CONTINUOUS
 62
               7
100
AcDbLine
 10
0.0
 20
0.0
 30
0.0
 11
21.0
 21
0.0
 31
0.0
  0
LINE
  5
5FB
100
AcDbEntity
  8
0
  6
CONTINUOUS
 62
               4
100
AcDbLine
 10
0.0
 20
49.0
 30
0.0
 11
0.0
 21
3.0
 31
0.0
  0
LINE
  5
5FC
100
AcDbEntity
  8
0
  6
CONTINUOUS
 62
               4
100
AcDbLine
 10
21.0
 20
49.0
 30
0.0
 11
21.0
 21
3.0
 31
0.0
  0
LINE
  5
5FD
100
AcDbEntity
  8
0
  6
CONTINUOUS
 62
               4
100
AcDbLine
 10
0.0
 20
49.0
 30
0.0
 11
21.0
 21
49.0
 31
0.0
  0
LINE
  5
5FE
100
AcDbEntity
  8
0
  6
CONTINUOUS
 62
               4
100
AcDbLine
 10
0.0
 20
5.0
 30
0.0
 11
21.0
 21
5.0
 31
0.0
  0
LINE
  5
5FF
100
AcDbEntity
  8
0
  6
CONTINUOUS
 62
               4
100
AcDbLine
 10
0.0
 20
59.0
 30
0.0
 11
21.0
 21
59.0
 31
0.0
  0
LINE
  5
600
100
AcDbEntity
  8
0
  6
CONTINUOUS
 62
               4
100
AcDbLine
 10
0.0
 20
59.0
 30
0.0
 11
0.0
 21
49.0
 31
0.0
  0
LINE
  5
601
100
AcDbEntity
  8
0
  6
CONTINUOUS
 62
               4
100
AcDbLine
 10
21.0
 20
59.0
 30
0.0
 11
21.0
 21
49.0
 31
0.0
  0
LINE
  5
602
100
AcDbEntity
  8
0
  6
CONTINUOUS
 62
               4
100
AcDbLine
 10
2.5
 20
50.5
 30
0.0
 11
18.5
 21
50.5
 31
0.0
  0
LINE
  5
603
100
AcDbEntity
  8
0
  6
CONTINUOUS
 62
               4
100
AcDbLine
 10
1.5
 20
59.0
 30
0.0
 11
1.5
 21
49.0
 31
0.0
  0
LINE
  5
604
100
AcDbEntity
  8
0
  6
CONTINUOUS
 62
               4
100
AcDbLine
 10
19.5
 20
59.0
 30
0.0
 11
19.5
 21
49.0
 31
0.0
  0
LINE
  5
605
100
AcDbEntity
  8
0
  6
CONTINUOUS
 62
               4
100
AcDbLine
 10
18.5
 20
57.5
 30
0.0
 11
18.5
 21
50.5
 31
0.0
  0
LINE
  5
606
100
AcDbEntity
  8
0
  6
CONTINUOUS
 62
               4
100
AcDbLine
 10
2.5
 20
57.5
 30
0.0
 11
2.5
 21
50.5
 31
0.0
  0
LINE
  5
607
100
AcDbEntity
  8
0
  6
CONTINUOUS
 62
               4
100
AcDbLine
 10
1.5
 20
57.5
 30
0.0
 11
19.5
 21
57.5
 31
0.0
  0
LINE
  5
608
100
AcDbEntity
  8
0
  6
CONTINUOUS
 62
               4
100
AcDbLine
 10
9.5
 20
57.5
 30
0.0
 11
9.5
 21
50.5
 31
0.0
  0
LINE
  5
609
100
AcDbEntity
  8
0
  6
CONTINUOUS
 62
               4
100
AcDbLine
 10
11.5
 20
57.5
 30
0.0
 11
11.5
 21
50.5
 31
0.0
  0
LINE
  5
60A
100
AcDbEntity
  8
0
  6
CONTINUOUS
 62
               4
100
AcDbLine
 10
2.5
 20
56.5
 30
0.0
 11
9.5
 21
56.5
 31
0.0
  0
LINE
  5
60B
100
AcDbEntity
  8
0
  6
CONTINUOUS
 62
               4
100
AcDbLine
 10
11.5
 20
56.5
 30
0.0
 11
18.5
 21
56.5
 31
0.0
  0
LINE
  5
60C
100
AcDbEntity
  8
0
  6
CONTINUOUS
 62
               4
100
AcDbLine
 10
3.0499999999999998
 20
51.299999999999997
 30
0.0
 11
8.9499999999999993
 21
51.299999999999997
 31
0.0
  0
LINE
  5
60D
100
AcDbEntity
  8
0
  6
CONTINUOUS
 62
               4
100
AcDbLine
 10
3.0499999999999998
 20
51.299999999999997
 30
0.0
 11
3.0499999999999998
 21
50.5
 31
0.0
  0
LINE
  5
60E
100
AcDbEntity
  8
0
  6
CONTINUOUS
 62
               4
100
AcDbLine
 10
3.8500000000000001
 20
51.299999999999997
 30
0.0
 11
3.8500000000000001
 21
50.5
 31
0.0
  0
LINE
  5
60F
100
AcDbEntity
  8
0
  6
CONTINUOUS
 62
               4
100
AcDbLine
 10
8.1500000000000004
 20
51.299999999999997
 30
0.0
 11
8.1500000000000004
 21
50.5
 31
0.0
  0
LINE
  5
610
100
AcDbEntity
  8
0
  6
CONTINUOUS
 62
               4
100
AcDbLine
 10
8.9499999999999993
 20
51.299999999999997
 30
0.0
 11
8.9499999999999993
 21
50.5
 31
0.0
  0
LINE
  5
611
100
AcDbEntity
  8
0
  6
CONTINUOUS
 62
               4
100
AcDbLine
 10
12.050000000000001
 20
51.299999999999997
 30
0.0
 11
12.050000000000001
 21
50.5
 31
0.0
  0
LINE
  5
612
100
AcDbEntity
  8
0
  6
CONTINUOUS
 62
               4
100
AcDbLine
 10
12.85
 20
51.299999999999997
 30
0.0
 11
12.85
 21
50.5
 31
0.0
  0
LINE
  5
613
100
AcDbEntity
  8
0
  6
CONTINUOUS
 62
               4
100
AcDbLine
 10
17.149999999999999
 20
51.299999999999997
 30
0.0
 11
17.149999999999999
 21
50.5
 31
0.0
  0
LINE
  5
614
100
AcDbEntity
  8
0
  6
CONTINUOUS
 62
               4
100
AcDbLine
 10
17.949999999999999
 20
51.299999999999997
 30
0.0
 11
17.949999999999999
 21
50.5
 31
0.0
  0
LINE
  5
615
100
AcDbEntity
  8
0
  6
CONTINUOUS
 62
               4
100
AcDbLine
 10
12.050000000000001
 20
51.299999999999997
 30
0.0
 11
17.949999999999999
 21
51.299999999999997
 31
0.0
  0
LINE
  5
616
100
AcDbEntity
  8
0
  6
CONTINUOUS
 62
               4
100
AcDbLine
 10
8.9499999999999993
 20
52.0
 30
0.0
 11
3.0499999999999998
 21
52.0
 31
0.0
  0
LINE
  5
617
100
AcDbEntity
  8
0
  6
CONTINUOUS
 62
               4
100
AcDbLine
 10
8.9499999999999993
 20
52.0
 30
0.0
 11
8.9499999999999993
 21
51.299999999999997
 31
0.0
  0
LINE
  5
618
100
AcDbEntity
  8
0
  6
CONTINUOUS
 62
               4
100
AcDbLine
 10
3.0499999999999998
 20
52.0
 30
0.0
 11
3.0499999999999998
 21
51.299999999999997
 31
0.0
  0
LINE
  5
619
100
AcDbEntity
  8
0
  6
CONTINUOUS
 62
               4
100
AcDbLine
 10
17.949999999999999
 20
52.0
 30
0.0
 11
12.050000000000001
 21
52.0
 31
0.0
  0
LINE
  5
61A
100
AcDbEntity
  8
0
  6
CONTINUOUS
 62
               4
100
AcDbLine
 10
17.949999999999999
 20
52.0
 30
0.0
 11
17.949999999999999
 21
51.299999999999997
 31
0.0
  0
LINE
  5
61B
100
AcDbEntity
  8
0
  6
CONTINUOUS
 62
               4
100
AcDbLine
 10
12.050000000000001
 20
52.0
 30
0.0
 11
12.050000000000001
 21
51.299999999999997
 31
0.0
  0
LINE
  5
61C
100
AcDbEntity
  8
0
  6
CONTINUOUS
 62
               4
100
AcDbLine
 10
8.8000000000000007
 20
53.170000000000002
 30
0.0
 11
8.8000000000000007
 21
52.0
 31
0.0
  0
LINE
  5
61D
100
AcDbEntity
  8
0
  6
CONTINUOUS
 62
               4
100
AcDbLine
 10
3.2000000000000002
 20
53.170000000000002
 30
0.0
 11
3.2000000000000002
 21
52.0
 31
0.0
  0
LINE
  5
61E
100
AcDbEntity
  8
0
  6
CONTINUOUS
 62
               4
100
AcDbLine
 10
17.800000000000001
 20
53.170000000000002
 30
0.0
 11
17.800000000000001
 21
52.0
 31
0.0
  0
LINE
  5
61F
100
AcDbEntity
  8
0
  6
CONTINUOUS
 62
               4
100
AcDbLine
 10
12.199999999999999
 20
53.170000000000002
 30
0.0
 11
12.199999999999999
 21
52.0
 31
0.0
  0
LINE
  5
620
100
AcDbEntity
  8
0
  6
CONTINUOUS
 62
               4
100
AcDbLine
 10
6.5
 20
68.0
 30
0.0
 11
6.5
 21
59.0
 31
0.0
  0
LINE
  5
621
100
AcDbEntity
  8
0
  6
CONTINUOUS
 62
               4
100
AcDbLine
 10
15.0
 20
68.0
 30
0.0
 11
15.0
 21
59.0
 31
0.0
  0
LINE
  5
622
100
AcDbEntity
  8
0
  6
CONTINUOUS
 62
               4
100
AcDbLine
 10
8.75
 20
77.5
 30
0.0
 11
8.75
 21
68.200000000000003
 31
0.0
  0
LINE
  5
623
100
AcDbEntity
  8
0
  6
CONTINUOUS
 62
               4
100
AcDbLine
 10
12.75
 20
77.5
 30
0.0
 11
12.75
 21
68.200000000000003
 31
0.0
  0
LINE
  5
624
100
AcDbEntity
  8
0
  6
CONTINUOUS
 62
               4
100
AcDbLine
 10
6.5
 20
68.0
 30
0.0
 11
9.25
 21
68.0
 31
0.0
  0
LINE
  5
625
100
AcDbEntity
  8
0
  6
CONTINUOUS
 62
               4
100
AcDbLine
 10
9.25
 20
68.200000000000003
 30
0.0
 11
9.25
 21
59.0
 31
0.0
  0
LINE
  5
626
100
AcDbEntity
  8
0
  6
CONTINUOUS
 62
               4
100
AcDbLine
 10
12.25
 20
68.200000000000003
 30
0.0
 11
12.25
 21
59.0
 31
0.0
  0
LINE
  5
627
100
AcDbEntity
  8
0
  6
CONTINUOUS
 62
               4
100
AcDbLine
 10
12.25
 20
68.0
 30
0.0
 11
15.0
 21
68.0
 31
0.0
  0
LINE
  5
628
100
AcDbEntity
  8
0
  6
CONTINUOUS
 62
               4
100
AcDbLine
 10
12.25
 20
68.200000000000003
 30
0.0
 11
12.75
 21
68.200000000000003
 31
0.0
  0
LINE
  5
629
100
AcDbEntity
  8
0
  6
CONTINUOUS
 62
               4
100
AcDbLine
 10
8.75
 20
68.200000000000003
 30
0.0
 11
9.25
 21
68.200000000000003
 31
0.0
  0
LINE
  5
62A
100
AcDbEntity
  8
0
  6
CONTINUOUS
 62
               4
100
AcDbLine
 10
8.75
 20
74.5
 30
0.0
 11
12.75
 21
74.5
 31
0.0
  0
LINE
  5
62B
100
AcDbEntity
  8
0
  6
CONTINUOUS
 62
               4
100
AcDbLine
 10
8.75
 20
77.5
 30
0.0
 11
12.75
 21
77.5
 31
0.0
  0
LINE
  5
62C
100
AcDbEntity
  8
0
  6
CONTINUOUS
 62
               4
100
AcDbLine
 10
9.25
 20
59.5
 30
0.0
 11
12.25
 21
59.5
 31
0.0
  0
LINE
  5
62D
100
AcDbEntity
  8
0
  6
CONTINUOUS
 62
               4
100
AcDbLine
 10
6.5
 20
67.5
 30
0.0
 11
9.25
 21
67.5
 31
0.0
  0
LINE
  5
62E
100
AcDbEntity
  8
0
  6
CONTINUOUS
 62
               4
100
AcDbLine
 10
12.25
 20
67.5
 30
0.0
 11
15.0
 21
67.5
 31
0.0
  0
LINE
  5
62F
100
AcDbEntity
  8
0
  6
CONTINUOUS
 62
               4
100
AcDbLine
 10
8.75
 20
70.799999999999997
 30
0.0
 11
12.75
 21
70.799999999999997
 31
0.0
  0
LINE
  5
630
100
AcDbEntity
  8
0
  6
CONTINUOUS
 62
               4
100
AcDbLine
 10
0.0
 20
3.0
 30
0.0
 11
21.0
 21
3.0
 31
0.0
  0
ARC
  5
631
100
AcDbEntity
  8
0
  6
CONTINUOUS
 62
               4
100
AcDbCircle
 10
5.9950000000000001
 20
49.400006980160171
 30
0.0
 40
4.9998664254813097
100
AcDbArc
 50
60.461178304918043
 51
119.53882169508157
  0
ARC
  5
632
100
AcDbEntity
  8
0
  6
CONTINUOUS
 62
               4
100
AcDbCircle
 10
8.1346504131756099
 20
53.169622655999497
 30
0.0
 40
0.66534969382715
100
AcDbArc
 50
0.0324945213217854
 51
60.72575750141467
  0
ARC
  5
633
100
AcDbEntity
  8
0
  6
CONTINUOUS
 62
               4
100
AcDbCircle
 10
3.8678720142080398
 20
53.173883164329908
 30
0.0
 40
0.66788330292613
100
AcDbArc
 50
120.39010529469667
 51
180.33312732899978
  0
ARC
  5
634
100
AcDbEntity
  8
0
  6
CONTINUOUS
 62
               4
100
AcDbCircle
 10
14.995000000000001
 20
49.400006980160171
 30
0.0
 40
4.9998664254813097
100
AcDbArc
 50
60.46117830491805
 51
119.53882169508159
  0
ARC
  5
635
100
AcDbEntity
  8
0
  6
CONTINUOUS
 62
               4
100
AcDbCircle
 10
17.134650413175613
 20
53.169622655999497
 30
0.0
 40
0.66534969382715
100
AcDbArc
 50
0.0324945213217856
 51
60.725757501414947
  0
ARC
  5
636
100
AcDbEntity
  8
0
  6
CONTINUOUS
 62
               4
100
AcDbCircle
 10
12.867872014208038
 20
53.173883164329908
 30
0.0
 40
0.6678833029261305
100
AcDbArc
 50
120.39010529469654
 51
180.33312732899978
  0
ENDBLK
  5
637
100
AcDbEntity
  8
0
100
AcDbBlockEnd
  0
ENDSEC
  0
SECTION
  2
ENTITIES
  0
INSERT
  5
638
100
AcDbEntity
  8
0
  6
ByBlock
100
AcDbBlockReference
  2
F15_CONNECTER-1
 10
-214.25
 20
156.03176879882813
 30
0.0
  0
INSERT
  5
639
100
AcDbEntity
  8
0
  6
ByBlock
100
AcDbBlockReference
  2
F15_CONNECTER-9
 10
-342.25
 20
156.03176879882813
 30
0.0
  0
INSERT
  5
63A
100
AcDbEntity
  8
0
  6
ByBlock
100
AcDbBlockReference
  2
F15_CONNECTER-10
 10
-214.25
 20
22.4317626953125
 30
0.0
  0
INSERT
  5
63B
100
AcDbEntity
  8
0
  6
ByBlock
100
AcDbBlockReference
  2
F15_CONNECTER-11
 10
52.100006103515625
 20
156.03179931640625
 30
0.0
  0
INSERT
  5
63C
100
AcDbEntity
  8
0
  6
ByBlock
100
AcDbBlockReference
  2
F15_CONNECTER-12
 10
-75.899993896484375
 20
156.03179931640625
 30
0.0
  0
INSERT
  5
63D
100
AcDbEntity
  8
0
  6
ByBlock
100
AcDbBlockReference
  2
F15_CONNECTER-13
 10
52.100021362304688
 20
22.4317626953125
 30
0.0
  0
INSERT
  5
63E
100
AcDbEntity
  8
0
  6
ByBlock
100
AcDbBlockReference
  2
F15_CONNECTER-14
 10
318.449951171875
 20
156.03179931640625
 30
0.0
  0
INSERT
  5
63F
100
AcDbEntity
  8
0
  6
ByBlock
100
AcDbBlockReference
  2
F15_CONNECTER-15
 10
190.45001220703125
 20
156.03179931640625
 30
0.0
  0
INSERT
  5
640
100
AcDbEntity
  8
0
  6
ByBlock
100
AcDbBlockReference
  2
F15_CONNECTER-16
 10
318.449951171875
 20
22.4317626953125
 30
0.0
  0
INSERT
  5
641
100
AcDbEntity
  8
0
  6
ByBlock
100
AcDbBlockReference
  2
F15_CONNECTER-2
 10
-173.8382568359375
 20
-95.46820068359375
 30
0.0
  0
INSERT
  5
642
100
AcDbEntity
  8
0
  6
ByBlock
100
AcDbBlockReference
  2
F15_CONNECTER-3
 10
-309.838134765625
 20
-95.46820068359375
 30
0.0
  0
INSERT
  5
643
100
AcDbEntity
  8
0
  6
ByBlock
100
AcDbBlockReference
  2
F15_CONNECTER-4
 10
-173.8382568359375
 20
-244.0682373046875
 30
0.0
  0
INSERT
  5
644
100
AcDbEntity
  8
0
  6
ByBlock
100
AcDbBlockReference
  2
F15_CONNECTER-5
 10
225.68673706054687
 20
-92.46820068359375
 30
0.0
  0
INSERT
  5
645
100
AcDbEntity
  8
0
  6
ByBlock
100
AcDbBlockReference
  2
F15_CONNECTER-6
 10
89.686737060546875
 20
-92.46820068359375
 30
0.0
  0
INSERT
  5
646
100
AcDbEntity
  8
0
  6
ByBlock
100
AcDbBlockReference
  2
F15_CONNECTER-7
 10
225.686767578125
 20
-231.0682373046875
 30
0.0
  0
LINE
  5
647
100
AcDbEntity
  8
0
  6
CONTINUOUS
 62
               7
100
AcDbLine
 10
399.80000000000001
 20
276.25
 30
0.0
 11
399.80000000000001
 21
-276.75
 31
0.0
  0
LINE
  5
648
100
AcDbEntity
  8
0
  6
CONTINUOUS
 62
               7
100
AcDbLine
 10
-399.25
 20
276.25
 30
0.0
 11
-399.25
 21
-276.75
 31
0.0
  0
LINE
  5
649
100
AcDbEntity
  8
0
  6
CONTINUOUS
 62
               7
100
AcDbLine
 10
-399.25
 20
276.25
 30
0.0
 11
399.80000000000001
 21
276.25
 31
0.0
  0
LINE
  5
64A
100
AcDbEntity
  8
0
  6
CONTINUOUS
 62
               7
100
AcDbLine
 10
-399.25
 20
-276.75
 30
0.0
 11
399.80000000000001
 21
-276.75
 31
0.0
  0
LINE
  5
64B
100
AcDbEntity
  8
0
  6
CONTINUOUS
 62
               7
100
AcDbLine
 10
239.80000000000001
 20
-251.75
 30
0.0
 11
399.80000000000001
 21
-251.75
 31
0.0
  0
LINE
  5
64C
100
AcDbEntity
  8
0
  6
CONTINUOUS
 62
               7
100
AcDbLine
 10
239.80000000000001
 20
251.25
 30
0.0
 11
399.80000000000001
 21
251.25
 31
0.0
  0
LINE
  5
64D
100
AcDbEntity
  8
0
  6
CONTINUOUS
 62
               7
100
AcDbLine
 10
-399.25
 20
251.25
 30
0.0
 11
-239.25
 21
251.25
 31
0.0
  0
LINE
  5
64E
100
AcDbEntity
  8
0
  6
CONTINUOUS
 62
               7
100
AcDbLine
 10
239.80000000000001
 20
-251.75
 30
0.0
 11
239.80000000000001
 21
-276.75
 31
0.0
  0
LINE
  5
64F
100
AcDbEntity
  8
0
  6
CONTINUOUS
 62
               7
100
AcDbLine
 10
239.80000000000001
 20
251.25
 30
0.0
 11
239.80000000000001
 21
276.25
 31
0.0
  0
LINE
  5
650
100
AcDbEntity
  8
0
  6
CONTINUOUS
 62
               7
100
AcDbLine
 10
-239.25
 20
276.25
 30
0.0
 11
-239.25
 21
251.25
 31
0.0
  0
LINE
  5
651
100
AcDbEntity
  8
0
  6
CONTINUOUS
 62
               7
100
AcDbLine
 10
-399.25
 20
-0.25
 30
0.0
 11
399.80000000000001
 21
-0.25
 31
0.0
  0
LINE
  5
652
100
AcDbEntity
  8
0
  6
CONTINUOUS
 62
               7
100
AcDbLine
 10
0.27
 20
-0.25
 30
0.0
 11
0.27
 21
-276.75
 31
0.0
  0
LINE
  5
653
100
AcDbEntity
  8
0
  6
CONTINUOUS
 62
               7
100
AcDbLine
 10
-132.90000000000001
 20
-0.25
 30
0.0
 11
-132.90000000000001
 21
276.25
 31
0.0
  0
LINE
  5
654
100
AcDbEntity
  8
0
  6
CONTINUOUS
 62
               7
100
AcDbLine
 10
133.44999999999999
 20
-0.25
 30
0.0
 11
133.44999999999999
 21
276.25
 31
0.0
  0
LINE
  5
656
100
AcDbEntity
  8
0
  6
DASHED
 62
               2
100
AcDbLine
 10
-339.25
 20
216.43000000000001
 30
0.0
 11
-293.25
 21
216.43000000000001
 31
0.0
  0
LINE
  5
657
100
AcDbEntity
  8
0
  6
DASHED
 62
               2
100
AcDbLine
 10
-339.25
 20
175.53
 30
0.0
 11
-339.25
 21
216.43000000000001
 31
0.0
  0
LINE
  5
658
100
AcDbEntity
  8
0
  6
DASHED
 62
               2
100
AcDbLine
 10
-338.75
 20
175.53
 30
0.0
 11
-339.25
 21
175.53
 31
0.0
  0
LINE
  5
659
100
AcDbEntity
  8
0
  6
DASHED
 62
               2
100
AcDbLine
 10
-338.75
 20
175.28
 30
0.0
 11
-338.75
 21
175.53
 31
0.0
  0
LINE
  5
65A
100
AcDbEntity
  8
0
  6
DASHED
 62
               2
100
AcDbLine
 10
-338.55000000000001
 20
173.53
 30
0.0
 11
-338.55000000000001
 21
174.53
 31
0.0
  0
LINE
  5
65B
100
AcDbEntity
  8
0
  6
DASHED
 62
               2
100
AcDbLine
 10
-335.75
 20
172.03
 30
0.0
 11
-337.05000000000001
 21
172.03
 31
0.0
  0
LINE
  5
65C
100
AcDbEntity
  8
0
  6
DASHED
 62
               2
100
AcDbLine
 10
-335.75
 20
170.53
 30
0.0
 11
-335.75
 21
172.03
 31
0.0
  0
LINE
  5
65D
100
AcDbEntity
  8
0
  6
DASHED
 62
               2
100
AcDbLine
 10
-342.25
 20
170.53
 30
0.0
 11
-335.75
 21
170.53
 31
0.0
  0
LINE
  5
65E
100
AcDbEntity
  8
0
  6
DASHED
 62
               2
100
AcDbLine
 10
-342.25
 20
141.53
 30
0.0
 11
-342.25
 21
170.53
 31
0.0
  0
LINE
  5
65F
100
AcDbEntity
  8
0
  6
DASHED
 62
               2
100
AcDbLine
 10
-347.73000000000002
 20
156.03
 30
0.0
 11
-335.51999999999998
 21
156.03
 31
0.0
  0
LINE
  5
660
100
AcDbEntity
  8
0
  6
DASHED
 62
               2
100
AcDbLine
 10
-342.25
 20
141.53
 30
0.0
 11
-335.75
 21
141.53
 31
0.0
  0
LINE
  5
661
100
AcDbEntity
  8
0
  6
DASHED
 62
               2
100
AcDbLine
 10
-335.75
 20
140.03
 30
0.0
 11
-335.75
 21
141.53
 31
0.0
  0
LINE
  5
662
100
AcDbEntity
  8
0
  6
DASHED
 62
               2
100
AcDbLine
 10
-335.75
 20
140.03
 30
0.0
 11
-337.05000000000001
 21
140.03
 31
0.0
  0
LINE
  5
663
100
AcDbEntity
  8
0
  6
DASHED
 62
               2
100
AcDbLine
 10
-338.55000000000001
 20
137.53
 30
0.0
 11
-338.55000000000001
 21
138.53
 31
0.0
  0
LINE
  5
664
100
AcDbEntity
  8
0
  6
DASHED
 62
               2
100
AcDbLine
 10
-338.75
 20
136.53
 30
0.0
 11
-338.75
 21
136.78
 31
0.0
  0
LINE
  5
665
100
AcDbEntity
  8
0
  6
DASHED
 62
               2
100
AcDbLine
 10
-338.75
 20
136.53
 30
0.0
 11
-339.25
 21
136.53
 31
0.0
  0
LINE
  5
666
100
AcDbEntity
  8
0
  6
DASHED
 62
               2
100
AcDbLine
 10
-339.25
 20
112.93000000000001
 30
0.0
 11
-339.25
 21
136.53
 31
0.0
  0
LINE
  5
667
100
AcDbEntity
  8
0
  6
DASHED
 62
               2
100
AcDbLine
 10
-339.25
 20
112.93000000000001
 30
0.0
 11
-337.75
 21
111.43000000000001
 31
0.0
  0
LINE
  5
668
100
AcDbEntity
  8
0
  6
DASHED
 62
               2
100
AcDbLine
 10
-337.75
 20
111.43000000000001
 30
0.0
 11
-294.75
 21
111.43000000000001
 31
0.0
  0
LINE
  5
669
100
AcDbEntity
  8
0
  6
DASHED
 62
               2
100
AcDbLine
 10
-294.75
 20
111.43000000000001
 30
0.0
 11
-293.25
 21
112.93000000000001
 31
0.0
  0
LINE
  5
66A
100
AcDbEntity
  8
0
  6
DASHED
 62
               2
100
AcDbLine
 10
-293.25
 20
112.93000000000001
 30
0.0
 11
-293.25
 21
216.43000000000001
 31
0.0
  0
LINE
  5
66B
100
AcDbEntity
  8
0
  6
DASHED
 62
               2
100
AcDbLine
 10
-72.900000000000006
 20
216.43000000000001
 30
0.0
 11
-26.899999999999999
 21
216.43000000000001
 31
0.0
  0
LINE
  5
66C
100
AcDbEntity
  8
0
  6
DASHED
 62
               2
100
AcDbLine
 10
-72.900000000000006
 20
175.53
 30
0.0
 11
-72.900000000000006
 21
216.43000000000001
 31
0.0
  0
LINE
  5
66D
100
AcDbEntity
  8
0
  6
DASHED
 62
               2
100
AcDbLine
 10
-72.400000000000006
 20
175.53
 30
0.0
 11
-72.900000000000006
 21
175.53
 31
0.0
  0
LINE
  5
66E
100
AcDbEntity
  8
0
  6
DASHED
 62
               2
100
AcDbLine
 10
-72.400000000000006
 20
175.28
 30
0.0
 11
-72.400000000000006
 21
175.53
 31
0.0
  0
LINE
  5
66F
100
AcDbEntity
  8
0
  6
DASHED
 62
               2
100
AcDbLine
 10
-72.200000000000003
 20
173.53
 30
0.0
 11
-72.200000000000003
 21
174.53
 31
0.0
  0
LINE
  5
670
100
AcDbEntity
  8
0
  6
DASHED
 62
               2
100
AcDbLine
 10
-69.400000000000006
 20
172.03
 30
0.0
 11
-70.700000000000003
 21
172.03
 31
0.0
  0
LINE
  5
671
100
AcDbEntity
  8
0
  6
DASHED
 62
               2
100
AcDbLine
 10
-69.400000000000006
 20
170.53
 30
0.0
 11
-69.400000000000006
 21
172.03
 31
0.0
  0
LINE
  5
672
100
AcDbEntity
  8
0
  6
DASHED
 62
               2
100
AcDbLine
 10
-75.900000000000006
 20
170.53
 30
0.0
 11
-69.400000000000006
 21
170.53
 31
0.0
  0
LINE
  5
673
100
AcDbEntity
  8
0
  6
DASHED
 62
               2
100
AcDbLine
 10
-75.900000000000006
 20
141.53
 30
0.0
 11
-75.900000000000006
 21
170.53
 31
0.0
  0
LINE
  5
674
100
AcDbEntity
  8
0
  6
DASHED
 62
               2
100
AcDbLine
 10
-81.379999999999995
 20
156.03
 30
0.0
 11
-69.170000000000002
 21
156.03
 31
0.0
  0
LINE
  5
675
100
AcDbEntity
  8
0
  6
DASHED
 62
               2
100
AcDbLine
 10
-75.900000000000006
 20
141.53
 30
0.0
 11
-69.400000000000006
 21
141.53
 31
0.0
  0
LINE
  5
676
100
AcDbEntity
  8
0
  6
DASHED
 62
               2
100
AcDbLine
 10
-69.400000000000006
 20
140.03
 30
0.0
 11
-69.400000000000006
 21
141.53
 31
0.0
  0
LINE
  5
677
100
AcDbEntity
  8
0
  6
DASHED
 62
               2
100
AcDbLine
 10
-69.400000000000006
 20
140.03
 30
0.0
 11
-70.700000000000003
 21
140.03
 31
0.0
  0
LINE
  5
678
100
AcDbEntity
  8
0
  6
DASHED
 62
               2
100
AcDbLine
 10
-72.200000000000003
 20
137.53
 30
0.0
 11
-72.200000000000003
 21
138.53
 31
0.0
  0
LINE
  5
679
100
AcDbEntity
  8
0
  6
DASHED
 62
               2
100
AcDbLine
 10
-72.400000000000006
 20
136.53
 30
0.0
 11
-72.400000000000006
 21
136.78
 31
0.0
  0
LINE
  5
67A
100
AcDbEntity
  8
0
  6
DASHED
 62
               2
100
AcDbLine
 10
-72.400000000000006
 20
136.53
 30
0.0
 11
-72.900000000000006
 21
136.53
 31
0.0
  0
LINE
  5
67B
100
AcDbEntity
  8
0
  6
DASHED
 62
               2
100
AcDbLine
 10
-72.900000000000006
 20
112.93000000000001
 30
0.0
 11
-72.900000000000006
 21
136.53
 31
0.0
  0
LINE
  5
67C
100
AcDbEntity
  8
0
  6
DASHED
 62
               2
100
AcDbLine
 10
-72.900000000000006
 20
112.93000000000001
 30
0.0
 11
-71.400000000000006
 21
111.43000000000001
 31
0.0
  0
LINE
  5
67D
100
AcDbEntity
  8
0
  6
DASHED
 62
               2
100
AcDbLine
 10
-71.400000000000006
 20
111.43000000000001
 30
0.0
 11
-28.399999999999999
 21
111.43000000000001
 31
0.0
  0
LINE
  5
67E
100
AcDbEntity
  8
0
  6
DASHED
 62
               2
100
AcDbLine
 10
-28.399999999999999
 20
111.43000000000001
 30
0.0
 11
-26.899999999999999
 21
112.93000000000001
 31
0.0
  0
LINE
  5
67F
100
AcDbEntity
  8
0
  6
DASHED
 62
               2
100
AcDbLine
 10
-26.899999999999999
 20
112.93000000000001
 30
0.0
 11
-26.899999999999999
 21
216.43000000000001
 31
0.0
  0
LINE
  5
680
100
AcDbEntity
  8
0
  6
DASHED
 62
               2
100
AcDbLine
 10
193.44999999999999
 20
216.43000000000001
 30
0.0
 11
239.44999999999999
 21
216.43000000000001
 31
0.0
  0
LINE
  5
681
100
AcDbEntity
  8
0
  6
DASHED
 62
               2
100
AcDbLine
 10
193.44999999999999
 20
175.53
 30
0.0
 11
193.44999999999999
 21
216.43000000000001
 31
0.0
  0
LINE
  5
682
100
AcDbEntity
  8
0
  6
DASHED
 62
               2
100
AcDbLine
 10
193.94999999999999
 20
175.53
 30
0.0
 11
193.44999999999999
 21
175.53
 31
0.0
  0
LINE
  5
683
100
AcDbEntity
  8
0
  6
DASHED
 62
               2
100
AcDbLine
 10
193.94999999999999
 20
175.28
 30
0.0
 11
193.94999999999999
 21
175.53
 31
0.0
  0
LINE
  5
684
100
AcDbEntity
  8
0
  6
DASHED
 62
               2
100
AcDbLine
 10
194.15000000000001
 20
173.53
 30
0.0
 11
194.15000000000001
 21
174.53
 31
0.0
  0
LINE
  5
685
100
AcDbEntity
  8
0
  6
DASHED
 62
               2
100
AcDbLine
 10
196.94999999999999
 20
172.03
 30
0.0
 11
195.65000000000001
 21
172.03
 31
0.0
  0
LINE
  5
686
100
AcDbEntity
  8
0
  6
DASHED
 62
               2
100
AcDbLine
 10
196.94999999999999
 20
170.53
 30
0.0
 11
196.94999999999999
 21
172.03
 31
0.0
  0
LINE
  5
687
100
AcDbEntity
  8
0
  6
DASHED
 62
               2
100
AcDbLine
 10
190.44999999999999
 20
170.53
 30
0.0
 11
196.94999999999999
 21
170.53
 31
0.0
  0
LINE
  5
688
100
AcDbEntity
  8
0
  6
DASHED
 62
               2
100
AcDbLine
 10
190.44999999999999
 20
141.53
 30
0.0
 11
190.44999999999999
 21
170.53
 31
0.0
  0
LINE
  5
689
100
AcDbEntity
  8
0
  6
DASHED
 62
               2
100
AcDbLine
 10
184.96000000000001
 20
156.03
 30
0.0
 11
197.16999999999999
 21
156.03
 31
0.0
  0
LINE
  5
68A
100
AcDbEntity
  8
0
  6
DASHED
 62
               2
100
AcDbLine
 10
190.44999999999999
 20
141.53
 30
0.0
 11
196.94999999999999
 21
141.53
 31
0.0
  0
LINE
  5
68B
100
AcDbEntity
  8
0
  6
DASHED
 62
               2
100
AcDbLine
 10
196.94999999999999
 20
140.03
 30
0.0
 11
196.94999999999999
 21
141.53
 31
0.0
  0
LINE
  5
68C
100
AcDbEntity
  8
0
  6
DASHED
 62
               2
100
AcDbLine
 10
196.94999999999999
 20
140.03
 30
0.0
 11
195.65000000000001
 21
140.03
 31
0.0
  0
LINE
  5
68D
100
AcDbEntity
  8
0
  6
DASHED
 62
               2
100
AcDbLine
 10
194.15000000000001
 20
137.53
 30
0.0
 11
194.15000000000001
 21
138.53
 31
0.0
  0
LINE
  5
68E
100
AcDbEntity
  8
0
  6
DASHED
 62
               2
100
AcDbLine
 10
193.94999999999999
 20
136.53
 30
0.0
 11
193.94999999999999
 21
136.78
 31
0.0
  0
LINE
  5
68F
100
AcDbEntity
  8
0
  6
DASHED
 62
               2
100
AcDbLine
 10
193.94999999999999
 20
136.53
 30
0.0
 11
193.44999999999999
 21
136.53
 31
0.0
  0
LINE
  5
690
100
AcDbEntity
  8
0
  6
DASHED
 62
               2
100
AcDbLine
 10
193.44999999999999
 20
112.93000000000001
 30
0.0
 11
193.44999999999999
 21
136.53
 31
0.0
  0
LINE
  5
691
100
AcDbEntity
  8
0
  6
DASHED
 62
               2
100
AcDbLine
 10
193.44999999999999
 20
112.93000000000001
 30
0.0
 11
194.94999999999999
 21
111.43000000000001
 31
0.0
  0
LINE
  5
692
100
AcDbEntity
  8
0
  6
DASHED
 62
               2
100
AcDbLine
 10
194.94999999999999
 20
111.43000000000001
 30
0.0
 11
237.94999999999999
 21
111.43000000000001
 31
0.0
  0
LINE
  5
693
100
AcDbEntity
  8
0
  6
DASHED
 62
               2
100
AcDbLine
 10
237.94999999999999
 20
111.43000000000001
 30
0.0
 11
239.44999999999999
 21
112.93000000000001
 31
0.0
  0
LINE
  5
694
100
AcDbEntity
  8
0
  6
DASHED
 62
               2
100
AcDbLine
 10
239.44999999999999
 20
112.93000000000001
 30
0.0
 11
239.44999999999999
 21
216.43000000000001
 31
0.0
  0
LINE
  5
695
100
AcDbEntity
  8
0
  6
DASHED
 62
               2
100
AcDbLine
 10
92.680000000000007
 20
-32.060000000000002
 30
0.0
 11
138.68000000000001
 21
-32.060000000000002
 31
0.0
  0
LINE
  5
696
100
AcDbEntity
  8
0
  6
DASHED
 62
               2
100
AcDbLine
 10
92.680000000000007
 20
-72.959999999999994
 30
0.0
 11
92.680000000000007
 21
-32.060000000000002
 31
0.0
  0
LINE
  5
697
100
AcDbEntity
  8
0
  6
DASHED
 62
               2
100
AcDbLine
 10
93.180000000000007
 20
-72.959999999999994
 30
0.0
 11
92.680000000000007
 21
-72.959999999999994
 31
0.0
  0
LINE
  5
698
100
AcDbEntity
  8
0
  6
DASHED
 62
               2
100
AcDbLine
 10
93.180000000000007
 20
-73.209999999999994
 30
0.0
 11
93.180000000000007
 21
-72.959999999999994
 31
0.0
  0
LINE
  5
699
100
AcDbEntity
  8
0
  6
DASHED
 62
               2
100
AcDbLine
 10
93.379999999999995
 20
-74.959999999999994
 30
0.0
 11
93.379999999999995
 21
-73.959999999999994
 31
0.0
  0
LINE
  5
69A
100
AcDbEntity
  8
0
  6
DASHED
 62
               2
100
AcDbLine
 10
96.180000000000007
 20
-76.459999999999994
 30
0.0
 11
94.879999999999995
 21
-76.459999999999994
 31
0.0
  0
LINE
  5
69B
100
AcDbEntity
  8
0
  6
DASHED
 62
               2
100
AcDbLine
 10
96.180000000000007
 20
-77.959999999999994
 30
0.0
 11
96.180000000000007
 21
-76.459999999999994
 31
0.0
  0
LINE
  5
69C
100
AcDbEntity
  8
0
  6
DASHED
 62
               2
100
AcDbLine
 10
89.680000000000007
 20
-77.959999999999994
 30
0.0
 11
96.180000000000007
 21
-77.959999999999994
 31
0.0
  0
LINE
  5
69D
100
AcDbEntity
  8
0
  6
DASHED
 62
               2
100
AcDbLine
 10
89.680000000000007
 20
-106.95999999999999
 30
0.0
 11
89.680000000000007
 21
-77.959999999999994
 31
0.0
  0
LINE
  5
69E
100
AcDbEntity
  8
0
  6
DASHED
 62
               2
100
AcDbLine
 10
84.200000000000003
 20
-92.459999999999994
 30
0.0
 11
96.400000000000006
 21
-92.459999999999994
 31
0.0
  0
LINE
  5
69F
100
AcDbEntity
  8
0
  6
DASHED
 62
               2
100
AcDbLine
 10
89.680000000000007
 20
-106.95999999999999
 30
0.0
 11
96.180000000000007
 21
-106.95999999999999
 31
0.0
  0
LINE
  5
6A0
100
AcDbEntity
  8
0
  6
DASHED
 62
               2
100
AcDbLine
 10
96.180000000000007
 20
-108.45999999999999
 30
0.0
 11
96.180000000000007
 21
-106.95999999999999
 31
0.0
  0
LINE
  5
6A1
100
AcDbEntity
  8
0
  6
DASHED
 62
               2
100
AcDbLine
 10
96.180000000000007
 20
-108.45999999999999
 30
0.0
 11
94.879999999999995
 21
-108.45999999999999
 31
0.0
  0
LINE
  5
6A2
100
AcDbEntity
  8
0
  6
DASHED
 62
               2
100
AcDbLine
 10
93.379999999999995
 20
-110.97
 30
0.0
 11
93.379999999999995
 21
-109.95999999999999
 31
0.0
  0
LINE
  5
6A3
100
AcDbEntity
  8
0
  6
DASHED
 62
               2
100
AcDbLine
 10
93.180000000000007
 20
-111.95999999999999
 30
0.0
 11
93.180000000000007
 21
-111.70999999999999
 31
0.0
  0
LINE
  5
6A4
100
AcDbEntity
  8
0
  6
DASHED
 62
               2
100
AcDbLine
 10
93.180000000000007
 20
-111.95999999999999
 30
0.0
 11
92.680000000000007
 21
-111.95999999999999
 31
0.0
  0
LINE
  5
6A5
100
AcDbEntity
  8
0
  6
DASHED
 62
               2
100
AcDbLine
 10
92.680000000000007
 20
-135.56
 30
0.0
 11
92.680000000000007
 21
-111.95999999999999
 31
0.0
  0
LINE
  5
6A6
100
AcDbEntity
  8
0
  6
DASHED
 62
               2
100
AcDbLine
 10
92.680000000000007
 20
-135.56
 30
0.0
 11
94.180000000000007
 21
-137.06
 31
0.0
  0
LINE
  5
6A7
100
AcDbEntity
  8
0
  6
DASHED
 62
               2
100
AcDbLine
 10
94.180000000000007
 20
-137.06
 30
0.0
 11
137.18000000000001
 21
-137.06
 31
0.0
  0
LINE
  5
6A8
100
AcDbEntity
  8
0
  6
DASHED
 62
               2
100
AcDbLine
 10
137.18000000000001
 20
-137.06
 30
0.0
 11
138.68000000000001
 21
-135.56
 31
0.0
  0
LINE
  5
6A9
100
AcDbEntity
  8
0
  6
DASHED
 62
               2
100
AcDbLine
 10
138.68000000000001
 20
-135.56
 30
0.0
 11
138.68000000000001
 21
-32.060000000000002
 31
0.0
  0
LINE
  5
6AA
100
AcDbEntity
  8
0
  6
DASHED
 62
               2
100
AcDbLine
 10
-306.82999999999998
 20
-35.060000000000002
 30
0.0
 11
-260.82999999999998
 21
-35.060000000000002
 31
0.0
  0
LINE
  5
6AB
100
AcDbEntity
  8
0
  6
DASHED
 62
               2
100
AcDbLine
 10
-306.82999999999998
 20
-75.959999999999994
 30
0.0
 11
-306.82999999999998
 21
-35.060000000000002
 31
0.0
  0
LINE
  5
6AC
100
AcDbEntity
  8
0
  6
DASHED
 62
               2
100
AcDbLine
 10
-306.32999999999998
 20
-75.959999999999994
 30
0.0
 11
-306.82999999999998
 21
-75.959999999999994
 31
0.0
  0
LINE
  5
6AD
100
AcDbEntity
  8
0
  6
DASHED
 62
               2
100
AcDbLine
 10
-306.32999999999998
 20
-76.209999999999994
 30
0.0
 11
-306.32999999999998
 21
-75.959999999999994
 31
0.0
  0
LINE
  5
6AE
100
AcDbEntity
  8
0
  6
DASHED
 62
               2
100
AcDbLine
 10
-306.13
 20
-77.959999999999994
 30
0.0
 11
-306.13
 21
-76.959999999999994
 31
0.0
  0
LINE
  5
6AF
100
AcDbEntity
  8
0
  6
DASHED
 62
               2
100
AcDbLine
 10
-303.32999999999998
 20
-79.459999999999994
 30
0.0
 11
-304.63
 21
-79.459999999999994
 31
0.0
  0
LINE
  5
6B0
100
AcDbEntity
  8
0
  6
DASHED
 62
               2
100
AcDbLine
 10
-303.32999999999998
 20
-80.959999999999994
 30
0.0
 11
-303.32999999999998
 21
-79.459999999999994
 31
0.0
  0
LINE
  5
6B1
100
AcDbEntity
  8
0
  6
DASHED
 62
               2
100
AcDbLine
 10
-309.82999999999998
 20
-80.959999999999994
 30
0.0
 11
-303.32999999999998
 21
-80.959999999999994
 31
0.0
  0
LINE
  5
6B2
100
AcDbEntity
  8
0
  6
DASHED
 62
               2
100
AcDbLine
 10
-309.82999999999998
 20
-109.95999999999999
 30
0.0
 11
-309.82999999999998
 21
-80.959999999999994
 31
0.0
  0
LINE
  5
6B3
100
AcDbEntity
  8
0
  6
DASHED
 62
               2
100
AcDbLine
 10
-315.31999999999999
 20
-95.459999999999994
 30
0.0
 11
-303.11000000000001
 21
-95.459999999999994
 31
0.0
  0
LINE
  5
6B4
100
AcDbEntity
  8
0
  6
DASHED
 62
               2
100
AcDbLine
 10
-309.82999999999998
 20
-109.95999999999999
 30
0.0
 11
-303.32999999999998
 21
-109.95999999999999
 31
0.0
  0
LINE
  5
6B5
100
AcDbEntity
  8
0
  6
DASHED
 62
               2
100
AcDbLine
 10
-303.32999999999998
 20
-111.45999999999999
 30
0.0
 11
-303.32999999999998
 21
-109.95999999999999
 31
0.0
  0
LINE
  5
6B6
100
AcDbEntity
  8
0
  6
DASHED
 62
               2
100
AcDbLine
 10
-303.32999999999998
 20
-111.45999999999999
 30
0.0
 11
-304.63
 21
-111.45999999999999
 31
0.0
  0
LINE
  5
6B7
100
AcDbEntity
  8
0
  6
DASHED
 62
               2
100
AcDbLine
 10
-306.13
 20
-113.97
 30
0.0
 11
-306.13
 21
-112.95999999999999
 31
0.0
  0
LINE
  5
6B8
100
AcDbEntity
  8
0
  6
DASHED
 62
               2
100
AcDbLine
 10
-306.32999999999998
 20
-114.95999999999999
 30
0.0
 11
-306.32999999999998
 21
-114.70999999999999
 31
0.0
  0
LINE
  5
6B9
100
AcDbEntity
  8
0
  6
DASHED
 62
               2
100
AcDbLine
 10
-306.32999999999998
 20
-114.95999999999999
 30
0.0
 11
-306.82999999999998
 21
-114.95999999999999
 31
0.0
  0
LINE
  5
6BA
100
AcDbEntity
  8
0
  6
DASHED
 62
               2
100
AcDbLine
 10
-306.82999999999998
 20
-138.56
 30
0.0
 11
-306.82999999999998
 21
-114.95999999999999
 31
0.0
  0
LINE
  5
6BB
100
AcDbEntity
  8
0
  6
DASHED
 62
               2
100
AcDbLine
 10
-306.82999999999998
 20
-138.56
 30
0.0
 11
-305.32999999999998
 21
-140.06
 31
0.0
  0
LINE
  5
6BC
100
AcDbEntity
  8
0
  6
DASHED
 62
               2
100
AcDbLine
 10
-305.32999999999998
 20
-140.06
 30
0.0
 11
-262.32999999999998
 21
-140.06
 31
0.0
  0
LINE
  5
6BD
100
AcDbEntity
  8
0
  6
DASHED
 62
               2
100
AcDbLine
 10
-262.32999999999998
 20
-140.06
 30
0.0
 11
-260.82999999999998
 21
-138.56
 31
0.0
  0
LINE
  5
6BE
100
AcDbEntity
  8
0
  6
DASHED
 62
               2
100
AcDbLine
 10
-260.82999999999998
 20
-138.56
 30
0.0
 11
-260.82999999999998
 21
-35.060000000000002
 31
0.0
  0
ARC
  5
6BF
100
AcDbEntity
  8
0
  6
DASHED
 62
               2
100
AcDbCircle
 10
-337.24891346809295
 20
175.27862307517518
 30
0.0
 40
1.5010871634234246
100
AcDbArc
 50
179.94744343023137
 51
209.91539092603998
  0
ARC
  5
6C0
100
AcDbEntity
  8
0
  6
DASHED
 62
               2
100
AcDbCircle
 10
-337.04901773801447
 20
173.53098226198551
 30
0.0
 40
1.5009825833878887
100
AcDbArc
 50
180.03749508540957
 51
269.96250491458835
  0
ARC
  5
6C1
100
AcDbEntity
  8
0
  6
DASHED
 62
               2
100
AcDbCircle
 10
-337.05078642168638
 20
138.5307864216864
 30
0.0
 40
1.4992137845747591
100
AcDbArc
 50
89.969945149866618
 51
180.03005485013387
  0
ARC
  5
6C2
100
AcDbEntity
  8
0
  6
DASHED
 62
               2
100
AcDbCircle
 10
-337.24979748685286
 20
136.78161266316079
 30
0.0
 40
1.5002033799239807
100
AcDbArc
 50
150.07557478749928
 51
180.06159085622673
  0
ARC
  5
6C3
100
AcDbEntity
  8
0
  6
DASHED
 62
               2
100
AcDbCircle
 10
-70.899099442134542
 20
175.27857348209747
 30
0.0
 40
1.5009012357760998
100
AcDbArc
 50
179.9455437402724
 51
209.91729061600282
  0
ARC
  5
6C4
100
AcDbEntity
  8
0
  6
DASHED
 62
               2
100
AcDbCircle
 10
-70.699090922191758
 20
173.53090907780825
 30
0.0
 40
1.5009093531155167
100
AcDbArc
 50
180.03470317826819
 51
269.96529682173082
  0
ARC
  5
6C5
100
AcDbEntity
  8
0
  6
DASHED
 62
               2
100
AcDbCircle
 10
-70.700890227615858
 20
138.53089022761586
 30
0.0
 40
1.4991100367094017
100
AcDbArc
 50
89.965975620905994
 51
180.03402437909341
  0
ARC
  5
6C6
100
AcDbEntity
  8
0
  6
DASHED
 62
               2
100
AcDbCircle
 10
-70.899998829122552
 20
136.78166635443267
 30
0.0
 40
1.5000020964554783
100
AcDbArc
 50
150.07351566881511
 51
180.06364997490849
  0
ARC
  5
6C7
100
AcDbEntity
  8
0
  6
DASHED
 62
               2
100
AcDbCircle
 10
195.450906252891
 20
175.27857500077096
 30
0.0
 40
1.5009069293564044
100
AcDbArc
 50
179.94560192087636
 51
209.91723243539957
  0
ARC
  5
6C8
100
AcDbEntity
  8
0
  6
DASHED
 62
               2
100
AcDbCircle
 10
195.65091212775744
 20
173.53091212775743
 30
0.0
 40
1.5009124049145388
100
AcDbArc
 50
180.03481953638507
 51
269.96518046361393
  0
ARC
  5
6C9
100
AcDbEntity
  8
0
  6
DASHED
 62
               2
100
AcDbCircle
 10
195.64911282599405
 20
138.53088717400595
 30
0.0
 40
1.4991130885085284
100
AcDbArc
 50
89.966092398504244
 51
180.03390760149514
  0
ARC
  5
6CA
100
AcDbEntity
  8
0
  6
DASHED
 62
               2
100
AcDbCircle
 10
195.45000686931581
 20
136.7816648348491
 30
0.0
 40
1.5000077932030003
100
AcDbArc
 50
150.07357395409605
 51
180.06359168962646
  0
ARC
  5
6CB
100
AcDbEntity
  8
0
  6
DASHED
 62
               2
100
AcDbCircle
 10
94.68471169012615
 20
-73.210410215966377
 30
0.0
 40
1.5047117460428745
100
AcDbArc
 50
179.98437996917605
 51
209.87845438709647
  0
ARC
  5
6CC
100
AcDbEntity
  8
0
  6
DASHED
 62
               2
100
AcDbCircle
 10
94.879292917302053
 20
-74.960707082697937
 30
0.0
 40
1.4992930840359593
100
AcDbArc
 50
179.97297869489788
 51
270.02702130510107
  0
ARC
  5
6CD
100
AcDbEntity
  8
0
  6
DASHED
 62
               2
100
AcDbCircle
 10
94.887475151128029
 20
-109.96747515112803
 30
0.0
 40
1.5074936846145914
100
AcDbArc
 50
90.284111549138586
 51
179.71588845086083
  0
ARC
  5
6CE
100
AcDbEntity
  8
0
  6
DASHED
 62
               2
100
AcDbCircle
 10
94.686263291953679
 20
-111.72007115998747
 30
0.0
 40
1.506296960413382
100
AcDbArc
 50
150.13507004499965
 51
179.6169153383791
  0
ARC
  5
6CF
100
AcDbEntity
  8
0
  6
DASHED
 62
               2
100
AcDbCircle
 10
-304.83921585919819
 20
-76.21412422911952
 30
0.0
 40
1.490789845595994
100
AcDbArc
 50
179.84149259910114
 51
210.02134175717259
  0
ARC
  5
6D0
100
AcDbEntity
  8
0
  6
DASHED
 62
               2
100
AcDbCircle
 10
-304.63819213864753
 20
-77.968192138647538
 30
0.0
 40
1.4918303544064959
100
AcDbArc
 50
179.68536816044991
 51
270.31463183954855
  0
ARC
  5
6D1
100
AcDbEntity
  8
0
  6
DASHED
 62
               2
100
AcDbCircle
 10
-304.62996908436583
 20
-112.96003091563415
 30
0.0
 40
1.5000309159527343
100
AcDbArc
 50
90.001180865900764
 51
179.99881913409916
  0
ARC
  5
6D2
100
AcDbEntity
  8
0
  6
DASHED
 62
               2
100
AcDbCircle
 10
-304.83762457016508
 20
-114.71631768373916
 30
0.0
 40
1.4923888021232448
100
AcDbArc
 50
149.99453457376674
 51
179.75745080961144
  0
MTEXT
  5
6D3
100
AcDbEntity
  8
0
  6
CONTINUOUS
 62
               7
100
AcDbMText
 10
245.88456269755227
 20
-264.25
 30
0.0
 40
12.5
 41
0.0
 71
               4
 72
               1
  1
\W1.121;\A1;KOGANEI CORP.
  0
MTEXT
  5
6D4
100
AcDbEntity
  8
0
  6
CONTINUOUS
 62
               7
100
AcDbMText
 10
290.09979829720089
 20
263.75
 30
0.0
 40
9.0
 41
0.0
 71
               4
 72
               1
  1
\W1.200;\A1;Ver.2.0
  0
MTEXT
  5
6D5
100
AcDbEntity
  8
0
  6
CONTINUOUS
 62
               7
100
AcDbMText
 10
-358.25000858306885
 20
258.75
 30
0.0
 40
9.0
 41
0.0
 71
               4
 72
               1
  1
\A1;CONNECTER
  0
MTEXT
  5
6D6
100
AcDbEntity
  8
0
  6
CONTINUOUS
 62
               7
100
AcDbMText
 10
-382.04310404492458
 20
231.25
 30
0.0
 40
9.0
 41
0.0
 71
               4
 72
               1
  1
\W1.138;\A1;MODEL:-F100
  0
MTEXT
  5
6D7
100
AcDbEntity
  8
0
  6
CONTINUOUS
 62
               7
100
AcDbMText
 10
17.424993266562623
 20
-20.25
 30
0.0
 40
9.0
 41
0.0
 71
               4
 72
               1
  1
\W1.100;\A1;MODEL:-T200
  0
MTEXT
  5
6D8
100
AcDbEntity
  8
0
  6
CONTINUOUS
 62
               7
100
AcDbMText
 10
-382.12704980837913
 20
-20.25
 30
0.0
 40
9.0
 41
0.0
 71
               4
 72
               1
  1
\W1.082;\A1;MODEL:-D250
  0
MTEXT
  5
6D9
100
AcDbEntity
  8
0
  6
CONTINUOUS
 62
               7
100
AcDbMText
 10
-115.74999452640613
 20
231.25
 30
0.0
 40
9.0
 41
0.0
 71
               4
 72
               1
  1
\W1.100;\A1;MODEL:-F200
  0
MTEXT
  5
6DA
100
AcDbEntity
  8
0
  6
CONTINUOUS
 62
               7
100
AcDbMText
 10
150.57296239865212
 20
231.25
 30
0.0
 40
9.0
 41
0.0
 71
               4
 72
               1
  1
\W1.082;\A1;MODEL:-F260
  0
MTEXT
  5
6DB
100
AcDbEntity
  8
0
  6
CONTINUOUS
 62
               7
100
AcDbMText
 10
-362.57090654372104
 20
268.75
 30
0.0
 40
9.0
 41
0.0
 71
               4
 72
               1
  1
\W1.119;\A1;F15 SERIES
  0
ENDSEC
  0
SECTION
  2
OBJECTS
  0
DICTIONARY
  5
19
100
AcDbDictionary
  3
ACAD_GROUP
350
1A
  3
ACAD_MLINESTYLE
350
1B
  0
DICTIONARY
  5
1A
102
{ACAD_REACTORS
330
19
102
}
100
AcDbDictionary
  0
DICTIONARY
  5
1B
102
{ACAD_REACTORS
330
19
102
}
100
AcDbDictionary
  3
STANDARD
350
1C
  0
MLINESTYLE
  5
1C
102
{ACAD_REACTORS
330
1B
102
}
100
AcDbMlineStyle
  2
Standard
 70
               0
  3

 62
               0
 51
90.0
 52
90.0
 71
               2
 49
0.5
 62
             256
  6
ByLayer
 49
-0.5
 62
             256
  6
ByLayer
  0
ENDSEC
  0
EOF
