  0
SECTION
  2
HEADER
  9
$ACADVER
  1
AC1012
  9
$DWGCODEPAGE
  3
dos932
  9
$INSBASE
 10
0.0
 20
0.0
 30
0.0
  9
$EXTMIN
 10
-194.25
 20
-133.5
 30
0.0
  9
$EXTMAX
 10
196.2723600854633
 20
132.60000610351562
 30
0.0
  9
$LIMMIN
 10
-194.25
 20
-133.5
  9
$LIMMAX
 10
196.2723600854633
 20
132.60000610351562
  9
$ORTHOMODE
 70
               0
  9
$REGENMODE
 70
               1
  9
$FILLMODE
 70
               1
  9
$QTEXTMODE
 70
               0
  9
$MIRRTEXT
 70
               1
  9
$DRAGMODE
 70
               2
  9
$LTSCALE
 40
1.0
  9
$OSMODE
 70
               0
  9
$ATTMODE
 70
               1
  9
$TEXTSIZE
 40
3.2000000476837158
  9
$TRACEWID
 40
0.05
  9
$TEXTSTYLE
  7
MX_NOTE_STANDARD
  9
$CLAYER
  8
0
  9
$CELTYPE
  6
CONTINUOUS
  9
$CECOLOR
 62
             256
  9
$CELTSCALE
 40
1.0
  9
$DELOBJ
 70
               1
  9
$DISPSILH
 70
               0
  9
$DIMSCALE
 40
1.0
  9
$DIMASZ
 40
2.5
  9
$DIMEXO
 40
1.5
  9
$DIMDLI
 40
3.75
  9
$DIMRND
 40
0.0
  9
$DIMDLE
 40
0.0
  9
$DIMEXE
 40
1.5
  9
$DIMTP
 40
0.0
  9
$DIMTM
 40
0.0
  9
$DIMTXT
 40
3.2000000476837158
  9
$DIMCEN
 40
2.5
  9
$DIMTSZ
 40
0.0
  9
$DIMTOL
 70
               0
  9
$DIMLIM
 70
               0
  9
$DIMTIH
 70
               0
  9
$DIMTOH
 70
               0
  9
$DIMSE1
 70
               0
  9
$DIMSE2
 70
               0
  9
$DIMTAD
 70
               1
  9
$DIMZIN
 70
               8
  9
$DIMBLK
  1

  9
$DIMASO
 70
               1
  9
$DIMSHO
 70
               1
  9
$DIMPOST
  1

  9
$DIMAPOST
  1

  9
$DIMALT
 70
               0
  9
$DIMALTD
 70
               4
  9
$DIMALTF
 40
0.03937007874016
  9
$DIMLFAC
 40
1.0
  9
$DIMTOFL
 70
               1
  9
$DIMTVP
 40
0.0
  9
$DIMTIX
 70
               0
  9
$DIMSOXD
 70
               0
  9
$DIMSAH
 70
               0
  9
$DIMBLK1
  1

  9
$DIMBLK2
  1

  9
$DIMSTYLE
  2
MXDIMSTYLE
  9
$DIMCLRD
 70
               0
  9
$DIMCLRE
 70
               0
  9
$DIMCLRT
 70
               0
  9
$DIMTFAC
 40
1.0
  9
$DIMGAP
 40
1.0
  9
$DIMJUST
 70
               0
  9
$DIMSD1
 70
               0
  9
$DIMSD2
 70
               0
  9
$DIMTOLJ
 70
               1
  9
$DIMTZIN
 70
               0
  9
$DIMALTZ
 70
               0
  9
$DIMALTTZ
 70
               0
  9
$DIMFIT
 70
               3
  9
$DIMUPT
 70
               1
  9
$DIMUNIT
 70
               2
  9
$DIMDEC
 70
               4
  9
$DIMTDEC
 70
               4
  9
$DIMALTU
 70
               2
  9
$DIMALTTD
 70
               4
  9
$DIMTXSTY
  7
MX_NOTE_STANDARD
  9
$DIMAUNIT
 70
               0
  9
$LUNITS
 70
               2
  9
$LUPREC
 70
               4
  9
$SKETCHINC
 40
0.1
  9
$FILLETRAD
 40
0.0
  9
$AUNITS
 70
               0
  9
$AUPREC
 70
               0
  9
$MENU
  1
acad
  9
$ELEVATION
 40
0.0
  9
$PELEVATION
 40
0.0
  9
$THICKNESS
 40
0.0
  9
$LIMCHECK
 70
               0
  9
$BLIPMODE
 70
               1
  9
$CHAMFERA
 40
0.0
  9
$CHAMFERB
 40
0.0
  9
$CHAMFERC
 40
0.0
  9
$CHAMFERD
 40
0.0
  9
$SKPOLY
 70
               0
  9
$TDCREATE
 40
2453378.356331019
  9
$TDUPDATE
 40
2453378.356331019
  9
$TDINDWG
 40
0.0000000000
  9
$TDUSRTIMER
 40
0.0000000000
  9
$USRTIMER
 70
               1
  9
$ANGBASE
 50
0.0
  9
$ANGDIR
 70
               0
  9
$PDMODE
 70
               0
  9
$PDSIZE
 40
0.0
  9
$PLINEWID
 40
0.0
  9
$COORDS
 70
               1
  9
$SPLFRAME
 70
               0
  9
$SPLINETYPE
 70
               6
  9
$SPLINESEGS
 70
               8
  9
$ATTDIA
 70
               0
  9
$ATTREQ
 70
               1
  9
$HANDLING
 70
               1
  9
$HANDSEED
  5
379
  9
$SURFTAB1
 70
               6
  9
$SURFTAB2
 70
               6
  9
$SURFTYPE
 70
               6
  9
$SURFU
 70
               6
  9
$SURFV
 70
               6
  9
$UCSNAME
  2

  9
$UCSORG
 10
0.0
 20
0.0
 30
0.0
  9
$UCSXDIR
 10
1.0
 20
0.0
 30
0.0
  9
$UCSYDIR
 10
0.0
 20
1.0
 30
0.0
  9
$PUCSNAME
  2

  9
$PUCSORG
 10
0.0
 20
0.0
 30
0.0
  9
$PUCSXDIR
 10
1.0
 20
0.0
 30
0.0
  9
$PUCSYDIR
 10
0.0
 20
1.0
 30
0.0
  9
$USERI1
 70
               0
  9
$USERI2
 70
               0
  9
$USERI3
 70
               0
  9
$USERI4
 70
               0
  9
$USERI5
 70
               0
  9
$USERR1
 40
0.0
  9
$USERR2
 40
0.0
  9
$USERR3
 40
0.0
  9
$USERR4
 40
0.0
  9
$USERR5
 40
0.0
  9
$WORLDVIEW
 70
               1
  9
$SHADEDGE
 70
               3
  9
$SHADEDIF
 70
              70
  9
$TILEMODE
 70
               1
  9
$MAXACTVP
 70
              16
  9
$PINSBASE
 10
0.0
 20
0.0
 30
0.0
  9
$PLIMCHECK
 70
               0
  9
$PEXTMIN
 10
1.0000000000000000E+20
 20
1.0000000000000000E+20
 30
1.0000000000000000E+20
  9
$PEXTMAX
 10
-1.0000000000000000E+20
 20
-1.0000000000000000E+20
 30
-1.0000000000000000E+20
  9
$PLIMMIN
 10
0.0
 20
0.0
  9
$PLIMMAX
 10
12.0
 20
9.0
  9
$UNITMODE
 70
               0
  9
$VISRETAIN
 70
               0
  9
$PLINEGEN
 70
               1
  9
$PSLTSCALE
 70
               0
  9
$TREEDEPTH
 70
            3020
  9
$PICKSTYLE
 70
               1
  9
$CMLSTYLE
  2
Standard
  9
$CMLJUST
 70
               0
  9
$CMLSCALE
 40
1.0
  9
$SAVEIMAGES
 70
               0
  0
ENDSEC
  0
SECTION
  2
CLASSES
  0
CLASS
  1
LWPOLYLINE
  2
AcDbPolyline
  3
"AutoCAD"
 90
        0
280
               0
281
               1
  0
CLASS
  1
IMAGE
  2
AcDbRasterImage
  3
ISM
 90
      127
280
               0
281
               1
  0
CLASS
  1
OLE2FRAME
  2
AcDbOle2Frame
  3
""
 90
        0
280
               0
281
               1
  0
CLASS
  1
HATCH
  2
AcDbHatch
  3
"ACAD_SEDONA"
 90
        0
280
               0
281
               1
  0
CLASS
  1
DICTIONARYVAR
  2
AcDbDictionaryVar
  3
"AutoCAD"
 90
        0
280
               0
281
               0
  0
CLASS
  1
RASTERVARIABLES
  2
AcDbRasterVariables
  3
ISM
 90
        0
280
               0
281
               0
  0
CLASS
  1
IMAGEDEF
  2
AcDbRasterImageDef
  3
ISM
 90
        0
280
               0
281
               0
  0
CLASS
  1
IMAGEDEF_REACTOR
  2
AcDbRasterImageDefReactor
  3
ISM
 90
        1
280
               0
281
               0
  0
CLASS
  1
IDBUFFER
  2
AcDbIdBuffer
  3
"Acad"
 90
        0
280
               0
281
               0
  0
CLASS
  1
SPATIAL_FILTER
  2
AcDbSpatialFilter
  3
"Acad"
 90
        0
280
               0
281
               0
  0
CLASS
  1
XRECORD
  2
AcDbXrecord
  3
"<Built In>"
 90
        0
280
               0
281
               0
  0
CLASS
  1
SORTENTSTABLE
  2
AcDbSortentsTable
  3
"AutoCAD"
 90
        0
280
               0
281
               0
  0
CLASS
  1
LAYER_INDEX
  2
AcDbLayerIndex
  3
"Acad"
 90
        0
280
               0
281
               0
  0
CLASS
  1
SPATIAL_INDEX
  2
AcDbSpatialIndex
  3
"Acad"
 90
        0
280
               0
281
               0
  0
CLASS
  1
OBJECT_PTR
  2
CAseDLPNTableRecord
  3
"ASE-LPNTableRecord"
 90
        1
280
               0
281
               0
  0
CLASS
  1
LAYOUT
  2
AcDbLayout
  3
"AutoCAD 2000"
 90
        1
280
               0
281
               0
  0
CLASS
  1
PLOTSETTINGS
  2
AcDbPlotSettings
  3
"AutoCAD 2000"
 90
        1
280
               0
281
               0
  0
CLASS
  1
ACDBDICTIONARYWDFLT
  2
AcDbDictionaryWithDefault
  3
"AutoCAD 2000"
 90
        1
280
               0
281
               0
  0
CLASS
  1
ACDBPLACEHOLDER
  2
AcDbPlaceHolder
  3
"AutoCAD 2000"
 90
        1
280
               0
281
               0
  0
ENDSEC
  0
SECTION
  2
TABLES
  0
TABLE
  2
VPORT
  5
7
100
AcDbSymbolTable
 70
               1
  0
VPORT
  5
15
100
AcDbSymbolTableRecord
100
AcDbViewportTableRecord
  2
*ACTIVE
 70
               0
 10
0.0
 20
0.0
 11
1.0
 21
1.0
 12
1.0111800427316666
 22
-0.4499969482421875
 13
0.0
 23
0.0
 14
1.0
 24
1.0
 15
0.0
 25
0.0
 16
0.0
 26
0.0
 36
1.0
 17
0.0
 27
0.0
 37
0.0
 40
268.76100616455079
 41
1.7320508075688772
 42
50.0
 43
0.0
 44
0.0
 50
0.0
 51
0.0
 71
               0
 72
             100
 73
               1
 74
               1
 75
               0
 76
               0
 77
               0
 78
               0
  0
ENDTAB
  0
TABLE
  2
LTYPE
  5
4
100
AcDbSymbolTable
 70
               6
  0
LTYPE
  5
11
100
AcDbSymbolTableRecord
100
AcDbLinetypeTableRecord
  2
BYBLOCK
 70
              64
  3

 72
              65
 73
               0
 40
0.0
  0
LTYPE
  5
12
100
AcDbSymbolTableRecord
100
AcDbLinetypeTableRecord
  2
BYLAYER
 70
              64
  3

 72
              65
 73
               0
 40
0.0
  0
LTYPE
  5
13
100
AcDbSymbolTableRecord
100
AcDbLinetypeTableRecord
  2
CONTINUOUS
 70
              64
  3
Solid line
 72
              65
 73
               0
 40
0.0
  0
LTYPE
  5
25
100
AcDbSymbolTableRecord
100
AcDbLinetypeTableRecord
  2
CENTER
 70
              64
  3
Center ____ _ ____ _ ____ _ ____ _ ____ _ ____
 72
              65
 73
               4
 40
26.0
 49
20.0
 74
               0
 49
-2.0
 74
               0
 49
2.0
 74
               0
 49
-2.0
 74
               0
  0
LTYPE
  5
7E
100
AcDbSymbolTableRecord
100
AcDbLinetypeTableRecord
  2
PHANTOM
 70
              64
  3
Phantom ______  __  __  ______  __  __  ______
 72
              65
 73
               6
 40
30.0
 49
20.0
 74
               0
 49
-2.0
 74
               0
 49
2.0
 74
               0
 49
-2.0
 74
               0
 49
2.0
 74
               0
 49
-2.0
 74
               0
  0
LTYPE
  5
FE
100
AcDbSymbolTableRecord
100
AcDbLinetypeTableRecord
  2
DASHED
 70
              64
  3
Dashed __ __ __ __ __ __ __ __ __ __ __ __ __ _
 72
              65
 73
               2
 40
4.0
 49
2.0
 74
               0
 49
-2.0
 74
               0
  0
ENDTAB
  0
TABLE
  2
LAYER
  5
2
100
AcDbSymbolTable
 70
               2
  0
LAYER
  5
14
100
AcDbSymbolTableRecord
100
AcDbLayerTableRecord
  2
0
 70
               0
 62
               7
  6
CONTINUOUS
  0
LAYER
  5
1D
100
AcDbSymbolTableRecord
100
AcDbLayerTableRecord
  2
DEFPOINTS
 70
               0
 62
               7
  6
CONTINUOUS
  0
ENDTAB
  0
TABLE
  2
STYLE
  5
3
100
AcDbSymbolTable
 70
               1
  0
STYLE
  5
17
100
AcDbSymbolTableRecord
100
AcDbTextStyleTableRecord
  2
MX_NOTE_STANDARD
 70
               0
 40
0.0
 41
1.0
 50
0.0
 71
               0
 42
3.2000000476837158
  3
txt.shx
  4
extfont.shx
  0
ENDTAB
  0
TABLE
  2
VIEW
  5
5
100
AcDbSymbolTable
 70
               0
  0
ENDTAB
  0
TABLE
  2
UCS
  5
6
100
AcDbSymbolTable
 70
               0
  0
ENDTAB
  0
TABLE
  2
APPID
  5
8
100
AcDbSymbolTable
 70
               1
  0
APPID
  5
16
100
AcDbSymbolTableRecord
100
AcDbRegAppTableRecord
  2
ACAD
 70
               0
  0
ENDTAB
  0
TABLE
  2
DIMSTYLE
  5
9
100
AcDbSymbolTable
 70
               1
  0
DIMSTYLE
105
18
100
AcDbSymbolTableRecord
100
AcDbDimStyleTableRecord
  2
MXDIMSTYLE
 70
               0
  3

  4

  5

  6

  7

 40
1.0
 41
2.5
 42
1.5
 43
3.75
 44
1.5
 45
0.0
 46
0.0
 47
0.0
 48
0.0
 71
               0
 72
               0
 73
               0
 74
               0
 75
               0
 76
               0
 77
               1
 78
               8
140
3.2000000476837158
141
2.5
142
0.0
143
0.03937007874016
144
1.0
145
0.0
146
1.0
147
1.0
170
               0
171
               4
172
               1
173
               0
174
               0
175
               0
176
               0
177
               0
178
               0
270
               2
271
               4
272
               4
273
               2
274
               4
275
               0
280
               0
281
               0
282
               0
283
               1
284
               0
285
               0
286
               0
287
               3
288
               1
340
17
  0
ENDTAB
  0
TABLE
  2
BLOCK_RECORD
  5
1
100
AcDbSymbolTable
 70
               7
  0
BLOCK_RECORD
  5
A
100
AcDbSymbolTableRecord
100
AcDbBlockTableRecord
  2
*MODEL_SPACE
  0
BLOCK_RECORD
  5
B
100
AcDbSymbolTableRecord
100
AcDbBlockTableRecord
  2
*PAPER_SPACE
  0
BLOCK_RECORD
  5
1E
100
AcDbSymbolTableRecord
100
AcDbBlockTableRecord
  2
EA10SF6-1
  0
BLOCK_RECORD
  5
1F
100
AcDbSymbolTableRecord
100
AcDbBlockTableRecord
  2
EA10SF6-2
  0
BLOCK_RECORD
  5
20
100
AcDbSymbolTableRecord
100
AcDbBlockTableRecord
  2
EA10SF6-3
  0
BLOCK_RECORD
  5
21
100
AcDbSymbolTableRecord
100
AcDbBlockTableRecord
  2
EA10SF6-4
  0
BLOCK_RECORD
  5
22
100
AcDbSymbolTableRecord
100
AcDbBlockTableRecord
  2
EA10SF6-5
  0
BLOCK_RECORD
  5
23
100
AcDbSymbolTableRecord
100
AcDbBlockTableRecord
  2
EA10SF6-6
  0
BLOCK_RECORD
  5
36D
100
AcDbSymbolTableRecord
100
AcDbBlockTableRecord
  2
_OPEN30
  0
ENDTAB
  0
ENDSEC
  0
SECTION
  2
BLOCKS
  0
BLOCK
  5
D
100
AcDbEntity
  8
0
100
AcDbBlockBegin
  2
*MODEL_SPACE
 70
               0
 10
0.0
 20
0.0
 30
0.0
  3
*MODEL_SPACE
  1

  0
ENDBLK
  5
E
100
AcDbEntity
  8
0
100
AcDbBlockEnd
  0
BLOCK
  5
F
100
AcDbEntity
 67
               1
  8
0
100
AcDbBlockBegin
  2
*PAPER_SPACE
 70
               0
 10
0.0
 20
0.0
 30
0.0
  3
*PAPER_SPACE
  1

  0
ENDBLK
  5
10
100
AcDbEntity
 67
               1
  8
0
100
AcDbBlockEnd
  0
BLOCK
  5
24
100
AcDbEntity
  8
0
100
AcDbBlockBegin
  2
EA10SF6-1
 70
               0
 10
0.0
 20
0.0
 30
0.0
  3
EA10SF6-1
  1

  0
LINE
  5
26
100
AcDbEntity
  8
0
  6
CENTER
 62
               2
100
AcDbLine
 10
2.1781662840152194
 20
0.0
 30
0.0
 11
-2.1781662840152194
 21
0.0
 31
0.0
  0
LINE
  5
27
100
AcDbEntity
  8
0
  6
CONTINUOUS
 62
               7
100
AcDbLine
 10
6.7999999999999829
 20
-20.899999999999991
 30
0.0
 11
6.7999999999999829
 21
-24.899999999999991
 31
0.0
  0
LINE
  5
28
100
AcDbEntity
  8
0
  6
CONTINUOUS
 62
               7
100
AcDbLine
 10
0.5999999999999943
 20
-20.899999999999991
 30
0.0
 11
0.5999999999999943
 21
-24.899999999999991
 31
0.0
  0
ARC
  5
29
100
AcDbEntity
  8
0
  6
CONTINUOUS
 62
               7
100
AcDbCircle
 10
3.7000000000000028
 20
-20.899999999999991
 30
0.0
 40
3.0999999999999801
100
AcDbArc
 50
0.0
 51
179.99999999999963
  0
ARC
  5
2A
100
AcDbEntity
  8
0
  6
CONTINUOUS
 62
               7
100
AcDbCircle
 10
3.7000000000000028
 20
11.300000000000004
 30
0.0
 40
3.0999999999999943
100
AcDbArc
 50
179.99999999999963
 51
0.0
  0
LINE
  5
2B
100
AcDbEntity
  8
0
  6
CONTINUOUS
 62
               7
100
AcDbLine
 10
0.6000000000000085
 20
15.300000000000004
 30
0.0
 11
0.6000000000000085
 21
11.300000000000004
 31
0.0
  0
LINE
  5
2C
100
AcDbEntity
  8
0
  6
CONTINUOUS
 62
               7
100
AcDbLine
 10
6.7999999999999972
 20
15.300000000000004
 30
0.0
 11
6.7999999999999972
 21
11.300000000000004
 31
0.0
  0
ARC
  5
2D
100
AcDbEntity
  8
0
  6
CONTINUOUS
 62
               4
100
AcDbCircle
 10
-0.569999999999979
 20
18.00299132835368
 30
0.0
 40
0.5
100
AcDbArc
 50
179.99999999999963
 51
269.99999999999937
  0
ARC
  5
2E
100
AcDbEntity
  8
0
  6
CONTINUOUS
 62
               4
100
AcDbCircle
 10
7.9699999999999847
 20
18.00299132835368
 30
0.0
 40
0.5
100
AcDbArc
 50
270.00000000000023
 51
0.0
  0
LINE
  5
2F
100
AcDbEntity
  8
0
  6
CONTINUOUS
 62
               4
100
AcDbLine
 10
-0.5700000127608291
 20
17.50299132835368
 30
0.0
 11
7.970000008696843
 21
17.50299132835368
 31
0.0
  0
LINE
  5
30
100
AcDbEntity
  8
0
  6
CENTER
 62
               2
100
AcDbLine
 10
5.0300000000000011
 20
12.999001430615174
 30
0.0
 11
2.3599999999999994
 21
12.999001430615174
 31
0.0
  0
LINE
  5
31
100
AcDbEntity
  8
0
  6
CONTINUOUS
 62
               4
100
AcDbLine
 10
8.7000000000000028
 20
15.300000000000004
 30
0.0
 11
-1.2999999999999972
 21
15.300000000000004
 31
0.0
  0
LINE
  5
32
100
AcDbEntity
  8
0
  6
CONTINUOUS
 62
               7
100
AcDbLine
 10
-1.2999999999999972
 20
4.2999999999999972
 30
0.0
 11
-1.2999999999999972
 21
15.300000000000004
 31
0.0
  0
LINE
  5
33
100
AcDbEntity
  8
0
  6
CONTINUOUS
 62
               7
100
AcDbLine
 10
8.7000000000000028
 20
4.2999999999999972
 30
0.0
 11
8.7000000000000028
 21
15.300000000000004
 31
0.0
  0
LINE
  5
34
100
AcDbEntity
  8
0
  6
CONTINUOUS
 62
               7
100
AcDbLine
 10
1.7000000000000028
 20
11.300000000000004
 30
0.0
 11
1.7000000000000028
 21
15.300000000000004
 31
0.0
  0
LINE
  5
35
100
AcDbEntity
  8
0
  6
CONTINUOUS
 62
               7
100
AcDbLine
 10
5.7000000000000028
 20
11.300000000000004
 30
0.0
 11
5.7000000000000028
 21
15.300000000000004
 31
0.0
  0
ARC
  5
36
100
AcDbEntity
  8
0
  6
CONTINUOUS
 62
               7
100
AcDbCircle
 10
3.7000000000000028
 20
11.300000000000004
 30
0.0
 40
2.0
100
AcDbArc
 50
179.99999999999963
 51
0.0
  0
LINE
  5
37
100
AcDbEntity
  8
0
  6
CENTER
 62
               2
100
AcDbLine
 10
5.3999999999999915
 20
13.000000000000021
 30
0.0
 11
2.0000000000000142
 21
13.000000000000021
 31
0.0
  0
CIRCLE
  5
38
100
AcDbEntity
  8
0
  6
CONTINUOUS
 62
               7
100
AcDbCircle
 10
3.7000000000000028
 20
13.000000000000021
 30
0.0
 40
1.3000000000000012
  0
CIRCLE
  5
39
100
AcDbEntity
  8
0
  6
CONTINUOUS
 62
               7
100
AcDbCircle
 10
3.7000000000000028
 20
13.000000000000021
 30
0.0
 40
1.1500000000000001
  0
CIRCLE
  5
3A
100
AcDbEntity
  8
0
  6
CONTINUOUS
 62
               7
100
AcDbCircle
 10
3.7000000000000028
 20
13.000000000000021
 30
0.0
 40
1.1000000000000001
  0
CIRCLE
  5
3B
100
AcDbEntity
  8
0
  6
CONTINUOUS
 62
               7
100
AcDbCircle
 10
3.7000000000000028
 20
13.000000000000021
 30
0.0
 40
0.75
  0
LINE
  5
3C
100
AcDbEntity
  8
0
  6
CONTINUOUS
 62
               7
100
AcDbLine
 10
8.7000000000000028
 20
4.2999999999999972
 30
0.0
 11
-1.2999999999999972
 21
4.2999999999999972
 31
0.0
  0
LINE
  5
3D
100
AcDbEntity
  8
0
  6
CONTINUOUS
 62
               4
100
AcDbLine
 10
-1.069999999999979
 20
34.302000000000014
 30
0.0
 11
-1.069999999999979
 21
18.00299132835368
 31
0.0
  0
LINE
  5
3E
100
AcDbEntity
  8
0
  6
CONTINUOUS
 62
               4
100
AcDbLine
 10
8.4699999999999847
 20
34.302000000000014
 30
0.0
 11
8.4699999999999847
 21
18.00299132835368
 31
0.0
  0
LINE
  5
3F
100
AcDbEntity
  8
0
  6
CONTINUOUS
 62
               4
100
AcDbLine
 10
-1.2999999999999972
 20
37.800000000000033
 30
0.0
 11
-1.2999999999999972
 21
15.300000000000004
 31
0.0
  0
LINE
  5
40
100
AcDbEntity
  8
0
  6
CONTINUOUS
 62
               4
100
AcDbLine
 10
8.7000000000000028
 20
37.800000000000033
 30
0.0
 11
8.7000000000000028
 21
15.300000000000004
 31
0.0
  0
LINE
  5
41
100
AcDbEntity
  8
0
  6
CONTINUOUS
 62
               4
100
AcDbLine
 10
8.7000000000000028
 20
37.800000000000033
 30
0.0
 11
-1.2999999999999972
 21
37.800000000000033
 31
0.0
  0
LINE
  5
42
100
AcDbEntity
  8
0
  6
CONTINUOUS
 62
               4
100
AcDbLine
 10
8.7000000000000028
 20
36.20000000000001
 30
0.0
 11
6.4500000000000028
 21
36.20000000000001
 31
0.0
  0
LINE
  5
43
100
AcDbEntity
  8
0
  6
CONTINUOUS
 62
               4
100
AcDbLine
 10
5.5000000000000142
 20
37.70000000000001
 30
0.0
 11
-0.7999999999999972
 21
37.70000000000001
 31
0.0
  0
LINE
  5
44
100
AcDbEntity
  8
0
  6
CONTINUOUS
 62
               4
100
AcDbLine
 10
5.5000000000000142
 20
37.70000000000001
 30
0.0
 11
5.5000000000000142
 21
36.902000000000008
 31
0.0
  0
ARC
  5
45
100
AcDbEntity
  8
0
  6
CONTINUOUS
 62
               4
100
AcDbCircle
 10
-0.7999999999999972
 20
37.20000000000001
 30
0.0
 40
0.5
100
AcDbArc
 50
89.999999999999815
 51
179.99999999999963
  0
LINE
  5
46
100
AcDbEntity
  8
0
  6
CONTINUOUS
 62
               4
100
AcDbLine
 10
8.7000000000000028
 20
37.20000000000001
 30
0.0
 11
5.5000000000000142
 21
37.20000000000001
 31
0.0
  0
ARC
  5
47
100
AcDbEntity
  8
0
  6
CONTINUOUS
 62
               4
100
AcDbCircle
 10
7.9040951466582356
 20
37.200095146658178
 30
0.0
 40
0.5999048608870732
100
AcDbArc
 50
359.99091272245295
 51
90.009087277546172
  0
ARC
  5
48
100
AcDbEntity
  8
0
  6
CONTINUOUS
 62
               4
100
AcDbCircle
 10
6.1029119947629766
 20
37.201088005237033
 30
0.0
 40
0.5989129830170392
100
AcDbArc
 50
89.895914524772735
 51
180.10408547522667
  0
LINE
  5
49
100
AcDbEntity
  8
0
  6
CONTINUOUS
 62
               4
100
AcDbLine
 10
6.4500000000000028
 20
36.902000000000008
 30
0.0
 11
6.4500000000000028
 21
33.201999999999991
 31
0.0
  0
LINE
  5
4A
100
AcDbEntity
  8
0
  6
CONTINUOUS
 62
               4
100
AcDbLine
 10
0.8500000000000085
 20
29.802000000000014
 30
0.0
 11
6.5499999999999972
 21
29.802000000000014
 31
0.0
  0
LINE
  5
4B
100
AcDbEntity
  8
0
  6
CONTINUOUS
 62
               4
100
AcDbLine
 10
1.2799999999999869
 20
34.201999999999991
 30
0.0
 11
6.1099999999999994
 21
34.201999999999991
 31
0.0
  0
LINE
  5
4C
100
AcDbEntity
  8
0
  6
CONTINUOUS
 62
               4
100
AcDbLine
 10
0.980000000000004
 20
33.902000000000008
 30
0.0
 11
6.4099999999999824
 21
33.902000000000008
 31
0.0
  0
LINE
  5
4D
100
AcDbEntity
  8
0
  6
CONTINUOUS
 62
               4
100
AcDbLine
 10
0.9500000000000028
 20
34.902000000000008
 30
0.0
 11
6.4500000000000028
 21
34.902000000000008
 31
0.0
  0
LINE
  5
4E
100
AcDbEntity
  8
0
  6
CONTINUOUS
 62
               4
100
AcDbLine
 10
0.9500000000000028
 20
29.902000000000008
 30
0.0
 11
6.4500000000000028
 21
29.902000000000008
 31
0.0
  0
ARC
  5
4F
100
AcDbEntity
  8
0
  6
CONTINUOUS
 62
               4
100
AcDbCircle
 10
8.2000045775226482
 20
34.302004577522631
 30
0.0
 40
0.4999954224983215
100
AcDbArc
 50
359.99947544974214
 51
90.000524550256856
  0
LINE
  5
50
100
AcDbEntity
  8
0
  6
CONTINUOUS
 62
               4
100
AcDbLine
 10
6.4500000000000028
 20
34.802000000000014
 30
0.0
 11
8.2000000000000028
 21
34.802000000000014
 31
0.0
  0
LINE
  5
51
100
AcDbEntity
  8
0
  6
CONTINUOUS
 62
               4
100
AcDbLine
 10
4.0000000000000142
 20
33.552000000000014
 30
0.0
 11
4.0000000000000142
 21
31.451999999999991
 31
0.0
  0
LINE
  5
52
100
AcDbEntity
  8
0
  6
CONTINUOUS
 62
               4
100
AcDbLine
 10
4.4500000000000028
 20
31.451999999999991
 30
0.0
 11
4.4500000000000028
 21
31.152000000000008
 31
0.0
  0
ARC
  5
53
100
AcDbEntity
  8
0
  6
CONTINUOUS
 62
               4
100
AcDbCircle
 10
7.969999084445746
 20
34.301999084445747
 30
0.0
 40
0.5000009155550945
100
AcDbArc
 50
0.0001049145970977
 51
89.999895085402713
  0
LINE
  5
54
100
AcDbEntity
  8
0
  6
CONTINUOUS
 62
               4
100
AcDbLine
 10
7.4500000000000028
 20
31.402000000000008
 30
0.0
 11
7.4500000000000028
 21
33.201999999999991
 31
0.0
  0
LINE
  5
55
100
AcDbEntity
  8
0
  6
CONTINUOUS
 62
               4
100
AcDbLine
 10
7.5499999999999972
 20
33.302000000000014
 30
0.0
 11
7.5499999999999972
 21
31.302000000000014
 31
0.0
  0
LINE
  5
56
100
AcDbEntity
  8
0
  6
CONTINUOUS
 62
               4
100
AcDbLine
 10
6.5499999999999972
 20
31.302000000000014
 30
0.0
 11
6.5499999999999972
 21
29.802000000000014
 31
0.0
  0
LINE
  5
57
100
AcDbEntity
  8
0
  6
CONTINUOUS
 62
               4
100
AcDbLine
 10
6.5499999999999972
 20
34.802000000000014
 30
0.0
 11
6.5499999999999972
 21
33.302000000000014
 31
0.0
  0
LINE
  5
58
100
AcDbEntity
  8
0
  6
CONTINUOUS
 62
               4
100
AcDbLine
 10
5.8999999999999915
 20
33.552000000000014
 30
0.0
 11
5.8999999999999915
 21
31.451999999999991
 31
0.0
  0
LINE
  5
59
100
AcDbEntity
  8
0
  6
CONTINUOUS
 62
               4
100
AcDbLine
 10
6.4099999999999824
 20
33.902000000000008
 30
0.0
 11
6.1099999999999994
 21
34.201999999999991
 31
0.0
  0
LINE
  5
5A
100
AcDbEntity
  8
0
  6
CONTINUOUS
 62
               4
100
AcDbLine
 10
5.4500000000000028
 20
31.451999999999991
 30
0.0
 11
5.4500000000000028
 21
31.152000000000008
 31
0.0
  0
LINE
  5
5B
100
AcDbEntity
  8
0
  6
CONTINUOUS
 62
               4
100
AcDbLine
 10
6.4500000000000028
 20
31.402000000000008
 30
0.0
 11
6.4500000000000028
 21
29.902000000000008
 31
0.0
  0
LINE
  5
5C
100
AcDbEntity
  8
0
  6
CONTINUOUS
 62
               4
100
AcDbLine
 10
4.4500000000000028
 20
31.152000000000008
 30
0.0
 11
5.4500000000000028
 21
31.152000000000008
 31
0.0
  0
LINE
  5
5D
100
AcDbEntity
  8
0
  6
CONTINUOUS
 62
               4
100
AcDbLine
 10
6.4500000000000028
 20
31.402000000000008
 30
0.0
 11
7.4500000000000028
 21
31.402000000000008
 31
0.0
  0
LINE
  5
5E
100
AcDbEntity
  8
0
  6
CONTINUOUS
 62
               4
100
AcDbLine
 10
6.4500000000000028
 20
33.201999999999991
 30
0.0
 11
7.4500000000000028
 21
33.201999999999991
 31
0.0
  0
LINE
  5
5F
100
AcDbEntity
  8
0
  6
CONTINUOUS
 62
               4
100
AcDbLine
 10
4.0000000000000142
 20
33.351999999999997
 30
0.0
 11
5.8999999999999915
 21
33.351999999999997
 31
0.0
  0
LINE
  5
60
100
AcDbEntity
  8
0
  6
CONTINUOUS
 62
               4
100
AcDbLine
 10
4.0000000000000142
 20
31.451999999999991
 30
0.0
 11
5.8999999999999915
 21
31.451999999999991
 31
0.0
  0
LINE
  5
61
100
AcDbEntity
  8
0
  6
CONTINUOUS
 62
               4
100
AcDbLine
 10
4.0000000000000142
 20
33.552000000000014
 30
0.0
 11
5.8999999999999915
 21
33.552000000000014
 31
0.0
  0
LINE
  5
62
100
AcDbEntity
  8
0
  6
CONTINUOUS
 62
               4
100
AcDbLine
 10
4.4500000000000028
 20
30.502000000000002
 30
0.0
 11
5.4500000000000028
 21
30.502000000000002
 31
0.0
  0
LINE
  5
63
100
AcDbEntity
  8
0
  6
CONTINUOUS
 62
               4
100
AcDbLine
 10
6.5499999999999972
 20
33.302000000000014
 30
0.0
 11
7.5499999999999972
 21
33.302000000000014
 31
0.0
  0
LINE
  5
64
100
AcDbEntity
  8
0
  6
CONTINUOUS
 62
               4
100
AcDbLine
 10
6.5499999999999972
 20
31.302000000000014
 30
0.0
 11
7.5499999999999972
 21
31.302000000000014
 31
0.0
  0
CIRCLE
  5
65
100
AcDbEntity
  8
0
  6
CONTINUOUS
 62
               4
100
AcDbCircle
 10
4.9500000000000028
 20
32.401984741210946
 30
0.0
 40
0.8499675393104553
  0
LINE
  5
66
100
AcDbEntity
  8
0
  6
CONTINUOUS
 62
               4
100
AcDbLine
 10
0.9500000000000028
 20
35.902000000000008
 30
0.0
 11
6.4500000000000028
 21
35.902000000000008
 31
0.0
  0
LINE
  5
67
100
AcDbEntity
  8
0
  6
CONTINUOUS
 62
               4
100
AcDbLine
 10
0.9500000000000028
 20
36.902000000000008
 30
0.0
 11
6.4500000000000028
 21
36.902000000000008
 31
0.0
  0
LINE
  5
68
100
AcDbEntity
  8
0
  6
CONTINUOUS
 62
               4
100
AcDbLine
 10
0.9500000000000028
 20
36.902000000000008
 30
0.0
 11
0.9500000000000028
 21
33.201999999999991
 31
0.0
  0
LINE
  5
69
100
AcDbEntity
  8
0
  6
CONTINUOUS
 62
               4
100
AcDbLine
 10
1.5000000000000142
 20
31.451999999999991
 30
0.0
 11
3.3999999999999915
 21
31.451999999999991
 31
0.0
  0
LINE
  5
6A
100
AcDbEntity
  8
0
  6
CONTINUOUS
 62
               4
100
AcDbLine
 10
1.9500000000000028
 20
31.152000000000008
 30
0.0
 11
2.9500000000000028
 21
31.152000000000008
 31
0.0
  0
LINE
  5
6B
100
AcDbEntity
  8
0
  6
CONTINUOUS
 62
               4
100
AcDbLine
 10
-0.0499999999999972
 20
31.402000000000008
 30
0.0
 11
0.9500000000000028
 21
31.402000000000008
 31
0.0
  0
LINE
  5
6C
100
AcDbEntity
  8
0
  6
CONTINUOUS
 62
               4
100
AcDbLine
 10
1.5000000000000142
 20
33.552000000000014
 30
0.0
 11
1.5000000000000142
 21
31.451999999999991
 31
0.0
  0
LINE
  5
6D
100
AcDbEntity
  8
0
  6
CONTINUOUS
 62
               4
100
AcDbLine
 10
1.9500000000000028
 20
30.502000000000002
 30
0.0
 11
2.9500000000000028
 21
30.502000000000002
 31
0.0
  0
LINE
  5
6E
100
AcDbEntity
  8
0
  6
CONTINUOUS
 62
               4
100
AcDbLine
 10
-0.1499999999999915
 20
31.302000000000014
 30
0.0
 11
0.8500000000000085
 21
31.302000000000014
 31
0.0
  0
CIRCLE
  5
6F
100
AcDbEntity
  8
0
  6
CONTINUOUS
 62
               4
100
AcDbCircle
 10
2.4500000000000028
 20
32.401984741210946
 30
0.0
 40
0.8499675393104553
  0
LINE
  5
70
100
AcDbEntity
  8
0
  6
CONTINUOUS
 62
               4
100
AcDbLine
 10
0.8500000000000085
 20
31.302000000000014
 30
0.0
 11
0.8500000000000085
 21
29.802000000000014
 31
0.0
  0
LINE
  5
71
100
AcDbEntity
  8
0
  6
CONTINUOUS
 62
               4
100
AcDbLine
 10
1.9500000000000028
 20
31.451999999999991
 30
0.0
 11
1.9500000000000028
 21
31.152000000000008
 31
0.0
  0
LINE
  5
72
100
AcDbEntity
  8
0
  6
CONTINUOUS
 62
               4
100
AcDbLine
 10
0.9500000000000028
 20
31.402000000000008
 30
0.0
 11
0.9500000000000028
 21
29.902000000000008
 31
0.0
  0
LINE
  5
73
100
AcDbEntity
  8
0
  6
CONTINUOUS
 62
               4
100
AcDbLine
 10
-0.0499999999999972
 20
33.201999999999991
 30
0.0
 11
0.9500000000000028
 21
33.201999999999991
 31
0.0
  0
LINE
  5
74
100
AcDbEntity
  8
0
  6
CONTINUOUS
 62
               4
100
AcDbLine
 10
-0.0499999999999972
 20
31.402000000000008
 30
0.0
 11
-0.0499999999999972
 21
33.201999999999991
 31
0.0
  0
LINE
  5
75
100
AcDbEntity
  8
0
  6
CONTINUOUS
 62
               4
100
AcDbLine
 10
-0.1499999999999915
 20
33.302000000000014
 30
0.0
 11
-0.1499999999999915
 21
31.302000000000014
 31
0.0
  0
LINE
  5
76
100
AcDbEntity
  8
0
  6
CONTINUOUS
 62
               4
100
AcDbLine
 10
-0.1499999999999915
 20
33.302000000000014
 30
0.0
 11
0.8500000000000085
 21
33.302000000000014
 31
0.0
  0
LINE
  5
77
100
AcDbEntity
  8
0
  6
CONTINUOUS
 62
               4
100
AcDbLine
 10
0.9500000000000028
 20
33.862000000000016
 30
0.0
 11
1.2799999999999869
 21
34.201999999999991
 31
0.0
  0
LINE
  5
78
100
AcDbEntity
  8
0
  6
CONTINUOUS
 62
               4
100
AcDbLine
 10
0.8500000000000085
 20
34.802000000000014
 30
0.0
 11
0.8500000000000085
 21
33.302000000000014
 31
0.0
  0
LINE
  5
79
100
AcDbEntity
  8
0
  6
CONTINUOUS
 62
               4
100
AcDbLine
 10
2.4500000000000028
 20
30.002000000000002
 30
0.0
 11
2.4500000000000028
 21
31.002000000000002
 31
0.0
  0
LINE
  5
7A
100
AcDbEntity
  8
0
  6
CONTINUOUS
 62
               4
100
AcDbLine
 10
3.3999999999999915
 20
33.552000000000014
 30
0.0
 11
3.3999999999999915
 21
31.451999999999991
 31
0.0
  0
LINE
  5
7B
100
AcDbEntity
  8
0
  6
CONTINUOUS
 62
               4
100
AcDbLine
 10
2.9500000000000028
 20
31.451999999999991
 30
0.0
 11
2.9500000000000028
 21
31.152000000000008
 31
0.0
  0
LINE
  5
7C
100
AcDbEntity
  8
0
  6
CONTINUOUS
 62
               4
100
AcDbLine
 10
1.5000000000000142
 20
33.552000000000014
 30
0.0
 11
3.3999999999999915
 21
33.552000000000014
 31
0.0
  0
LINE
  5
7D
100
AcDbEntity
  8
0
  6
CONTINUOUS
 62
               4
100
AcDbLine
 10
1.5000000000000142
 20
33.351999999999997
 30
0.0
 11
3.3999999999999915
 21
33.351999999999997
 31
0.0
  0
LINE
  5
7F
100
AcDbEntity
  8
0
  6
PHANTOM
 62
             200
100
AcDbLine
 10
2.2000000000000028
 20
22.801999999999985
 30
0.0
 11
5.2000000000000028
 21
22.801999999999985
 31
0.0
  0
LINE
  5
80
100
AcDbEntity
  8
0
  6
PHANTOM
 62
             200
100
AcDbLine
 10
2.2000000000000028
 20
20.801999999999985
 30
0.0
 11
5.2000000000000028
 21
20.801999999999985
 31
0.0
  0
LINE
  5
81
100
AcDbEntity
  8
0
  6
PHANTOM
 62
             200
100
AcDbLine
 10
5.2000000000000028
 20
22.801999999999985
 30
0.0
 11
5.2000000000000028
 21
20.801999999999985
 31
0.0
  0
LINE
  5
82
100
AcDbEntity
  8
0
  6
PHANTOM
 62
             200
100
AcDbLine
 10
2.2000000000000028
 20
22.801999999999985
 30
0.0
 11
2.2000000000000028
 21
20.801999999999985
 31
0.0
  0
ARC
  5
83
100
AcDbEntity
  8
0
  6
CONTINUOUS
 62
               4
100
AcDbCircle
 10
-0.7999893188266896
 20
34.301989318826706
 30
0.0
 40
0.5000106812873828
100
AcDbArc
 50
90.001223946153175
 51
179.9987760538454
  0
ARC
  5
84
100
AcDbEntity
  8
0
  6
CONTINUOUS
 62
               4
100
AcDbCircle
 10
-0.5699990844457403
 20
34.301999084445747
 30
0.0
 40
0.5000009155550945
100
AcDbArc
 50
90.000104914596918
 51
179.99989508540253
  0
LINE
  5
85
100
AcDbEntity
  8
0
  6
CONTINUOUS
 62
               4
100
AcDbLine
 10
-0.7999999999999972
 20
34.802000000000014
 30
0.0
 11
0.9500000000000028
 21
34.802000000000014
 31
0.0
  0
LINE
  5
86
100
AcDbEntity
  8
0
  6
CONTINUOUS
 62
               7
100
AcDbLine
 10
-1.2999999999999972
 20
-13.899999999999999
 30
0.0
 11
-1.2999999999999972
 21
4.2999999999999972
 31
0.0
  0
LINE
  5
87
100
AcDbEntity
  8
0
  6
CONTINUOUS
 62
               7
100
AcDbLine
 10
8.7000000000000028
 20
-13.899999999999999
 30
0.0
 11
8.7000000000000028
 21
4.2999999999999972
 31
0.0
  0
CIRCLE
  5
88
100
AcDbEntity
  8
0
  6
CONTINUOUS
 62
               2
100
AcDbCircle
 10
5.7000000000000028
 20
-1.6000000000000014
 30
0.0
 40
1.5
  0
CIRCLE
  5
89
100
AcDbEntity
  8
0
  6
CONTINUOUS
 62
               7
100
AcDbCircle
 10
5.7000000000000028
 20
-1.6000000000000014
 30
0.0
 40
1.25
  0
LINE
  5
8A
100
AcDbEntity
  8
0
  6
CENTER
 62
               2
100
AcDbLine
 10
5.7000000000000028
 20
-3.8060236083780339
 30
0.0
 11
5.7000000000000028
 21
0.5170115669600506
 31
0.0
  0
LINE
  5
8B
100
AcDbEntity
  8
0
  6
CENTER
 62
               2
100
AcDbLine
 10
0.0
 20
-2.1781662840152194
 30
0.0
 11
0.0
 21
2.1781662840152194
 31
0.0
  0
LINE
  5
8C
100
AcDbEntity
  8
0
  6
CONTINUOUS
 62
               7
100
AcDbLine
 10
7.4000000000000057
 20
-11.250000000000007
 30
0.0
 11
8.7000000000000028
 21
-11.250000000000007
 31
0.0
  0
LINE
  5
8D
100
AcDbEntity
  8
0
  6
CONTINUOUS
 62
               7
100
AcDbLine
 10
7.4000000000000057
 20
-7.9500000000000099
 30
0.0
 11
8.7000000000000028
 21
-7.9500000000000099
 31
0.0
  0
ARC
  5
8E
100
AcDbEntity
  8
0
  6
CONTINUOUS
 62
               7
100
AcDbCircle
 10
7.4000000000000057
 20
-9.6000000000000014
 30
0.0
 40
1.6499999999999999
100
AcDbArc
 50
89.999999999999815
 51
269.99999999999937
  0
LINE
  5
8F
100
AcDbEntity
  8
0
  6
CENTER
 62
               2
100
AcDbLine
 10
1.7000000000000028
 20
-9.9088409314013646
 30
0.0
 11
1.7000000000000028
 21
-6.1176218410881305
 31
0.0
  0
CIRCLE
  5
90
100
AcDbEntity
  8
0
  6
CONTINUOUS
 62
               7
100
AcDbCircle
 10
1.7000000000000028
 20
-8.0000000000000071
 30
0.0
 40
1.25
  0
CIRCLE
  5
91
100
AcDbEntity
  8
0
  6
CONTINUOUS
 62
               2
100
AcDbCircle
 10
1.7000000000000028
 20
-8.0000000000000071
 30
0.0
 40
1.5
  0
LINE
  5
92
100
AcDbEntity
  8
0
  6
CENTER
 62
               2
100
AcDbLine
 10
3.4959790593988203
 20
-8.0000000000000071
 30
0.0
 11
-0.2952400309144281
 21
-8.0000000000000071
 31
0.0
  0
CIRCLE
  5
93
100
AcDbEntity
  8
0
  6
CONTINUOUS
 62
               7
100
AcDbCircle
 10
7.4000000000000057
 20
-9.6000000000000014
 30
0.0
 40
1.0
  0
LINE
  5
94
100
AcDbEntity
  8
0
  6
CENTER
 62
               2
100
AcDbLine
 10
7.4000000000000057
 20
-11.778166284015221
 30
0.0
 11
7.4000000000000057
 21
-7.421833715984782
 31
0.0
  0
LINE
  5
95
100
AcDbEntity
  8
0
  6
CENTER
 62
               2
100
AcDbLine
 10
9.5781662840152251
 20
-9.6000000000000014
 30
0.0
 11
5.2218337159847863
 21
-9.6000000000000014
 31
0.0
  0
LINE
  5
96
100
AcDbEntity
  8
0
  6
CENTER
 62
               2
100
AcDbLine
 10
7.5838949302954006
 20
-1.6000000000000014
 30
0.0
 11
3.9224912070590676
 21
-1.6000000000000014
 31
0.0
  0
LINE
  5
97
100
AcDbEntity
  8
0
  6
CONTINUOUS
 62
               7
100
AcDbLine
 10
0.0
 20
-1.6500000000000128
 30
0.0
 11
-1.2999999999999972
 21
-1.6500000000000128
 31
0.0
  0
LINE
  5
98
100
AcDbEntity
  8
0
  6
CONTINUOUS
 62
               7
100
AcDbLine
 10
0.0
 20
1.6499999999999915
 30
0.0
 11
-1.2999999999999972
 21
1.6499999999999915
 31
0.0
  0
ARC
  5
99
100
AcDbEntity
  8
0
  6
CONTINUOUS
 62
               7
100
AcDbCircle
 10
0.0
 20
-0.0000000000000071
 30
0.0
 40
1.6499999999999999
100
AcDbArc
 50
269.99999999999937
 51
89.999999999999801
  0
CIRCLE
  5
9A
100
AcDbEntity
  8
0
  6
CONTINUOUS
 62
               7
100
AcDbCircle
 10
0.0
 20
-0.0000000000000071
 30
0.0
 40
1.0
  0
ARC
  5
9B
100
AcDbEntity
  8
0
  6
CONTINUOUS
 62
               4
100
AcDbCircle
 10
-0.5688025755102757
 20
-26.613197424489698
 30
0.0
 40
0.5011988548874781
100
AcDbArc
 50
90.136886655154825
 51
179.86311334484458
  0
ARC
  5
9C
100
AcDbEntity
  8
0
  6
CONTINUOUS
 62
               4
100
AcDbCircle
 10
7.9688025755102814
 20
-26.613197424489698
 30
0.0
 40
0.5011988548874781
100
AcDbArc
 50
0.1368866551550224
 51
89.863113344844777
  0
LINE
  5
9D
100
AcDbEntity
  8
0
  6
CONTINUOUS
 62
               4
100
AcDbLine
 10
7.9699999999999847
 20
-26.111999999999995
 30
0.0
 11
-0.569999999999979
 21
-26.111999999999995
 31
0.0
  0
LINE
  5
9E
100
AcDbEntity
  8
0
  6
CONTINUOUS
 62
               4
100
AcDbLine
 10
8.2000000000000028
 20
-44.402000000000015
 30
0.0
 11
6.4499999999999886
 21
-44.402000000000015
 31
0.0
  0
ARC
  5
9F
100
AcDbEntity
  8
0
  6
CONTINUOUS
 62
               4
100
AcDbCircle
 10
7.969999084445746
 20
-43.901999084445748
 30
0.0
 40
0.5000009155550945
100
AcDbArc
 50
270.00010491459648
 51
359.99989508540216
  0
ARC
  5
A0
100
AcDbEntity
  8
0
  6
CONTINUOUS
 62
               4
100
AcDbCircle
 10
8.1999893188266952
 20
-43.901989318826708
 30
0.0
 40
0.5000106812873828
100
AcDbArc
 50
270.00122394615283
 51
359.99877605384501
  0
LINE
  5
A1
100
AcDbEntity
  8
0
  6
PHANTOM
 62
             200
100
AcDbLine
 10
5.2000000000000028
 20
-32.401999999999987
 30
0.0
 11
5.2000000000000028
 21
-30.401999999999987
 31
0.0
  0
LINE
  5
A2
100
AcDbEntity
  8
0
  6
PHANTOM
 62
             200
100
AcDbLine
 10
2.2000000000000028
 20
-32.401999999999987
 30
0.0
 11
2.2000000000000028
 21
-30.401999999999987
 31
0.0
  0
LINE
  5
A3
100
AcDbEntity
  8
0
  6
PHANTOM
 62
             200
100
AcDbLine
 10
5.2000000000000028
 20
-30.401999999999987
 30
0.0
 11
2.2000000000000028
 21
-30.401999999999987
 31
0.0
  0
LINE
  5
A4
100
AcDbEntity
  8
0
  6
PHANTOM
 62
             200
100
AcDbLine
 10
5.2000000000000028
 20
-32.401999999999987
 30
0.0
 11
2.2000000000000028
 21
-32.401999999999987
 31
0.0
  0
LINE
  5
A5
100
AcDbEntity
  8
0
  6
CONTINUOUS
 62
               4
100
AcDbLine
 10
5.8999999999999773
 20
-42.951999999999998
 30
0.0
 11
4.0
 21
-42.951999999999998
 31
0.0
  0
LINE
  5
A6
100
AcDbEntity
  8
0
  6
CONTINUOUS
 62
               4
100
AcDbLine
 10
5.8999999999999773
 20
-43.152000000000015
 30
0.0
 11
4.0
 21
-43.152000000000015
 31
0.0
  0
LINE
  5
A7
100
AcDbEntity
  8
0
  6
CONTINUOUS
 62
               4
100
AcDbLine
 10
4.4499999999999886
 20
-41.051999999999992
 30
0.0
 11
4.4499999999999886
 21
-40.75200000000001
 31
0.0
  0
LINE
  5
A8
100
AcDbEntity
  8
0
  6
CONTINUOUS
 62
               4
100
AcDbLine
 10
4.0
 20
-43.152000000000015
 30
0.0
 11
4.0
 21
-41.051999999999992
 31
0.0
  0
LINE
  5
A9
100
AcDbEntity
  8
0
  6
CONTINUOUS
 62
               4
100
AcDbLine
 10
4.9499999999999886
 20
-39.602000000000004
 30
0.0
 11
4.9499999999999886
 21
-40.602000000000004
 31
0.0
  0
LINE
  5
AA
100
AcDbEntity
  8
0
  6
CONTINUOUS
 62
               4
100
AcDbLine
 10
6.5499999999999829
 20
-44.402000000000015
 30
0.0
 11
6.5499999999999829
 21
-42.902000000000015
 31
0.0
  0
LINE
  5
AB
100
AcDbEntity
  8
0
  6
CONTINUOUS
 62
               4
100
AcDbLine
 10
6.4499999999999886
 20
-43.462000000000018
 30
0.0
 11
6.1200000000000045
 21
-43.801999999999992
 31
0.0
  0
LINE
  5
AC
100
AcDbEntity
  8
0
  6
CONTINUOUS
 62
               4
100
AcDbLine
 10
7.5499999999999972
 20
-42.902000000000015
 30
0.0
 11
6.5499999999999829
 21
-42.902000000000015
 31
0.0
  0
LINE
  5
AD
100
AcDbEntity
  8
0
  6
CONTINUOUS
 62
               4
100
AcDbLine
 10
7.5499999999999972
 20
-42.902000000000015
 30
0.0
 11
7.5499999999999972
 21
-40.902000000000015
 31
0.0
  0
LINE
  5
AE
100
AcDbEntity
  8
0
  6
CONTINUOUS
 62
               4
100
AcDbLine
 10
7.4500000000000028
 20
-41.00200000000001
 30
0.0
 11
7.4500000000000028
 21
-42.801999999999992
 31
0.0
  0
LINE
  5
AF
100
AcDbEntity
  8
0
  6
CONTINUOUS
 62
               4
100
AcDbLine
 10
7.4500000000000028
 20
-42.801999999999992
 30
0.0
 11
6.4499999999999886
 21
-42.801999999999992
 31
0.0
  0
LINE
  5
B0
100
AcDbEntity
  8
0
  6
CONTINUOUS
 62
               4
100
AcDbLine
 10
6.4499999999999886
 20
-41.00200000000001
 30
0.0
 11
6.4499999999999886
 21
-39.50200000000001
 31
0.0
  0
LINE
  5
B1
100
AcDbEntity
  8
0
  6
CONTINUOUS
 62
               4
100
AcDbLine
 10
5.4499999999999886
 20
-41.051999999999992
 30
0.0
 11
5.4499999999999886
 21
-40.75200000000001
 31
0.0
  0
LINE
  5
B2
100
AcDbEntity
  8
0
  6
CONTINUOUS
 62
               4
100
AcDbLine
 10
6.5499999999999829
 20
-40.902000000000015
 30
0.0
 11
6.5499999999999829
 21
-39.402000000000015
 31
0.0
  0
CIRCLE
  5
B3
100
AcDbEntity
  8
0
  6
CONTINUOUS
 62
               4
100
AcDbCircle
 10
4.9499999999999886
 20
-42.001984741210947
 30
0.0
 40
0.8499675393104553
  0
LINE
  5
B4
100
AcDbEntity
  8
0
  6
CONTINUOUS
 62
               4
100
AcDbLine
 10
7.5499999999999972
 20
-40.902000000000015
 30
0.0
 11
6.5499999999999829
 21
-40.902000000000015
 31
0.0
  0
LINE
  5
B5
100
AcDbEntity
  8
0
  6
CONTINUOUS
 62
               4
100
AcDbLine
 10
5.4499999999999886
 20
-40.102000000000004
 30
0.0
 11
4.4499999999999886
 21
-40.102000000000004
 31
0.0
  0
LINE
  5
B6
100
AcDbEntity
  8
0
  6
CONTINUOUS
 62
               4
100
AcDbLine
 10
5.8999999999999773
 20
-43.152000000000015
 30
0.0
 11
5.8999999999999773
 21
-41.051999999999992
 31
0.0
  0
LINE
  5
B7
100
AcDbEntity
  8
0
  6
CONTINUOUS
 62
               4
100
AcDbLine
 10
7.4500000000000028
 20
-41.00200000000001
 30
0.0
 11
6.4499999999999886
 21
-41.00200000000001
 31
0.0
  0
LINE
  5
B8
100
AcDbEntity
  8
0
  6
CONTINUOUS
 62
               4
100
AcDbLine
 10
5.4499999999999886
 20
-40.75200000000001
 30
0.0
 11
4.4499999999999886
 21
-40.75200000000001
 31
0.0
  0
LINE
  5
B9
100
AcDbEntity
  8
0
  6
CONTINUOUS
 62
               4
100
AcDbLine
 10
5.8999999999999773
 20
-41.051999999999992
 30
0.0
 11
4.0
 21
-41.051999999999992
 31
0.0
  0
LINE
  5
BA
100
AcDbEntity
  8
0
  6
CONTINUOUS
 62
               4
100
AcDbLine
 10
6.4499999999999886
 20
-46.50200000000001
 30
0.0
 11
6.4499999999999886
 21
-42.801999999999992
 31
0.0
  0
LINE
  5
BB
100
AcDbEntity
  8
0
  6
CONTINUOUS
 62
               4
100
AcDbLine
 10
6.4499999999999886
 20
-46.50200000000001
 30
0.0
 11
0.9499999999999886
 21
-46.50200000000001
 31
0.0
  0
LINE
  5
BC
100
AcDbEntity
  8
0
  6
CONTINUOUS
 62
               4
100
AcDbLine
 10
6.4499999999999886
 20
-45.50200000000001
 30
0.0
 11
0.9499999999999886
 21
-45.50200000000001
 31
0.0
  0
CIRCLE
  5
BD
100
AcDbEntity
  8
0
  6
CONTINUOUS
 62
               4
100
AcDbCircle
 10
2.4499999999999886
 20
-42.001984741210947
 30
0.0
 40
0.8499675393104553
  0
LINE
  5
BE
100
AcDbEntity
  8
0
  6
CONTINUOUS
 62
               4
100
AcDbLine
 10
0.8499999999999943
 20
-40.902000000000015
 30
0.0
 11
-0.1500000000000057
 21
-40.902000000000015
 31
0.0
  0
LINE
  5
BF
100
AcDbEntity
  8
0
  6
CONTINUOUS
 62
               4
100
AcDbLine
 10
0.8499999999999943
 20
-42.902000000000015
 30
0.0
 11
-0.1500000000000057
 21
-42.902000000000015
 31
0.0
  0
LINE
  5
C0
100
AcDbEntity
  8
0
  6
CONTINUOUS
 62
               4
100
AcDbLine
 10
2.9499999999999886
 20
-40.102000000000004
 30
0.0
 11
1.9499999999999886
 21
-40.102000000000004
 31
0.0
  0
LINE
  5
C1
100
AcDbEntity
  8
0
  6
CONTINUOUS
 62
               4
100
AcDbLine
 10
3.3999999999999773
 20
-43.152000000000015
 30
0.0
 11
1.5
 21
-43.152000000000015
 31
0.0
  0
LINE
  5
C2
100
AcDbEntity
  8
0
  6
CONTINUOUS
 62
               4
100
AcDbLine
 10
3.3999999999999773
 20
-41.051999999999992
 30
0.0
 11
1.5
 21
-41.051999999999992
 31
0.0
  0
LINE
  5
C3
100
AcDbEntity
  8
0
  6
CONTINUOUS
 62
               4
100
AcDbLine
 10
3.3999999999999773
 20
-42.951999999999998
 30
0.0
 11
1.5
 21
-42.951999999999998
 31
0.0
  0
LINE
  5
C4
100
AcDbEntity
  8
0
  6
CONTINUOUS
 62
               4
100
AcDbLine
 10
0.9499999999999886
 20
-42.801999999999992
 30
0.0
 11
-0.0500000000000114
 21
-42.801999999999992
 31
0.0
  0
LINE
  5
C5
100
AcDbEntity
  8
0
  6
CONTINUOUS
 62
               4
100
AcDbLine
 10
0.9499999999999886
 20
-41.00200000000001
 30
0.0
 11
-0.0500000000000114
 21
-41.00200000000001
 31
0.0
  0
LINE
  5
C6
100
AcDbEntity
  8
0
  6
CONTINUOUS
 62
               4
100
AcDbLine
 10
2.9499999999999886
 20
-40.75200000000001
 30
0.0
 11
1.9499999999999886
 21
-40.75200000000001
 31
0.0
  0
LINE
  5
C7
100
AcDbEntity
  8
0
  6
CONTINUOUS
 62
               4
100
AcDbLine
 10
0.9499999999999886
 20
-41.00200000000001
 30
0.0
 11
0.9499999999999886
 21
-39.50200000000001
 31
0.0
  0
LINE
  5
C8
100
AcDbEntity
  8
0
  6
CONTINUOUS
 62
               4
100
AcDbLine
 10
1.9499999999999886
 20
-41.051999999999992
 30
0.0
 11
1.9499999999999886
 21
-40.75200000000001
 31
0.0
  0
LINE
  5
C9
100
AcDbEntity
  8
0
  6
CONTINUOUS
 62
               4
100
AcDbLine
 10
0.9900000000000091
 20
-43.50200000000001
 30
0.0
 11
1.289999999999992
 21
-43.801999999999992
 31
0.0
  0
LINE
  5
CA
100
AcDbEntity
  8
0
  6
CONTINUOUS
 62
               4
100
AcDbLine
 10
1.5
 20
-43.152000000000015
 30
0.0
 11
1.5
 21
-41.051999999999992
 31
0.0
  0
LINE
  5
CB
100
AcDbEntity
  8
0
  6
CONTINUOUS
 62
               4
100
AcDbLine
 10
0.8499999999999943
 20
-44.402000000000015
 30
0.0
 11
0.8499999999999943
 21
-42.902000000000015
 31
0.0
  0
LINE
  5
CC
100
AcDbEntity
  8
0
  6
CONTINUOUS
 62
               4
100
AcDbLine
 10
0.8499999999999943
 20
-40.902000000000015
 30
0.0
 11
0.8499999999999943
 21
-39.402000000000015
 31
0.0
  0
LINE
  5
CD
100
AcDbEntity
  8
0
  6
CONTINUOUS
 62
               4
100
AcDbLine
 10
-0.1500000000000057
 20
-42.902000000000015
 30
0.0
 11
-0.1500000000000057
 21
-40.902000000000015
 31
0.0
  0
LINE
  5
CE
100
AcDbEntity
  8
0
  6
CONTINUOUS
 62
               4
100
AcDbLine
 10
-0.0500000000000114
 20
-41.00200000000001
 30
0.0
 11
-0.0500000000000114
 21
-42.801999999999992
 31
0.0
  0
ARC
  5
CF
100
AcDbEntity
  8
0
  6
CONTINUOUS
 62
               4
100
AcDbCircle
 10
-0.5699990844457545
 20
-43.901999084445748
 30
0.0
 40
0.5000009155550945
100
AcDbArc
 50
180.00010491459673
 51
269.99989508540227
  0
LINE
  5
D0
100
AcDbEntity
  8
0
  6
CONTINUOUS
 62
               4
100
AcDbLine
 10
2.9499999999999886
 20
-41.051999999999992
 30
0.0
 11
2.9499999999999886
 21
-40.75200000000001
 31
0.0
  0
LINE
  5
D1
100
AcDbEntity
  8
0
  6
CONTINUOUS
 62
               4
100
AcDbLine
 10
3.3999999999999773
 20
-43.152000000000015
 30
0.0
 11
3.3999999999999773
 21
-41.051999999999992
 31
0.0
  0
LINE
  5
D2
100
AcDbEntity
  8
0
  6
CONTINUOUS
 62
               4
100
AcDbLine
 10
0.9499999999999886
 20
-44.402000000000015
 30
0.0
 11
-0.8000000000000114
 21
-44.402000000000015
 31
0.0
  0
ARC
  5
D3
100
AcDbEntity
  8
0
  6
CONTINUOUS
 62
               4
100
AcDbCircle
 10
-0.8000045775226568
 20
-43.902004577522632
 30
0.0
 40
0.4999954224983215
100
AcDbArc
 50
179.99947544974253
 51
270.00052455025644
  0
LINE
  5
D4
100
AcDbEntity
  8
0
  6
CONTINUOUS
 62
               4
100
AcDbLine
 10
6.4499999999999886
 20
-39.50200000000001
 30
0.0
 11
0.9499999999999886
 21
-39.50200000000001
 31
0.0
  0
LINE
  5
D5
100
AcDbEntity
  8
0
  6
CONTINUOUS
 62
               4
100
AcDbLine
 10
6.4499999999999886
 20
-44.50200000000001
 30
0.0
 11
0.9499999999999886
 21
-44.50200000000001
 31
0.0
  0
LINE
  5
D6
100
AcDbEntity
  8
0
  6
CONTINUOUS
 62
               4
100
AcDbLine
 10
6.4199999999999875
 20
-43.50200000000001
 30
0.0
 11
0.9900000000000091
 21
-43.50200000000001
 31
0.0
  0
LINE
  5
D7
100
AcDbEntity
  8
0
  6
CONTINUOUS
 62
               4
100
AcDbLine
 10
6.1200000000000045
 20
-43.801999999999992
 30
0.0
 11
1.289999999999992
 21
-43.801999999999992
 31
0.0
  0
LINE
  5
D8
100
AcDbEntity
  8
0
  6
CONTINUOUS
 62
               4
100
AcDbLine
 10
6.5499999999999829
 20
-39.402000000000015
 30
0.0
 11
0.8499999999999943
 21
-39.402000000000015
 31
0.0
  0
LINE
  5
D9
100
AcDbEntity
  8
0
  6
CONTINUOUS
 62
               4
100
AcDbLine
 10
0.9499999999999886
 20
-46.50200000000001
 30
0.0
 11
0.9499999999999886
 21
-42.801999999999992
 31
0.0
  0
ARC
  5
DA
100
AcDbEntity
  8
0
  6
CONTINUOUS
 62
               4
100
AcDbCircle
 10
1.2970880052370148
 20
-46.80108800523702
 30
0.0
 40
0.5989129830170392
100
AcDbArc
 50
269.89591452477231
 51
0.1040854752270701
  0
ARC
  5
DB
100
AcDbEntity
  8
0
  6
CONTINUOUS
 62
               4
100
AcDbCircle
 10
-0.5040951466582442
 20
-46.800095146658165
 30
0.0
 40
0.5999048608870732
100
AcDbArc
 50
179.99091272245337
 51
270.00908727754575
  0
LINE
  5
DC
100
AcDbEntity
  8
0
  6
CONTINUOUS
 62
               4
100
AcDbLine
 10
-1.3000000000000114
 20
-46.799999999999997
 30
0.0
 11
1.8999999999999773
 21
-46.799999999999997
 31
0.0
  0
ARC
  5
DD
100
AcDbEntity
  8
0
  6
CONTINUOUS
 62
               4
100
AcDbCircle
 10
8.2000000000000028
 20
-46.799999999999997
 30
0.0
 40
0.5
100
AcDbArc
 50
269.99999999999937
 51
0.0
  0
LINE
  5
DE
100
AcDbEntity
  8
0
  6
CONTINUOUS
 62
               4
100
AcDbLine
 10
1.8999999999999773
 20
-47.299999999999997
 30
0.0
 11
1.8999999999999773
 21
-46.50200000000001
 31
0.0
  0
LINE
  5
DF
100
AcDbEntity
  8
0
  6
CONTINUOUS
 62
               4
100
AcDbLine
 10
1.8999999999999773
 20
-47.299999999999997
 30
0.0
 11
8.2000000000000028
 21
-47.299999999999997
 31
0.0
  0
LINE
  5
E0
100
AcDbEntity
  8
0
  6
CONTINUOUS
 62
               4
100
AcDbLine
 10
-1.3000000000000114
 20
-45.799999999999997
 30
0.0
 11
0.9499999999999886
 21
-45.799999999999997
 31
0.0
  0
LINE
  5
E1
100
AcDbEntity
  8
0
  6
CONTINUOUS
 62
               4
100
AcDbLine
 10
-1.3000000000000114
 20
-47.40000000000002
 30
0.0
 11
8.7000000000000028
 21
-47.40000000000002
 31
0.0
  0
LINE
  5
E2
100
AcDbEntity
  8
0
  6
CONTINUOUS
 62
               4
100
AcDbLine
 10
-1.3000000000000114
 20
-47.40000000000002
 30
0.0
 11
-1.2999999999999972
 21
-24.899999999999991
 31
0.0
  0
LINE
  5
E3
100
AcDbEntity
  8
0
  6
CONTINUOUS
 62
               4
100
AcDbLine
 10
8.7000000000000028
 20
-47.40000000000002
 30
0.0
 11
8.7000000000000028
 21
-24.899999999999991
 31
0.0
  0
LINE
  5
E4
100
AcDbEntity
  8
0
  6
CONTINUOUS
 62
               4
100
AcDbLine
 10
-1.0699999999999932
 20
-43.902000000000015
 30
0.0
 11
-1.069999999999979
 21
-26.611999999999995
 31
0.0
  0
LINE
  5
E5
100
AcDbEntity
  8
0
  6
CONTINUOUS
 62
               4
100
AcDbLine
 10
8.4699999999999847
 20
-43.902000000000015
 30
0.0
 11
8.4699999999999847
 21
-26.611999999999995
 31
0.0
  0
LINE
  5
E6
100
AcDbEntity
  8
0
  6
CONTINUOUS
 62
               7
100
AcDbLine
 10
-1.2999999999999972
 20
-13.899999999999991
 30
0.0
 11
8.7000000000000028
 21
-13.899999999999991
 31
0.0
  0
CIRCLE
  5
E7
100
AcDbEntity
  8
0
  6
CONTINUOUS
 62
               7
100
AcDbCircle
 10
3.7000000000000028
 20
-22.600000000000009
 30
0.0
 40
0.75
  0
CIRCLE
  5
E8
100
AcDbEntity
  8
0
  6
CONTINUOUS
 62
               7
100
AcDbCircle
 10
3.7000000000000028
 20
-22.600000000000009
 30
0.0
 40
1.1000000000000001
  0
CIRCLE
  5
E9
100
AcDbEntity
  8
0
  6
CONTINUOUS
 62
               7
100
AcDbCircle
 10
3.7000000000000028
 20
-22.600000000000009
 30
0.0
 40
1.1500000000000001
  0
CIRCLE
  5
EA
100
AcDbEntity
  8
0
  6
CONTINUOUS
 62
               7
100
AcDbCircle
 10
3.7000000000000028
 20
-22.600000000000009
 30
0.0
 40
1.3000000000000012
  0
LINE
  5
EB
100
AcDbEntity
  8
0
  6
CENTER
 62
               2
100
AcDbLine
 10
2.0000000000000142
 20
-22.600000000000009
 30
0.0
 11
5.3999999999999915
 21
-22.600000000000009
 31
0.0
  0
ARC
  5
EC
100
AcDbEntity
  8
0
  6
CONTINUOUS
 62
               7
100
AcDbCircle
 10
3.7000000000000028
 20
-20.899999999999991
 30
0.0
 40
2.0
100
AcDbArc
 50
0.0
 51
179.99999999999963
  0
LINE
  5
ED
100
AcDbEntity
  8
0
  6
CONTINUOUS
 62
               7
100
AcDbLine
 10
1.7000000000000028
 20
-20.899999999999991
 30
0.0
 11
1.7000000000000028
 21
-24.899999999999991
 31
0.0
  0
LINE
  5
EE
100
AcDbEntity
  8
0
  6
CONTINUOUS
 62
               7
100
AcDbLine
 10
5.7000000000000028
 20
-20.899999999999991
 30
0.0
 11
5.7000000000000028
 21
-24.899999999999991
 31
0.0
  0
LINE
  5
EF
100
AcDbEntity
  8
0
  6
CONTINUOUS
 62
               7
100
AcDbLine
 10
-1.2999999999999972
 20
-13.899999999999991
 30
0.0
 11
-1.2999999999999972
 21
-24.899999999999991
 31
0.0
  0
LINE
  5
F0
100
AcDbEntity
  8
0
  6
CONTINUOUS
 62
               7
100
AcDbLine
 10
8.7000000000000028
 20
-13.899999999999991
 30
0.0
 11
8.7000000000000028
 21
-24.899999999999991
 31
0.0
  0
LINE
  5
F1
100
AcDbEntity
  8
0
  6
CONTINUOUS
 62
               4
100
AcDbLine
 10
-1.2999999999999972
 20
-24.899999999999991
 30
0.0
 11
8.7000000000000028
 21
-24.899999999999991
 31
0.0
  0
LINE
  5
F2
100
AcDbEntity
  8
0
  6
CENTER
 62
               2
100
AcDbLine
 10
2.3700000000000045
 20
-22.599001430615175
 30
0.0
 11
5.0400000000000063
 21
-22.599001430615175
 31
0.0
  0
LINE
  5
F3
100
AcDbEntity
  8
0
  6
CENTER
 62
               2
100
AcDbLine
 10
3.7000000000000028
 20
38.698000000000029
 30
0.0
 11
3.6999999999999886
 21
-48.298000000000016
 31
0.0
  0
ENDBLK
  5
F4
100
AcDbEntity
  8
0
100
AcDbBlockEnd
  0
BLOCK
  5
F5
100
AcDbEntity
  8
0
100
AcDbBlockBegin
  2
EA10SF6-2
 70
               0
 10
0.0
 20
0.0
 30
0.0
  3
EA10SF6-2
  1

  0
LINE
  5
F6
100
AcDbEntity
  8
0
  6
CENTER
 62
               2
100
AcDbLine
 10
-2.4999999920755585
 20
-9.6000000000000014
 30
0.0
 11
2.5000000079244415
 21
-9.6000000000000014
 31
0.0
  0
LINE
  5
F7
100
AcDbEntity
  8
0
  6
CENTER
 62
               2
100
AcDbLine
 10
-2.4999999920755585
 20
0.0
 30
0.0
 11
2.5000000079244415
 21
0.0
 31
0.0
  0
LINE
  5
F8
100
AcDbEntity
  8
0
  6
CONTINUOUS
 62
               4
100
AcDbLine
 10
37.495959582533061
 20
-42.155867878146175
 30
0.0
 11
40.995959582533118
 21
-42.155867878146175
 31
0.0
  0
LINE
  5
F9
100
AcDbEntity
  8
0
  6
CONTINUOUS
 62
               4
100
AcDbLine
 10
40.995959582533118
 20
-41.655867878146175
 30
0.0
 11
40.995959582533118
 21
-42.155867878146175
 31
0.0
  0
LINE
  5
FA
100
AcDbEntity
  8
0
  6
CONTINUOUS
 62
               4
100
AcDbLine
 10
37.495959582533061
 20
-41.655867878146175
 30
0.0
 11
40.995959582533118
 21
-41.655867878146175
 31
0.0
  0
LINE
  5
FB
100
AcDbEntity
  8
0
  6
CONTINUOUS
 62
               4
100
AcDbLine
 10
37.495959582533061
 20
32.054233112521096
 30
0.0
 11
40.995959582533118
 21
32.054233112521096
 31
0.0
  0
LINE
  5
FC
100
AcDbEntity
  8
0
  6
CONTINUOUS
 62
               4
100
AcDbLine
 10
40.995959582533118
 20
32.554233112521096
 30
0.0
 11
40.995959582533118
 21
32.054233112521096
 31
0.0
  0
LINE
  5
FD
100
AcDbEntity
  8
0
  6
CONTINUOUS
 62
               4
100
AcDbLine
 10
37.495959582533061
 20
32.554233112521096
 30
0.0
 11
40.995959582533118
 21
32.554233112521096
 31
0.0
  0
LINE
  5
FF
100
AcDbEntity
  8
0
  6
DASHED
 62
             200
100
AcDbLine
 10
-11.500000013518118
 20
-14.199999999999989
 30
0.0
 11
-11.500000013518118
 21
-8.1999999999999886
 31
0.0
  0
LINE
  5
100
100
AcDbEntity
  8
0
  6
DASHED
 62
             200
100
AcDbLine
 10
-9.5000000135181182
 20
-14.199999999999989
 30
0.0
 11
-9.5000000135181182
 21
-8.1999999999999886
 31
0.0
  0
LINE
  5
101
100
AcDbEntity
  8
0
  6
DASHED
 62
             200
100
AcDbLine
 10
-12.000000013518118
 20
-13.699999999999989
 30
0.0
 11
-12.000000013518118
 21
-8.6999999999999886
 31
0.0
  0
ARC
  5
102
100
AcDbEntity
  8
0
  6
DASHED
 62
             200
100
AcDbCircle
 10
-11.500000013518118
 20
-8.6999999999999886
 30
0.0
 40
0.5
100
AcDbArc
 50
89.999999999999815
 51
179.99999999999963
  0
ARC
  5
103
100
AcDbEntity
  8
0
  6
DASHED
 62
             200
100
AcDbCircle
 10
-11.500000013518118
 20
-13.699999999999989
 30
0.0
 40
0.5
100
AcDbArc
 50
179.99999999999963
 51
269.99999999999937
  0
ARC
  5
104
100
AcDbEntity
  8
0
  6
DASHED
 62
             200
100
AcDbCircle
 10
-11.500000013518118
 20
-0.8999999999999986
 30
0.0
 40
0.5
100
AcDbArc
 50
179.99999999999963
 51
269.99999999999937
  0
ARC
  5
105
100
AcDbEntity
  8
0
  6
DASHED
 62
             200
100
AcDbCircle
 10
-11.500000013518118
 20
4.1000000000000014
 30
0.0
 40
0.5
100
AcDbArc
 50
89.999999999999815
 51
179.99999999999963
  0
LINE
  5
106
100
AcDbEntity
  8
0
  6
DASHED
 62
             200
100
AcDbLine
 10
-12.000000013518118
 20
-0.8999999999999986
 30
0.0
 11
-12.000000013518118
 21
4.1000000000000014
 31
0.0
  0
LINE
  5
107
100
AcDbEntity
  8
0
  6
DASHED
 62
             200
100
AcDbLine
 10
-9.5000000135181182
 20
-1.3999999999999986
 30
0.0
 11
-9.5000000135181182
 21
4.6000000000000014
 31
0.0
  0
LINE
  5
108
100
AcDbEntity
  8
0
  6
DASHED
 62
             200
100
AcDbLine
 10
-11.500000013518118
 20
-1.3999999999999986
 30
0.0
 11
-11.500000013518118
 21
4.6000000000000014
 31
0.0
  0
LINE
  5
109
100
AcDbEntity
  8
0
  6
DASHED
 62
             200
100
AcDbLine
 10
-0.0000000135181182
 20
-1.3999999999999986
 30
0.0
 11
-11.500000013518118
 21
-1.3999999999999986
 31
0.0
  0
LINE
  5
10A
100
AcDbEntity
  8
0
  6
DASHED
 62
             200
100
AcDbLine
 10
-0.0000000135181182
 20
4.6000000000000014
 30
0.0
 11
-11.500000013518118
 21
4.6000000000000014
 31
0.0
  0
LINE
  5
10B
100
AcDbEntity
  8
0
  6
DASHED
 62
             200
100
AcDbLine
 10
-0.0000000135181182
 20
-8.1999999999999886
 30
0.0
 11
-11.500000013518118
 21
-8.1999999999999886
 31
0.0
  0
LINE
  5
10C
100
AcDbEntity
  8
0
  6
DASHED
 62
             200
100
AcDbLine
 10
-0.0000000135181182
 20
-14.199999999999989
 30
0.0
 11
-11.500000013518118
 21
-14.199999999999989
 31
0.0
  0
LINE
  5
10D
100
AcDbEntity
  8
0
  6
CENTER
 62
               2
100
AcDbLine
 10
0.8758465617809605
 20
1.6000000000000014
 30
0.0
 11
-13.405931081008063
 21
1.6000000000000014
 31
0.0
  0
LINE
  5
10E
100
AcDbEntity
  8
0
  6
CENTER
 62
               2
100
AcDbLine
 10
0.8758465617809605
 20
-11.199999999999989
 30
0.0
 11
-13.405931081008063
 21
-11.199999999999989
 31
0.0
  0
LINE
  5
10F
100
AcDbEntity
  8
0
  6
CONTINUOUS
 62
               7
100
AcDbLine
 10
12.999999986481882
 20
1.6009985693848066
 30
0.0
 11
12.999999986481882
 21
-1.5990014306152105
 31
0.0
  0
LINE
  5
110
100
AcDbEntity
  8
0
  6
CONTINUOUS
 62
               7
100
AcDbLine
 10
14.000000000000028
 20
8.204999999999977
 30
0.0
 11
15.100000000000037
 21
9.2999999999999901
 31
0.0
  0
LINE
  5
111
100
AcDbEntity
  8
0
  6
CONTINUOUS
 62
               7
100
AcDbLine
 10
15.547999999999973
 20
11.899999999999984
 30
0.0
 11
15.548000000000002
 21
14.10000000000003
 31
0.0
  0
LINE
  5
112
100
AcDbEntity
  8
0
  6
CONTINUOUS
 62
               7
100
AcDbLine
 10
15.548000000000002
 20
14.10000000000003
 30
0.0
 11
15.100000000000023
 21
14.100000000000016
 31
0.0
  0
LINE
  5
113
100
AcDbEntity
  8
0
  6
CONTINUOUS
 62
               7
100
AcDbLine
 10
15.547999999999973
 20
11.899999999999984
 30
0.0
 11
15.100000000000037
 21
11.899999999999984
 31
0.0
  0
LINE
  5
114
100
AcDbEntity
  8
0
  6
CONTINUOUS
 62
               7
100
AcDbLine
 10
15.100000000000037
 20
9.2999999999999901
 30
0.0
 11
15.100000000000037
 21
15.299999999999919
 31
0.0
  0
LINE
  5
115
100
AcDbEntity
  8
0
  6
CONTINUOUS
 62
               7
100
AcDbLine
 10
-0.0000000000000142
 20
4.2999999999999901
 30
0.0
 11
13.999999986481882
 21
4.3000000000000043
 31
0.0
  0
LINE
  5
116
100
AcDbEntity
  8
0
  6
CONTINUOUS
 62
               7
100
AcDbLine
 10
13.998610293169079
 20
15.805000108343286
 30
0.0
 11
13.998571768438424
 21
15.305000109827468
 31
0.0
  0
LINE
  5
117
100
AcDbEntity
  8
0
  6
CONTINUOUS
 62
               7
100
AcDbLine
 10
12.999999986481882
 20
1.6009985693848066
 30
0.0
 11
13.999999986481882
 21
1.6009985693848066
 31
0.0
  0
LINE
  5
118
100
AcDbEntity
  8
0
  6
CONTINUOUS
 62
               7
100
AcDbLine
 10
12.999999986481882
 20
-1.5990014306152105
 30
0.0
 11
13.999999986481882
 21
-1.5990014306152105
 31
0.0
  0
LINE
  5
119
100
AcDbEntity
  8
0
  6
CONTINUOUS
 62
               4
100
AcDbLine
 10
37.495959582533075
 20
31.654545445200291
 30
0.0
 11
37.495959582533047
 21
32.955555545466986
 31
0.0
  0
ARC
  5
11A
100
AcDbEntity
  8
0
  6
CONTINUOUS
 62
               4
100
AcDbCircle
 10
13.200095025612804
 20
37.20009514664833
 30
0.0
 40
0.599904800896587
100
AcDbArc
 50
56.247417870392866
 51
90.009087277545149
  0
ARC
  5
11B
100
AcDbEntity
  8
0
  6
CONTINUOUS
 62
               4
100
AcDbCircle
 10
0.7989120538358492
 20
37.201088005128135
 30
0.0
 40
0.598912923125741
100
AcDbArc
 50
89.895914524771712
 51
180.10408547522565
  0
LINE
  5
11C
100
AcDbEntity
  8
0
  6
CONTINUOUS
 62
               4
100
AcDbLine
 10
3.7000001890352721
 20
37.199999999999811
 30
0.0
 11
-0.0000000270359095
 21
37.199999999999882
 31
0.0
  0
ARC
  5
11D
100
AcDbEntity
  8
0
  6
CONTINUOUS
 62
               4
100
AcDbCircle
 10
0.4999999729640621
 20
37.199999999999882
 30
0.0
 40
0.5
100
AcDbArc
 50
93.919585899649775
 51
179.99999999999858
  0
LINE
  5
11E
100
AcDbEntity
  8
0
  6
CONTINUOUS
 62
               4
100
AcDbLine
 10
13.199999878964128
 20
37.799999999999677
 30
0.0
 11
0.8000000589641303
 21
37.799999999999905
 31
0.0
  0
LINE
  5
11F
100
AcDbEntity
  8
0
  6
CONTINUOUS
 62
               4
100
AcDbLine
 10
13.999999999999673
 20
37.199999999999882
 30
0.0
 11
14.000000000000043
 21
15.299999999999905
 31
0.0
  0
ARC
  5
120
100
AcDbEntity
  8
0
  6
CONTINUOUS
 62
               4
100
AcDbCircle
 10
13.499999964964111
 20
37.199999999999626
 30
0.0
 40
0.5
100
AcDbArc
 50
359.99999999999898
 51
89.999999999998778
  0
LINE
  5
121
100
AcDbEntity
  8
0
  6
CONTINUOUS
 62
               4
100
AcDbLine
 10
13.499999964964111
 20
37.699999999999683
 30
0.0
 11
11.999999968964126
 21
37.699999999999683
 31
0.0
  0
LINE
  5
122
100
AcDbEntity
  8
0
  6
CONTINUOUS
 62
               4
100
AcDbLine
 10
11.999999968964154
 20
37.799999999999677
 30
0.0
 11
11.999999968964097
 21
36.199999999999626
 31
0.0
  0
LINE
  5
123
100
AcDbEntity
  8
0
  6
CONTINUOUS
 62
               4
100
AcDbLine
 10
11.999999968964097
 20
36.199999999999626
 30
0.0
 11
-0.0000000270359095
 21
36.199999999999854
 31
0.0
  0
LINE
  5
124
100
AcDbEntity
  8
0
  6
CONTINUOUS
 62
               4
100
AcDbLine
 10
0.0000000080000717
 20
15.299999999999649
 30
0.0
 11
0.0000000079996738
 21
37.199999999999626
 31
0.0
  0
LINE
  5
125
100
AcDbEntity
  8
0
  6
CONTINUOUS
 62
             200
100
AcDbLine
 10
33.670707059466409
 20
33.804040393466927
 30
0.0
 11
35.403030290799805
 21
30.806060597200265
 31
0.0
  0
ARC
  5
126
100
AcDbEntity
  8
0
  6
CONTINUOUS
 62
               4
100
AcDbCircle
 10
22.400834039354081
 20
34.306894639354404
 30
0.0
 40
0.403865208170398
100
AcDbArc
 50
180.11832473551567
 51
269.88167526448677
  0
ARC
  5
127
100
AcDbEntity
  8
0
  6
CONTINUOUS
 62
               4
100
AcDbCircle
 10
22.399895926378761
 20
34.305327231604572
 30
0.0
 40
0.4029269013737999
100
AcDbArc
 50
100.09177155739695
 51
179.8957164142515
  0
ARC
  5
128
100
AcDbEntity
  8
0
  6
CONTINUOUS
 62
               4
100
AcDbCircle
 10
20.999912514136909
 20
34.405034325092664
 30
0.0
 40
0.4950149226876426
100
AcDbArc
 50
53.123124741165753
 51
90.808304124579536
  0
ARC
  5
129
100
AcDbEntity
  8
0
  6
CONTINUOUS
 62
               4
100
AcDbCircle
 10
14.299431291717113
 20
35.604584129418591
 30
0.0
 40
0.2994663800970315
100
AcDbArc
 50
90.47097302846538
 51
180.87710076750685
  0
ARC
  5
12A
100
AcDbEntity
  8
0
  6
CONTINUOUS
 62
               4
100
AcDbCircle
 10
21.500332840921047
 20
34.30437323838806
 30
0.0
 40
0.4966660273328702
100
AcDbArc
 50
359.37896036356483
 51
90.621039636434716
  0
ARC
  5
12B
100
AcDbEntity
  8
0
  6
CONTINUOUS
 62
               4
100
AcDbCircle
 10
21.497257369556749
 20
17.952522460539235
 30
0.0
 40
0.4997133381008656
100
AcDbArc
 50
294.82621530980992
 51
359.88450442035736
  0
ARC
  5
12C
100
AcDbEntity
  8
0
  6
CONTINUOUS
 62
               4
100
AcDbCircle
 10
16.879104119821235
 20
15.803911629213964
 30
0.0
 40
0.5039443697152496
100
AcDbArc
 50
270.65311753678441
 51
295.61492707600689
  0
LINE
  5
12D
100
AcDbEntity
  8
0
  6
CONTINUOUS
 62
               4
100
AcDbLine
 10
16.884848483200003
 20
15.299999999999962
 30
0.0
 11
16.884848483199661
 21
34.801010089866658
 31
0.0
  0
LINE
  5
12E
100
AcDbEntity
  8
0
  6
CONTINUOUS
 62
               4
100
AcDbLine
 10
28.996969688399773
 20
29.802020193733462
 30
0.0
 11
29.993939384799788
 21
29.802020193733462
 31
0.0
  0
LINE
  5
12F
100
AcDbEntity
  8
0
  6
CONTINUOUS
 62
               4
100
AcDbLine
 10
21.996969692399816
 20
29.802020193733348
 30
0.0
 11
23.997979792266435
 21
29.802020193733348
 31
0.0
  0
LINE
  5
130
100
AcDbEntity
  8
0
  6
CONTINUOUS
 62
               4
100
AcDbLine
 10
29.993939384799759
 20
31.399999990800218
 30
0.0
 11
21.996969692399787
 21
31.399999990800076
 31
0.0
  0
LINE
  5
131
100
AcDbEntity
  8
0
  6
CONTINUOUS
 62
               4
100
AcDbLine
 10
29.993939384799731
 20
33.203030292800214
 30
0.0
 11
21.996969692399759
 21
33.203030292800101
 31
0.0
  0
LINE
  5
132
100
AcDbEntity
  8
0
  6
CONTINUOUS
 62
               4
100
AcDbLine
 10
29.993939384799702
 20
33.903030292400196
 30
0.0
 11
22.399999995199764
 21
33.903030292400054
 31
0.0
  0
LINE
  5
133
100
AcDbEntity
  8
0
  6
CONTINUOUS
 62
               4
100
AcDbLine
 10
29.696969687999726
 20
34.199999989200172
 30
0.0
 11
23.792929287333024
 21
34.199999989200059
 31
0.0
  0
LINE
  5
134
100
AcDbEntity
  8
0
  6
CONTINUOUS
 62
               4
100
AcDbLine
 10
29.993939384799674
 20
35.805050493333489
 30
0.0
 11
28.58686867853298
 21
35.805050493333489
 31
0.0
  0
LINE
  5
135
100
AcDbEntity
  8
0
  6
CONTINUOUS
 62
               4
100
AcDbLine
 10
29.993939384799646
 20
36.802020189733561
 30
0.0
 11
28.494949486666357
 21
36.802020189733561
 31
0.0
  0
LINE
  5
136
100
AcDbEntity
  8
0
  6
CONTINUOUS
 62
               4
100
AcDbLine
 10
33.812121200799751
 20
32.9555555454669
 30
0.0
 11
29.993939384799731
 21
32.955555545466844
 31
0.0
  0
LINE
  5
137
100
AcDbEntity
  8
0
  6
CONTINUOUS
 62
             200
100
AcDbLine
 10
33.324242413199713
 20
33.80404039346687
 30
0.0
 11
35.056565644533109
 21
30.798989890133647
 31
0.0
  0
LINE
  5
138
100
AcDbEntity
  8
0
  6
CONTINUOUS
 62
               4
100
AcDbLine
 10
34.561616149866396
 20
31.654545445200235
 30
0.0
 11
29.993939384799759
 21
31.654545445200121
 31
0.0
  0
LINE
  5
139
100
AcDbEntity
  8
0
  6
CONTINUOUS
 62
               4
100
AcDbLine
 10
15.293939393199665
 20
34.801010089866658
 30
0.0
 11
15.293939393199665
 21
34.899999988799927
 31
0.0
  0
LINE
  5
13A
100
AcDbEntity
  8
0
  6
CONTINUOUS
 62
               4
100
AcDbLine
 10
23.389898984533048
 20
35.904040392266815
 30
0.0
 11
14.29696969679965
 21
35.904040392266644
 31
0.0
  0
LINE
  5
13B
100
AcDbEntity
  8
0
  6
CONTINUOUS
 62
               4
100
AcDbLine
 10
23.495959590533047
 20
33.903030292400082
 30
0.0
 11
23.792929287333024
 21
34.199999989200059
 31
0.0
  0
LINE
  5
13C
100
AcDbEntity
  8
0
  6
CONTINUOUS
 62
               4
100
AcDbLine
 10
23.997979792266435
 20
29.802020193733348
 30
0.0
 11
23.997979792266406
 21
30.403030294400118
 31
0.0
  0
LINE
  5
13D
100
AcDbEntity
  8
0
  6
CONTINUOUS
 62
               4
100
AcDbLine
 10
28.996969688399773
 20
30.403030294400175
 30
0.0
 11
23.997979792266406
 21
30.403030294400118
 31
0.0
  0
LINE
  5
13E
100
AcDbEntity
  8
0
  6
CONTINUOUS
 62
               4
100
AcDbLine
 10
28.996969688399773
 20
29.802020193733462
 30
0.0
 11
28.996969688399773
 21
30.403030294400175
 31
0.0
  0
LINE
  5
13F
100
AcDbEntity
  8
0
  6
CONTINUOUS
 62
               4
100
AcDbLine
 10
29.993939384799702
 20
33.903030292400196
 30
0.0
 11
29.696969687999726
 21
34.199999989200172
 31
0.0
  0
LINE
  5
140
100
AcDbEntity
  8
0
  6
CONTINUOUS
 62
               4
100
AcDbLine
 10
20.992929288933041
 20
34.89999998880004
 30
0.0
 11
15.293939393199665
 21
34.899999988799927
 31
0.0
  0
LINE
  5
141
100
AcDbEntity
  8
0
  6
CONTINUOUS
 62
               4
100
AcDbLine
 10
22.329292924533078
 20
34.702020190933332
 30
0.0
 11
28.671717163333014
 21
35.819191907466838
 31
0.0
  0
LINE
  5
142
100
AcDbEntity
  8
0
  6
CONTINUOUS
 62
               4
100
AcDbLine
 10
29.993939384799674
 20
35.805050493333489
 30
0.0
 11
29.993939384799646
 21
36.802020189733561
 31
0.0
  0
LINE
  5
143
100
AcDbEntity
  8
0
  6
CONTINUOUS
 62
               4
100
AcDbLine
 10
23.389898984533048
 20
35.904040392266815
 30
0.0
 11
28.494949486666357
 21
36.802020189733561
 31
0.0
  0
LINE
  5
144
100
AcDbEntity
  8
0
  6
CONTINUOUS
 62
               4
100
AcDbLine
 10
29.993939384799788
 20
29.802020193733462
 30
0.0
 11
29.993939384799702
 21
33.903030292400196
 31
0.0
  0
LINE
  5
145
100
AcDbEntity
  8
0
  6
CONTINUOUS
 62
               4
100
AcDbLine
 10
16.997979796266733
 20
15.299999999999962
 30
0.0
 11
21.707070702666684
 21
17.498989897733374
 31
0.0
  0
LINE
  5
146
100
AcDbEntity
  8
0
  6
CONTINUOUS
 62
               4
100
AcDbLine
 10
21.99696969239973
 20
34.298989888133384
 30
0.0
 11
21.996969692400043
 21
17.951515150000127
 31
0.0
  0
LINE
  5
147
100
AcDbEntity
  8
0
  6
CONTINUOUS
 62
               4
100
AcDbLine
 10
13.999999999999702
 20
34.801010089866601
 30
0.0
 11
21.494949490666372
 21
34.801010089866772
 31
0.0
  0
LINE
  5
148
100
AcDbEntity
  8
0
  6
CONTINUOUS
 62
               4
100
AcDbLine
 10
0.0000000080000717
 20
15.299999999999649
 30
0.0
 11
16.884848483200003
 21
15.299999999999962
 31
0.0
  0
LINE
  5
149
100
AcDbEntity
  8
0
  6
CONTINUOUS
 62
               4
100
AcDbLine
 10
37.495959582533075
 20
31.654545445200291
 30
0.0
 11
34.908080796133092
 21
31.654545445200235
 31
0.0
  0
LINE
  5
14A
100
AcDbEntity
  8
0
  6
CONTINUOUS
 62
               4
100
AcDbLine
 10
37.495959582533047
 20
32.955555545466986
 30
0.0
 11
34.158585847066448
 21
32.955555545466929
 31
0.0
  0
LINE
  5
14B
100
AcDbEntity
  8
0
  6
CONTINUOUS
 62
               7
100
AcDbLine
 10
-0.00000002543905
 20
-13.899999999999999
 30
0.0
 11
13.99999997456095
 21
-13.899999999999999
 31
0.0
  0
LINE
  5
14C
100
AcDbEntity
  8
0
  6
CENTER
 62
               2
100
AcDbLine
 10
4.5580738695787346
 20
-1.6000000000000156
 30
0.0
 11
1.2989993842763141
 21
-1.6000000000000156
 31
0.0
  0
LINE
  5
14D
100
AcDbEntity
  8
0
  6
CENTER
 62
               2
100
AcDbLine
 10
2.8999999864818875
 20
1.0056776575735498
 30
0.0
 11
2.8999999864818875
 21
-10.438647484203379
 31
0.0
  0
LINE
  5
14E
100
AcDbEntity
  8
0
  6
CENTER
 62
               2
100
AcDbLine
 10
4.5580738695787346
 20
-7.9995622165198128
 30
0.0
 11
1.2989993842763141
 21
-7.9995622165198128
 31
0.0
  0
CIRCLE
  5
14F
100
AcDbEntity
  8
0
  6
CONTINUOUS
 62
               7
100
AcDbCircle
 10
2.8999999864818875
 20
-1.6000001002713518
 30
0.0
 40
1.075
  0
CIRCLE
  5
150
100
AcDbEntity
  8
0
  6
CONTINUOUS
 62
               7
100
AcDbCircle
 10
2.8999999864818875
 20
-8.0000000000000213
 30
0.0
 40
1.075
  0
LINE
  5
151
100
AcDbEntity
  8
0
  6
CONTINUOUS
 62
               4
100
AcDbLine
 10
37.495959582533047
 20
-42.555555545466994
 30
0.0
 11
34.158585847066448
 21
-42.555555545466937
 31
0.0
  0
LINE
  5
152
100
AcDbEntity
  8
0
  6
CONTINUOUS
 62
               4
100
AcDbLine
 10
37.495959582533075
 20
-41.2545454452003
 30
0.0
 11
34.908080796133092
 21
-41.254545445200243
 31
0.0
  0
LINE
  5
153
100
AcDbEntity
  8
0
  6
CONTINUOUS
 62
               4
100
AcDbLine
 10
0.0000000080000717
 20
-24.899999999999658
 30
0.0
 11
16.884848483200003
 21
-24.89999999999997
 31
0.0
  0
LINE
  5
154
100
AcDbEntity
  8
0
  6
CONTINUOUS
 62
               4
100
AcDbLine
 10
13.999999999999702
 20
-44.40101008986661
 30
0.0
 11
21.494949490666372
 21
-44.40101008986678
 31
0.0
  0
LINE
  5
155
100
AcDbEntity
  8
0
  6
CONTINUOUS
 62
               4
100
AcDbLine
 10
21.99696969239973
 20
-43.898989888133393
 30
0.0
 11
21.996969692400043
 21
-27.551515150000135
 31
0.0
  0
LINE
  5
156
100
AcDbEntity
  8
0
  6
CONTINUOUS
 62
               4
100
AcDbLine
 10
16.997979796266733
 20
-24.89999999999997
 30
0.0
 11
21.707070702666684
 21
-27.098989897733382
 31
0.0
  0
LINE
  5
157
100
AcDbEntity
  8
0
  6
CONTINUOUS
 62
               4
100
AcDbLine
 10
29.993939384799788
 20
-39.40202019373347
 30
0.0
 11
29.993939384799702
 21
-43.503030292400204
 31
0.0
  0
LINE
  5
158
100
AcDbEntity
  8
0
  6
CONTINUOUS
 62
               4
100
AcDbLine
 10
23.389898984533048
 20
-45.504040392266823
 30
0.0
 11
28.494949486666357
 21
-46.40202018973357
 31
0.0
  0
LINE
  5
159
100
AcDbEntity
  8
0
  6
CONTINUOUS
 62
               4
100
AcDbLine
 10
29.993939384799674
 20
-45.405050493333498
 30
0.0
 11
29.993939384799646
 21
-46.40202018973357
 31
0.0
  0
LINE
  5
15A
100
AcDbEntity
  8
0
  6
CONTINUOUS
 62
               4
100
AcDbLine
 10
22.329292924533078
 20
-44.302020190933341
 30
0.0
 11
28.671717163333014
 21
-45.419191907466846
 31
0.0
  0
LINE
  5
15B
100
AcDbEntity
  8
0
  6
CONTINUOUS
 62
               4
100
AcDbLine
 10
20.992929288933041
 20
-44.499999988800049
 30
0.0
 11
15.293939393199665
 21
-44.499999988799935
 31
0.0
  0
LINE
  5
15C
100
AcDbEntity
  8
0
  6
CONTINUOUS
 62
               4
100
AcDbLine
 10
29.993939384799702
 20
-43.503030292400204
 30
0.0
 11
29.696969687999726
 21
-43.799999989200181
 31
0.0
  0
LINE
  5
15D
100
AcDbEntity
  8
0
  6
CONTINUOUS
 62
               4
100
AcDbLine
 10
28.996969688399773
 20
-39.40202019373347
 30
0.0
 11
28.996969688399773
 21
-40.003030294400183
 31
0.0
  0
LINE
  5
15E
100
AcDbEntity
  8
0
  6
CONTINUOUS
 62
               4
100
AcDbLine
 10
28.996969688399773
 20
-40.003030294400183
 30
0.0
 11
23.997979792266406
 21
-40.003030294400126
 31
0.0
  0
LINE
  5
15F
100
AcDbEntity
  8
0
  6
CONTINUOUS
 62
               4
100
AcDbLine
 10
23.997979792266435
 20
-39.402020193733357
 30
0.0
 11
23.997979792266406
 21
-40.003030294400126
 31
0.0
  0
LINE
  5
160
100
AcDbEntity
  8
0
  6
CONTINUOUS
 62
               4
100
AcDbLine
 10
23.495959590533047
 20
-43.503030292400091
 30
0.0
 11
23.792929287333024
 21
-43.799999989200067
 31
0.0
  0
LINE
  5
161
100
AcDbEntity
  8
0
  6
CONTINUOUS
 62
               4
100
AcDbLine
 10
23.389898984533048
 20
-45.504040392266823
 30
0.0
 11
14.29696969679965
 21
-45.504040392266653
 31
0.0
  0
LINE
  5
162
100
AcDbEntity
  8
0
  6
CONTINUOUS
 62
               4
100
AcDbLine
 10
15.293939393199665
 20
-44.401010089866666
 30
0.0
 11
15.293939393199665
 21
-44.499999988799935
 31
0.0
  0
LINE
  5
163
100
AcDbEntity
  8
0
  6
CONTINUOUS
 62
               4
100
AcDbLine
 10
34.561616149866396
 20
-41.254545445200243
 30
0.0
 11
29.993939384799759
 21
-41.254545445200129
 31
0.0
  0
LINE
  5
164
100
AcDbEntity
  8
0
  6
CONTINUOUS
 62
             200
100
AcDbLine
 10
33.324242413199713
 20
-43.404040393466879
 30
0.0
 11
35.056565644533109
 21
-40.398989890133656
 31
0.0
  0
LINE
  5
165
100
AcDbEntity
  8
0
  6
CONTINUOUS
 62
               4
100
AcDbLine
 10
33.812121200799751
 20
-42.555555545466909
 30
0.0
 11
29.993939384799731
 21
-42.555555545466852
 31
0.0
  0
LINE
  5
166
100
AcDbEntity
  8
0
  6
CONTINUOUS
 62
               4
100
AcDbLine
 10
29.993939384799646
 20
-46.40202018973357
 30
0.0
 11
28.494949486666357
 21
-46.40202018973357
 31
0.0
  0
LINE
  5
167
100
AcDbEntity
  8
0
  6
CONTINUOUS
 62
               4
100
AcDbLine
 10
29.993939384799674
 20
-45.405050493333498
 30
0.0
 11
28.58686867853298
 21
-45.405050493333498
 31
0.0
  0
LINE
  5
168
100
AcDbEntity
  8
0
  6
CONTINUOUS
 62
               4
100
AcDbLine
 10
29.696969687999726
 20
-43.799999989200181
 30
0.0
 11
23.792929287333024
 21
-43.799999989200067
 31
0.0
  0
LINE
  5
169
100
AcDbEntity
  8
0
  6
CONTINUOUS
 62
               4
100
AcDbLine
 10
29.993939384799702
 20
-43.503030292400204
 30
0.0
 11
22.399999995199764
 21
-43.503030292400062
 31
0.0
  0
LINE
  5
16A
100
AcDbEntity
  8
0
  6
CONTINUOUS
 62
               4
100
AcDbLine
 10
29.993939384799731
 20
-42.803030292800223
 30
0.0
 11
21.996969692399759
 21
-42.803030292800109
 31
0.0
  0
LINE
  5
16B
100
AcDbEntity
  8
0
  6
CONTINUOUS
 62
               4
100
AcDbLine
 10
29.993939384799759
 20
-40.999999990800227
 30
0.0
 11
21.996969692399787
 21
-40.999999990800085
 31
0.0
  0
LINE
  5
16C
100
AcDbEntity
  8
0
  6
CONTINUOUS
 62
               4
100
AcDbLine
 10
21.996969692399816
 20
-39.402020193733357
 30
0.0
 11
23.997979792266435
 21
-39.402020193733357
 31
0.0
  0
LINE
  5
16D
100
AcDbEntity
  8
0
  6
CONTINUOUS
 62
               4
100
AcDbLine
 10
28.996969688399773
 20
-39.40202019373347
 30
0.0
 11
29.993939384799788
 21
-39.40202019373347
 31
0.0
  0
LINE
  5
16E
100
AcDbEntity
  8
0
  6
CONTINUOUS
 62
               4
100
AcDbLine
 10
16.884848483200003
 20
-24.89999999999997
 30
0.0
 11
16.884848483199661
 21
-44.401010089866666
 31
0.0
  0
ARC
  5
16F
100
AcDbEntity
  8
0
  6
CONTINUOUS
 62
               4
100
AcDbCircle
 10
16.879104119821235
 20
-25.403911629213972
 30
0.0
 40
0.5039443697152496
100
AcDbArc
 50
64.385072923992283
 51
89.346882463214783
  0
ARC
  5
170
100
AcDbEntity
  8
0
  6
CONTINUOUS
 62
               4
100
AcDbCircle
 10
21.497257369556749
 20
-27.552522460539244
 30
0.0
 40
0.4997133381008656
100
AcDbArc
 50
0.1154955796418579
 51
65.173784690189237
  0
ARC
  5
171
100
AcDbEntity
  8
0
  6
CONTINUOUS
 62
               4
100
AcDbCircle
 10
21.500332840921047
 20
-43.904373238388068
 30
0.0
 40
0.4966660273328702
100
AcDbArc
 50
269.37896036356449
 51
0.6210396364351734
  0
ARC
  5
172
100
AcDbEntity
  8
0
  6
CONTINUOUS
 62
               4
100
AcDbCircle
 10
20.999912514136909
 20
-44.005034325092673
 30
0.0
 40
0.4950149226876426
100
AcDbArc
 50
269.19169587541967
 51
306.87687525883342
  0
ARC
  5
173
100
AcDbEntity
  8
0
  6
CONTINUOUS
 62
               4
100
AcDbCircle
 10
22.399895926378761
 20
-43.905327231604581
 30
0.0
 40
0.4029269013737999
100
AcDbArc
 50
180.10428358574771
 51
259.90822844260225
  0
ARC
  5
174
100
AcDbEntity
  8
0
  6
CONTINUOUS
 62
               4
100
AcDbCircle
 10
22.400834039354081
 20
-43.906894639354412
 30
0.0
 40
0.403865208170398
100
AcDbArc
 50
90.118324735512417
 51
179.88167526448353
  0
LINE
  5
175
100
AcDbEntity
  8
0
  6
CONTINUOUS
 62
             200
100
AcDbLine
 10
33.670707059466409
 20
-43.404040393466936
 30
0.0
 11
35.403030290799805
 21
-40.406060597200273
 31
0.0
  0
LINE
  5
176
100
AcDbEntity
  8
0
  6
CONTINUOUS
 62
               4
100
AcDbLine
 10
0.0000000080000717
 20
-24.899999999999658
 30
0.0
 11
0.0000000079996738
 21
-46.799999999999635
 31
0.0
  0
LINE
  5
177
100
AcDbEntity
  8
0
  6
CONTINUOUS
 62
               4
100
AcDbLine
 10
2.0000000039996593
 20
-45.799999999999635
 30
0.0
 11
13.999999999999673
 21
-45.799999999999862
 31
0.0
  0
LINE
  5
178
100
AcDbEntity
  8
0
  6
CONTINUOUS
 62
               4
100
AcDbLine
 10
2.0000000039996024
 20
-47.399999999999686
 30
0.0
 11
2.0000000039996593
 21
-45.799999999999635
 31
0.0
  0
LINE
  5
179
100
AcDbEntity
  8
0
  6
CONTINUOUS
 62
               4
100
AcDbLine
 10
0.5000000079996454
 20
-47.299999999999692
 30
0.0
 11
2.0000000039996308
 21
-47.299999999999692
 31
0.0
  0
ARC
  5
17A
100
AcDbEntity
  8
0
  6
CONTINUOUS
 62
               4
100
AcDbCircle
 10
0.5000000079996454
 20
-46.799999999999635
 30
0.0
 40
0.5
100
AcDbArc
 50
179.99999999999858
 51
269.99999999999835
  0
LINE
  5
17B
100
AcDbEntity
  8
0
  6
CONTINUOUS
 62
               4
100
AcDbLine
 10
13.999999999999673
 20
-46.799999999999891
 30
0.0
 11
14.000000000000043
 21
-24.899999999999913
 31
0.0
  0
LINE
  5
17C
100
AcDbEntity
  8
0
  6
CONTINUOUS
 62
               4
100
AcDbLine
 10
0.8000000939996284
 20
-47.399999999999686
 30
0.0
 11
13.199999913999633
 21
-47.399999999999913
 31
0.0
  0
ARC
  5
17D
100
AcDbEntity
  8
0
  6
CONTINUOUS
 62
               4
100
AcDbCircle
 10
13.499999999999702
 20
-46.799999999999891
 30
0.0
 40
0.5
100
AcDbArc
 50
273.91958589964941
 51
359.99999999999818
  0
LINE
  5
17E
100
AcDbEntity
  8
0
  6
CONTINUOUS
 62
               4
100
AcDbLine
 10
11.300000003999642
 20
-46.799999999999834
 30
0.0
 11
13.999999999999673
 21
-46.799999999999891
 31
0.0
  0
LINE
  5
17F
100
AcDbEntity
  8
0
  6
CONTINUOUS
 62
               4
100
AcDbLine
 10
11.300000003999614
 20
-47.399999999999856
 30
0.0
 11
11.300000003999642
 21
-46.799999999999834
 31
0.0
  0
ARC
  5
180
100
AcDbEntity
  8
0
  6
CONTINUOUS
 62
               4
100
AcDbCircle
 10
13.201087919127914
 20
-46.801088005128143
 30
0.0
 40
0.598912923125741
100
AcDbArc
 50
269.89591452477129
 51
0.1040854752260523
  0
ARC
  5
181
100
AcDbEntity
  8
0
  6
CONTINUOUS
 62
               4
100
AcDbCircle
 10
0.799904947350953
 20
-46.800095146648339
 30
0.0
 40
0.599904800896587
100
AcDbArc
 50
236.24741787039247
 51
270.00908727754478
  0
LINE
  5
182
100
AcDbEntity
  8
0
  6
CONTINUOUS
 62
               4
100
AcDbLine
 10
37.495959582533075
 20
-41.2545454452003
 30
0.0
 11
37.495959582533047
 21
-42.555555545466994
 31
0.0
  0
LINE
  5
183
100
AcDbEntity
  8
0
  6
CONTINUOUS
 62
               7
100
AcDbLine
 10
13.998610293169079
 20
-25.405000108343295
 30
0.0
 11
13.998571768438424
 21
-24.905000109827476
 31
0.0
  0
LINE
  5
184
100
AcDbEntity
  8
0
  6
CONTINUOUS
 62
               7
100
AcDbLine
 10
15.100000000000037
 20
-18.899999999999999
 30
0.0
 11
15.100000000000037
 21
-24.899999999999928
 31
0.0
  0
LINE
  5
185
100
AcDbEntity
  8
0
  6
CONTINUOUS
 62
               7
100
AcDbLine
 10
15.547999999999973
 20
-21.499999999999993
 30
0.0
 11
15.100000000000037
 21
-21.499999999999993
 31
0.0
  0
LINE
  5
186
100
AcDbEntity
  8
0
  6
CONTINUOUS
 62
               7
100
AcDbLine
 10
15.548000000000002
 20
-23.700000000000038
 30
0.0
 11
15.100000000000023
 21
-23.700000000000024
 31
0.0
  0
LINE
  5
187
100
AcDbEntity
  8
0
  6
CONTINUOUS
 62
               7
100
AcDbLine
 10
15.547999999999973
 20
-21.499999999999993
 30
0.0
 11
15.548000000000002
 21
-23.700000000000038
 31
0.0
  0
LINE
  5
188
100
AcDbEntity
  8
0
  6
CONTINUOUS
 62
               7
100
AcDbLine
 10
14.000000000000028
 20
-17.804999999999986
 30
0.0
 11
15.100000000000037
 21
-18.899999999999999
 31
0.0
  0
LINE
  5
189
100
AcDbEntity
  8
0
  6
CENTER
 62
               2
100
AcDbLine
 10
6.9999999864818818
 20
-48.302001430615199
 30
0.0
 11
6.9999999864818818
 21
38.693998569384839
 31
0.0
  0
LINE
  5
18A
100
AcDbEntity
  8
0
  6
CONTINUOUS
 62
               7
100
AcDbLine
 10
14.000000000000043
 20
-24.899999999999928
 30
0.0
 11
14.000000000000043
 21
15.299999999999919
 31
0.0
  0
LINE
  5
18B
100
AcDbEntity
  8
0
  6
CONTINUOUS
 62
               7
100
AcDbLine
 10
0.0
 20
-24.899999999999942
 30
0.0
 11
0.0
 21
15.299999999999933
 31
0.0
  0
LINE
  5
18C
100
AcDbEntity
  8
0
  6
CONTINUOUS
 62
               4
100
AcDbLine
 10
3.7000001890352721
 20
37.199999999999655
 30
0.0
 11
3.7000001890352721
 21
37.799999999999677
 31
0.0
  0
ARC
  5
18D
100
AcDbEntity
  8
0
  6
CONTINUOUS
 62
               4
100
AcDbCircle
 10
2.6010881942723572
 20
37.201088005236663
 30
0.0
 40
0.5989129830170392
100
AcDbArc
 50
359.89591452477299
 51
90.104085475226924
  0
ENDBLK
  5
18E
100
AcDbEntity
  8
0
100
AcDbBlockEnd
  0
BLOCK
  5
18F
100
AcDbEntity
  8
0
100
AcDbBlockBegin
  2
EA10SF6-3
 70
               0
 10
0.0
 20
0.0
 30
0.0
  3
EA10SF6-3
  1

  0
LINE
  5
190
100
AcDbEntity
  8
0
  6
CONTINUOUS
 62
               7
100
AcDbLine
 10
1.2999999999999972
 20
-24.899999999999999
 30
0.0
 11
1.2999999999999972
 21
15.299999999999976
 31
0.0
  0
LINE
  5
191
100
AcDbEntity
  8
0
  6
CONTINUOUS
 62
               7
100
AcDbLine
 10
-8.7000000000000028
 20
-24.899999999999999
 30
0.0
 11
-8.7000000000000028
 21
15.299999999999976
 31
0.0
  0
LINE
  5
192
100
AcDbEntity
  8
0
  6
CONTINUOUS
 62
               4
100
AcDbLine
 10
-8.7000000000000028
 20
15.299999999999976
 30
0.0
 11
-8.7000000000000028
 21
37.799999999999976
 31
0.0
  0
LINE
  5
193
100
AcDbEntity
  8
0
  6
CONTINUOUS
 62
               4
100
AcDbLine
 10
1.2999999999999972
 20
15.299999999999976
 30
0.0
 11
1.2999999999999972
 21
37.799999999999976
 31
0.0
  0
LINE
  5
194
100
AcDbEntity
  8
0
  6
CONTINUOUS
 62
               4
100
AcDbLine
 10
-8.7000000000000028
 20
15.299999999999976
 30
0.0
 11
1.2999999999999972
 21
15.299999999999976
 31
0.0
  0
CIRCLE
  5
195
100
AcDbEntity
  8
0
  6
CONTINUOUS
 62
               7
100
AcDbCircle
 10
-3.7000183105468949
 20
8.1000183105468508
 30
0.0
 40
0.8999999761581421
  0
ARC
  5
196
100
AcDbEntity
  8
0
  6
CONTINUOUS
 62
               4
100
AcDbCircle
 10
-1.2970880052370433
 20
37.201088005236976
 30
0.0
 40
0.5989129830170392
100
AcDbArc
 50
89.895914524772735
 51
180.10408547522667
  0
ARC
  5
197
100
AcDbEntity
  8
0
  6
CONTINUOUS
 62
               4
100
AcDbCircle
 10
0.5040951466582158
 20
37.20009514665815
 30
0.0
 40
0.5999048608870732
100
AcDbArc
 50
359.99091272245295
 51
90.009087277546172
  0
LINE
  5
198
100
AcDbEntity
  8
0
  6
CONTINUOUS
 62
               4
100
AcDbLine
 10
1.2999999999999829
 20
37.199999999999982
 30
0.0
 11
-1.9000000000000199
 21
37.199999999999982
 31
0.0
  0
ARC
  5
199
100
AcDbEntity
  8
0
  6
CONTINUOUS
 62
               4
100
AcDbCircle
 10
-8.2000000000000313
 20
37.199999999999982
 30
0.0
 40
0.5
100
AcDbArc
 50
89.999999999999815
 51
179.99999999999963
  0
LINE
  5
19A
100
AcDbEntity
  8
0
  6
CONTINUOUS
 62
               4
100
AcDbLine
 10
-1.9000000000000199
 20
37.699999999999982
 30
0.0
 11
-1.9000000000000199
 21
36.199999999999982
 31
0.0
  0
LINE
  5
19B
100
AcDbEntity
  8
0
  6
CONTINUOUS
 62
               4
100
AcDbLine
 10
-1.9000000000000199
 20
37.699999999999982
 30
0.0
 11
-8.2000000000000313
 21
37.699999999999982
 31
0.0
  0
LINE
  5
19C
100
AcDbEntity
  8
0
  6
CONTINUOUS
 62
               4
100
AcDbLine
 10
1.2999999999999829
 20
36.199999999999982
 30
0.0
 11
-1.9000000000000199
 21
36.199999999999982
 31
0.0
  0
LINE
  5
19D
100
AcDbEntity
  8
0
  6
CONTINUOUS
 62
               4
100
AcDbLine
 10
1.2999999999999829
 20
37.799999999999976
 30
0.0
 11
-8.7000000000000313
 21
37.799999999999976
 31
0.0
  0
LINE
  5
19E
100
AcDbEntity
  8
0
  6
CENTER
 62
               2
100
AcDbLine
 10
-1.39233957580565
 20
-4.8000000000000114
 30
0.0
 11
-6.0076604241943556
 21
-4.8000000000000114
 31
0.0
  0
LINE
  5
19F
100
AcDbEntity
  8
0
  6
CENTER
 62
               2
100
AcDbLine
 10
-1.39233957580565
 20
-11.200000000000003
 30
0.0
 11
-6.0076604241943556
 21
-11.200000000000003
 31
0.0
  0
CIRCLE
  5
1A0
100
AcDbEntity
  8
0
  6
CONTINUOUS
 62
               2
100
AcDbCircle
 10
-3.7000000000000028
 20
-11.200000000000003
 30
0.0
 40
1.5
  0
CIRCLE
  5
1A1
100
AcDbEntity
  8
0
  6
CONTINUOUS
 62
               2
100
AcDbCircle
 10
-3.7000000000000028
 20
1.5999999999999872
 30
0.0
 40
1.5
  0
CIRCLE
  5
1A2
100
AcDbEntity
  8
0
  6
CONTINUOUS
 62
               7
100
AcDbCircle
 10
-3.7000000000000028
 20
-11.200000000000003
 30
0.0
 40
1.25
  0
CIRCLE
  5
1A3
100
AcDbEntity
  8
0
  6
CONTINUOUS
 62
               7
100
AcDbCircle
 10
-3.7000000000000028
 20
1.5999999999999872
 30
0.0
 40
1.25
  0
CIRCLE
  5
1A4
100
AcDbEntity
  8
0
  6
CONTINUOUS
 62
               7
100
AcDbCircle
 10
-3.7000000000000028
 20
-4.8000000000000114
 30
0.0
 40
1.25
  0
CIRCLE
  5
1A5
100
AcDbEntity
  8
0
  6
CONTINUOUS
 62
               2
100
AcDbCircle
 10
-3.7000000000000028
 20
-4.8000000000000114
 30
0.0
 40
1.5
  0
LINE
  5
1A6
100
AcDbEntity
  8
0
  6
CENTER
 62
               2
100
AcDbLine
 10
-7.4000000000000199
 20
-11.100461398562274
 30
0.0
 11
-7.4000000000000199
 21
-8.1184246891139225
 31
0.0
  0
LINE
  5
1A7
100
AcDbEntity
  8
0
  6
CENTER
 62
               2
100
AcDbLine
 10
-5.8095838508537412
 20
-9.6000000000000085
 30
0.0
 11
-8.8598351735368936
 21
-9.6000000000000085
 31
0.0
  0
CIRCLE
  5
1A8
100
AcDbEntity
  8
0
  6
CONTINUOUS
 62
               7
100
AcDbCircle
 10
-7.4000000000000199
 20
-9.6000000000000085
 30
0.0
 40
1.0
  0
LINE
  5
1A9
100
AcDbEntity
  8
0
  6
CENTER
 62
               2
100
AcDbLine
 10
1.5141706867843681
 20
0.0
 30
0.0
 11
-1.4477988131531703
 21
0.0
 31
0.0
  0
LINE
  5
1AA
100
AcDbEntity
  8
0
  6
CENTER
 62
               2
100
AcDbLine
 10
0.0
 20
-1.6582043412881831
 30
0.0
 11
0.0
 21
1.6507458038142815
 31
0.0
  0
CIRCLE
  5
1AB
100
AcDbEntity
  8
0
  6
CONTINUOUS
 62
               7
100
AcDbCircle
 10
0.0
 20
0.0
 30
0.0
 40
1.0
  0
LINE
  5
1AC
100
AcDbEntity
  8
0
  6
CONTINUOUS
 62
               7
100
AcDbLine
 10
1.2999999999999972
 20
4.3000000000000043
 30
0.0
 11
-8.6999999999999744
 21
4.3000000000000043
 31
0.0
  0
LINE
  5
1AD
100
AcDbEntity
  8
0
  6
CONTINUOUS
 62
               7
100
AcDbLine
 10
1.2999999999999972
 20
-13.90000000000002
 30
0.0
 11
-8.6999999999999744
 21
-13.90000000000002
 31
0.0
  0
LINE
  5
1AE
100
AcDbEntity
  8
0
  6
CENTER
 62
               2
100
AcDbLine
 10
-6.0076604241943556
 20
1.5999999999999872
 30
0.0
 11
-1.39233957580565
 21
1.5999999999999872
 31
0.0
  0
LINE
  5
1AF
100
AcDbEntity
  8
0
  6
CENTER
 62
               2
100
AcDbLine
 10
-5.7000000000000028
 20
8.0999999999999872
 30
0.0
 11
-1.7000000000000028
 21
8.0999999999999872
 31
0.0
  0
LINE
  5
1B0
100
AcDbEntity
  8
0
  6
CENTER
 62
               2
100
AcDbLine
 10
-1.7000000000000028
 20
-17.70000000000001
 30
0.0
 11
-5.7000000000000028
 21
-17.70000000000001
 31
0.0
  0
LINE
  5
1B1
100
AcDbEntity
  8
0
  6
CONTINUOUS
 62
               4
100
AcDbLine
 10
-8.6999999999999744
 20
-47.399999999999999
 30
0.0
 11
1.3000000000000114
 21
-47.399999999999999
 31
0.0
  0
LINE
  5
1B2
100
AcDbEntity
  8
0
  6
CONTINUOUS
 62
               4
100
AcDbLine
 10
-8.6999999999999744
 20
-45.800000000000004
 30
0.0
 11
-5.4999999999999858
 21
-45.800000000000004
 31
0.0
  0
LINE
  5
1B3
100
AcDbEntity
  8
0
  6
CONTINUOUS
 62
               4
100
AcDbLine
 10
-5.4999999999999858
 20
-47.300000000000004
 30
0.0
 11
0.8000000000000114
 21
-47.300000000000004
 31
0.0
  0
LINE
  5
1B4
100
AcDbEntity
  8
0
  6
CONTINUOUS
 62
               4
100
AcDbLine
 10
-5.4999999999999858
 20
-47.300000000000004
 30
0.0
 11
-5.4999999999999858
 21
-45.800000000000004
 31
0.0
  0
ARC
  5
1B5
100
AcDbEntity
  8
0
  6
CONTINUOUS
 62
               4
100
AcDbCircle
 10
0.8000000000000114
 20
-46.800000000000004
 30
0.0
 40
0.5
100
AcDbArc
 50
269.99999999999937
 51
0.0
  0
LINE
  5
1B6
100
AcDbEntity
  8
0
  6
CONTINUOUS
 62
               4
100
AcDbLine
 10
-8.6999999999999744
 20
-46.800000000000004
 30
0.0
 11
-5.4999999999999858
 21
-46.800000000000004
 31
0.0
  0
ARC
  5
1B7
100
AcDbEntity
  8
0
  6
CONTINUOUS
 62
               4
100
AcDbCircle
 10
-7.9040951466582072
 20
-46.800095146658172
 30
0.0
 40
0.5999048608870732
100
AcDbArc
 50
179.99091272245337
 51
270.00908727754575
  0
ARC
  5
1B8
100
AcDbEntity
  8
0
  6
CONTINUOUS
 62
               4
100
AcDbCircle
 10
-6.1029119947629482
 20
-46.801088005236998
 30
0.0
 40
0.5989129830170392
100
AcDbArc
 50
269.89591452477231
 51
0.1040854752270701
  0
CIRCLE
  5
1B9
100
AcDbEntity
  8
0
  6
CONTINUOUS
 62
               7
100
AcDbCircle
 10
-3.6999816894531108
 20
-17.700018310546874
 30
0.0
 40
0.8999999761581421
  0
LINE
  5
1BA
100
AcDbEntity
  8
0
  6
CONTINUOUS
 62
               4
100
AcDbLine
 10
1.2999999999999972
 20
-24.899999999999999
 30
0.0
 11
-8.7000000000000028
 21
-24.899999999999999
 31
0.0
  0
LINE
  5
1BB
100
AcDbEntity
  8
0
  6
CENTER
 62
               2
100
AcDbLine
 10
-3.7000000000000028
 20
-48.297001430615218
 30
0.0
 11
-3.7000000000000028
 21
38.69899856938482
 31
0.0
  0
LINE
  5
1BC
100
AcDbEntity
  8
0
  6
CONTINUOUS
 62
               4
100
AcDbLine
 10
1.2999999999999972
 20
-47.399999999999999
 30
0.0
 11
1.2999999999999972
 21
-24.899999999999999
 31
0.0
  0
LINE
  5
1BD
100
AcDbEntity
  8
0
  6
CONTINUOUS
 62
               4
100
AcDbLine
 10
-8.7000000000000028
 20
-47.399999999999999
 30
0.0
 11
-8.7000000000000028
 21
-24.899999999999999
 31
0.0
  0
ENDBLK
  5
1BE
100
AcDbEntity
  8
0
100
AcDbBlockEnd
  0
BLOCK
  5
1BF
100
AcDbEntity
  8
0
100
AcDbBlockBegin
  2
EA10SF6-4
 70
               0
 10
0.0
 20
0.0
 30
0.0
  3
EA10SF6-4
  1

  0
LINE
  5
1C0
100
AcDbEntity
  8
0
  6
CENTER
 62
               2
100
AcDbLine
 10
2.3700000000000045
 20
-23.299001430615185
 30
0.0
 11
5.0400000000000063
 21
-23.299001430615185
 31
0.0
  0
LINE
  5
1C1
100
AcDbEntity
  8
0
  6
CONTINUOUS
 62
               7
100
AcDbLine
 10
8.7000000000000028
 20
-13.899999999999984
 30
0.0
 11
8.7000000000000028
 21
-25.599999999999987
 31
0.0
  0
LINE
  5
1C2
100
AcDbEntity
  8
0
  6
CONTINUOUS
 62
               7
100
AcDbLine
 10
-1.2999999999999972
 20
-13.899999999999984
 30
0.0
 11
-1.2999999999999972
 21
-25.599999999999987
 31
0.0
  0
LINE
  5
1C3
100
AcDbEntity
  8
0
  6
CONTINUOUS
 62
               7
100
AcDbLine
 10
5.7000000000000028
 20
-21.599999999999987
 30
0.0
 11
5.7000000000000028
 21
-25.599999999999987
 31
0.0
  0
LINE
  5
1C4
100
AcDbEntity
  8
0
  6
CONTINUOUS
 62
               7
100
AcDbLine
 10
1.7000000000000028
 20
-21.599999999999987
 30
0.0
 11
1.7000000000000028
 21
-25.599999999999987
 31
0.0
  0
ARC
  5
1C5
100
AcDbEntity
  8
0
  6
CONTINUOUS
 62
               7
100
AcDbCircle
 10
3.7000000000000028
 20
-21.599999999999987
 30
0.0
 40
2.0
100
AcDbArc
 50
0.0
 51
179.99999999999963
  0
LINE
  5
1C6
100
AcDbEntity
  8
0
  6
CENTER
 62
               2
100
AcDbLine
 10
2.0000000000000142
 20
-23.300000000000004
 30
0.0
 11
5.3999999999999915
 21
-23.300000000000004
 31
0.0
  0
CIRCLE
  5
1C7
100
AcDbEntity
  8
0
  6
CONTINUOUS
 62
               7
100
AcDbCircle
 10
3.7000000000000028
 20
-23.300000000000004
 30
0.0
 40
1.3000000000000012
  0
CIRCLE
  5
1C8
100
AcDbEntity
  8
0
  6
CONTINUOUS
 62
               7
100
AcDbCircle
 10
3.7000000000000028
 20
-23.300000000000004
 30
0.0
 40
1.1500000000000001
  0
CIRCLE
  5
1C9
100
AcDbEntity
  8
0
  6
CONTINUOUS
 62
               7
100
AcDbCircle
 10
3.7000000000000028
 20
-23.300000000000004
 30
0.0
 40
1.1000000000000001
  0
CIRCLE
  5
1CA
100
AcDbEntity
  8
0
  6
CONTINUOUS
 62
               7
100
AcDbCircle
 10
3.7000000000000028
 20
-23.300000000000004
 30
0.0
 40
0.75
  0
LINE
  5
1CB
100
AcDbEntity
  8
0
  6
CONTINUOUS
 62
               7
100
AcDbLine
 10
-1.2999999999999972
 20
-13.899999999999984
 30
0.0
 11
8.7000000000000028
 21
-13.899999999999984
 31
0.0
  0
CIRCLE
  5
1CC
100
AcDbEntity
  8
0
  6
CONTINUOUS
 62
               7
100
AcDbCircle
 10
0.0
 20
-0.0000000000000071
 30
0.0
 40
1.0
  0
ARC
  5
1CD
100
AcDbEntity
  8
0
  6
CONTINUOUS
 62
               7
100
AcDbCircle
 10
0.0
 20
-0.0000000000000071
 30
0.0
 40
1.6499999999999999
100
AcDbArc
 50
269.99999999999937
 51
89.999999999999801
  0
LINE
  5
1CE
100
AcDbEntity
  8
0
  6
CONTINUOUS
 62
               7
100
AcDbLine
 10
0.0
 20
1.6499999999999915
 30
0.0
 11
-1.2999999999999972
 21
1.6499999999999915
 31
0.0
  0
LINE
  5
1CF
100
AcDbEntity
  8
0
  6
CONTINUOUS
 62
               7
100
AcDbLine
 10
0.0
 20
-1.6500000000000128
 30
0.0
 11
-1.2999999999999972
 21
-1.6500000000000128
 31
0.0
  0
LINE
  5
1D0
100
AcDbEntity
  8
0
  6
CENTER
 62
               2
100
AcDbLine
 10
7.5838949302954006
 20
-1.6000000000000014
 30
0.0
 11
3.9224912070590676
 21
-1.6000000000000014
 31
0.0
  0
LINE
  5
1D1
100
AcDbEntity
  8
0
  6
CENTER
 62
               2
100
AcDbLine
 10
9.5781662840152251
 20
-9.6000000000000014
 30
0.0
 11
5.2218337159847863
 21
-9.6000000000000014
 31
0.0
  0
LINE
  5
1D2
100
AcDbEntity
  8
0
  6
CENTER
 62
               2
100
AcDbLine
 10
7.4000000000000057
 20
-11.778166284015221
 30
0.0
 11
7.4000000000000057
 21
-7.421833715984782
 31
0.0
  0
CIRCLE
  5
1D3
100
AcDbEntity
  8
0
  6
CONTINUOUS
 62
               7
100
AcDbCircle
 10
7.4000000000000057
 20
-9.6000000000000014
 30
0.0
 40
1.0
  0
LINE
  5
1D4
100
AcDbEntity
  8
0
  6
CENTER
 62
               2
100
AcDbLine
 10
3.4959790593988203
 20
-8.0000000000000071
 30
0.0
 11
-0.2952400309144281
 21
-8.0000000000000071
 31
0.0
  0
CIRCLE
  5
1D5
100
AcDbEntity
  8
0
  6
CONTINUOUS
 62
               2
100
AcDbCircle
 10
1.7000000000000028
 20
-8.0000000000000071
 30
0.0
 40
1.5
  0
CIRCLE
  5
1D6
100
AcDbEntity
  8
0
  6
CONTINUOUS
 62
               7
100
AcDbCircle
 10
1.7000000000000028
 20
-8.0000000000000071
 30
0.0
 40
1.25
  0
LINE
  5
1D7
100
AcDbEntity
  8
0
  6
CENTER
 62
               2
100
AcDbLine
 10
1.7000000000000028
 20
-9.9088409314013646
 30
0.0
 11
1.7000000000000028
 21
-6.1176218410881305
 31
0.0
  0
ARC
  5
1D8
100
AcDbEntity
  8
0
  6
CONTINUOUS
 62
               7
100
AcDbCircle
 10
7.4000000000000057
 20
-9.6000000000000014
 30
0.0
 40
1.6499999999999999
100
AcDbArc
 50
89.999999999999815
 51
269.99999999999937
  0
LINE
  5
1D9
100
AcDbEntity
  8
0
  6
CONTINUOUS
 62
               7
100
AcDbLine
 10
7.4000000000000057
 20
-7.9500000000000099
 30
0.0
 11
8.7000000000000028
 21
-7.9500000000000099
 31
0.0
  0
LINE
  5
1DA
100
AcDbEntity
  8
0
  6
CONTINUOUS
 62
               7
100
AcDbLine
 10
7.4000000000000057
 20
-11.250000000000007
 30
0.0
 11
8.7000000000000028
 21
-11.250000000000007
 31
0.0
  0
LINE
  5
1DB
100
AcDbEntity
  8
0
  6
CENTER
 62
               2
100
AcDbLine
 10
0.0
 20
-2.1781662840152194
 30
0.0
 11
0.0
 21
2.1781662840152194
 31
0.0
  0
LINE
  5
1DC
100
AcDbEntity
  8
0
  6
CENTER
 62
               2
100
AcDbLine
 10
5.7000000000000028
 20
-3.8060236083780339
 30
0.0
 11
5.7000000000000028
 21
0.5170115669600506
 31
0.0
  0
CIRCLE
  5
1DD
100
AcDbEntity
  8
0
  6
CONTINUOUS
 62
               7
100
AcDbCircle
 10
5.7000000000000028
 20
-1.6000000000000014
 30
0.0
 40
1.25
  0
CIRCLE
  5
1DE
100
AcDbEntity
  8
0
  6
CONTINUOUS
 62
               2
100
AcDbCircle
 10
5.7000000000000028
 20
-1.6000000000000014
 30
0.0
 40
1.5
  0
LINE
  5
1DF
100
AcDbEntity
  8
0
  6
CONTINUOUS
 62
               7
100
AcDbLine
 10
8.7000000000000028
 20
-13.899999999999999
 30
0.0
 11
8.7000000000000028
 21
4.2999999999999972
 31
0.0
  0
LINE
  5
1E0
100
AcDbEntity
  8
0
  6
CONTINUOUS
 62
               7
100
AcDbLine
 10
-1.2999999999999972
 20
-13.899999999999999
 30
0.0
 11
-1.2999999999999972
 21
4.2999999999999972
 31
0.0
  0
LINE
  5
1E1
100
AcDbEntity
  8
0
  6
CONTINUOUS
 62
               7
100
AcDbLine
 10
8.7000000000000028
 20
4.2999999999999972
 30
0.0
 11
-1.2999999999999972
 21
4.2999999999999972
 31
0.0
  0
CIRCLE
  5
1E2
100
AcDbEntity
  8
0
  6
CONTINUOUS
 62
               7
100
AcDbCircle
 10
3.7000000000000028
 20
13.700000000000024
 30
0.0
 40
0.75
  0
CIRCLE
  5
1E3
100
AcDbEntity
  8
0
  6
CONTINUOUS
 62
               7
100
AcDbCircle
 10
3.7000000000000028
 20
13.700000000000024
 30
0.0
 40
1.1000000000000001
  0
CIRCLE
  5
1E4
100
AcDbEntity
  8
0
  6
CONTINUOUS
 62
               7
100
AcDbCircle
 10
3.7000000000000028
 20
13.700000000000024
 30
0.0
 40
1.1500000000000001
  0
CIRCLE
  5
1E5
100
AcDbEntity
  8
0
  6
CONTINUOUS
 62
               7
100
AcDbCircle
 10
3.7000000000000028
 20
13.700000000000024
 30
0.0
 40
1.3000000000000012
  0
LINE
  5
1E6
100
AcDbEntity
  8
0
  6
CENTER
 62
               2
100
AcDbLine
 10
5.3999999999999915
 20
13.700000000000024
 30
0.0
 11
2.0000000000000142
 21
13.700000000000024
 31
0.0
  0
ARC
  5
1E7
100
AcDbEntity
  8
0
  6
CONTINUOUS
 62
               7
100
AcDbCircle
 10
3.7000000000000028
 20
12.000000000000007
 30
0.0
 40
2.0
100
AcDbArc
 50
179.99999999999963
 51
0.0
  0
LINE
  5
1E8
100
AcDbEntity
  8
0
  6
CONTINUOUS
 62
               7
100
AcDbLine
 10
5.7000000000000028
 20
12.000000000000007
 30
0.0
 11
5.7000000000000028
 21
16.000000000000007
 31
0.0
  0
LINE
  5
1E9
100
AcDbEntity
  8
0
  6
CONTINUOUS
 62
               7
100
AcDbLine
 10
1.7000000000000028
 20
12.000000000000007
 30
0.0
 11
1.7000000000000028
 21
16.000000000000007
 31
0.0
  0
LINE
  5
1EA
100
AcDbEntity
  8
0
  6
CONTINUOUS
 62
               7
100
AcDbLine
 10
8.7000000000000028
 20
4.2999999999999972
 30
0.0
 11
8.7000000000000028
 21
16.000000000000007
 31
0.0
  0
LINE
  5
1EB
100
AcDbEntity
  8
0
  6
CONTINUOUS
 62
               7
100
AcDbLine
 10
-1.2999999999999972
 20
4.2999999999999972
 30
0.0
 11
-1.2999999999999972
 21
16.000000000000007
 31
0.0
  0
LINE
  5
1EC
100
AcDbEntity
  8
0
  6
CENTER
 62
               2
100
AcDbLine
 10
5.0300000000000011
 20
13.699001430615176
 30
0.0
 11
2.3599999999999994
 21
13.699001430615176
 31
0.0
  0
LINE
  5
1ED
100
AcDbEntity
  8
0
  6
CONTINUOUS
 62
               7
100
AcDbLine
 10
6.7999999999999972
 20
16.000000000000007
 30
0.0
 11
6.7999999999999972
 21
12.000000000000007
 31
0.0
  0
LINE
  5
1EE
100
AcDbEntity
  8
0
  6
CONTINUOUS
 62
               7
100
AcDbLine
 10
0.6000000000000085
 20
16.000000000000007
 30
0.0
 11
0.6000000000000085
 21
12.000000000000007
 31
0.0
  0
ARC
  5
1EF
100
AcDbEntity
  8
0
  6
CONTINUOUS
 62
               7
100
AcDbCircle
 10
3.7000000000000028
 20
12.000000000000007
 30
0.0
 40
3.0999999999999943
100
AcDbArc
 50
179.99999999999963
 51
0.0
  0
ARC
  5
1F0
100
AcDbEntity
  8
0
  6
CONTINUOUS
 62
               7
100
AcDbCircle
 10
3.7000000000000028
 20
-21.599999999999987
 30
0.0
 40
3.0999999999999801
100
AcDbArc
 50
0.0
 51
179.99999999999963
  0
LINE
  5
1F1
100
AcDbEntity
  8
0
  6
CONTINUOUS
 62
               7
100
AcDbLine
 10
0.5999999999999943
 20
-21.599999999999987
 30
0.0
 11
0.5999999999999943
 21
-25.599999999999987
 31
0.0
  0
LINE
  5
1F2
100
AcDbEntity
  8
0
  6
CONTINUOUS
 62
               7
100
AcDbLine
 10
6.7999999999999829
 20
-21.599999999999987
 30
0.0
 11
6.7999999999999829
 21
-25.599999999999987
 31
0.0
  0
LINE
  5
1F3
100
AcDbEntity
  8
0
  6
CENTER
 62
               2
100
AcDbLine
 10
2.1781662840152194
 20
0.0
 30
0.0
 11
-2.1781662840152194
 21
0.0
 31
0.0
  0
LINE
  5
1F4
100
AcDbEntity
  8
0
  6
CONTINUOUS
 62
               4
100
AcDbLine
 10
4.6999816894531392
 20
54.492929270933367
 30
0.0
 11
5.1999816894531392
 21
54.492929270933367
 31
0.0
  0
LINE
  5
1F5
100
AcDbEntity
  8
0
  6
CONTINUOUS
 62
               4
100
AcDbLine
 10
2.1999816894531392
 20
54.492929270933367
 30
0.0
 11
2.6999816894531392
 21
54.492929270933367
 31
0.0
  0
ARC
  5
1F6
100
AcDbEntity
  8
0
  6
CONTINUOUS
 62
               4
100
AcDbCircle
 10
8.2002968478642089
 20
16.499703152135801
 30
0.0
 40
0.4997032403068001
100
AcDbArc
 50
269.96596353714654
 51
0.0340364628527164
  0
LINE
  5
1F7
100
AcDbEntity
  8
0
  6
CONTINUOUS
 62
               4
100
AcDbLine
 10
-1.2999999999999972
 20
16.000000000000007
 30
0.0
 11
8.7000000000000028
 21
16.000000000000007
 31
0.0
  0
LINE
  5
1F8
100
AcDbEntity
  8
0
  6
CONTINUOUS
 62
               4
100
AcDbLine
 10
8.7000000000000028
 20
38.500000000000007
 30
0.0
 11
8.7000000000000028
 21
16.000000000000007
 31
0.0
  0
LINE
  5
1F9
100
AcDbEntity
  8
0
  6
CONTINUOUS
 62
               4
100
AcDbLine
 10
-1.2999999709108323
 20
38.500000004269374
 30
0.0
 11
-0.0500183105468608
 21
38.500000004269374
 31
0.0
  0
ARC
  5
1FA
100
AcDbEntity
  8
0
  6
CONTINUOUS
 62
               4
100
AcDbCircle
 10
7.9040951466581788
 20
37.900095150927548
 30
0.0
 40
0.5999048608870732
100
AcDbArc
 50
359.99091272245295
 51
90.009087277546172
  0
ARC
  5
1FB
100
AcDbEntity
  8
0
  6
CONTINUOUS
 62
               4
100
AcDbCircle
 10
-0.7999999999999972
 20
37.900000004269351
 30
0.0
 40
0.5
100
AcDbArc
 50
89.999999999999815
 51
179.99999999999963
  0
LINE
  5
1FC
100
AcDbEntity
  8
0
  6
CONTINUOUS
 62
               4
100
AcDbLine
 10
-0.0500183105468608
 20
38.400000004269351
 30
0.0
 11
-0.7999999999999972
 21
38.400000004269351
 31
0.0
  0
LINE
  5
1FD
100
AcDbEntity
  8
0
  6
CONTINUOUS
 62
               4
100
AcDbLine
 10
8.7000000000000028
 20
36.900000004269351
 30
0.0
 11
7.4499816894531392
 21
36.900000004269351
 31
0.0
  0
LINE
  5
1FE
100
AcDbEntity
  8
0
  6
CONTINUOUS
 62
               4
100
AcDbLine
 10
8.7000000000000028
 20
38.500000004269374
 30
0.0
 11
7.4499816894531392
 21
38.500000004269374
 31
0.0
  0
LINE
  5
1FF
100
AcDbEntity
  8
0
  6
CONTINUOUS
 62
               4
100
AcDbLine
 10
8.7000000000000028
 20
37.900000004269351
 30
0.0
 11
7.4499816894531392
 21
37.900000004269351
 31
0.0
  0
LINE
  5
200
100
AcDbEntity
  8
0
  6
CONTINUOUS
 62
               4
100
AcDbLine
 10
-1.2999999999999972
 20
38.500000004269374
 30
0.0
 11
-1.2999999999999972
 21
16.000000000000007
 31
0.0
  0
LINE
  5
201
100
AcDbEntity
  8
0
  6
CONTINUOUS
 62
               4
100
AcDbLine
 10
-1.3000183105468608
 20
35.499999999999893
 30
0.0
 11
-0.8000183105468608
 21
35.499999999999893
 31
0.0
  0
LINE
  5
202
100
AcDbEntity
  8
0
  6
CONTINUOUS
 62
               4
100
AcDbLine
 10
-0.8000183105468608
 20
35.499999999999893
 30
0.0
 11
0.9499816894531392
 21
35.499999999999893
 31
0.0
  0
LINE
  5
203
100
AcDbEntity
  8
0
  6
CONTINUOUS
 62
               4
100
AcDbLine
 10
8.469981689453121
 20
34.999999999999893
 30
0.0
 11
8.469981689453121
 21
18.691919190653842
 31
0.0
  0
LINE
  5
204
100
AcDbEntity
  8
0
  6
CONTINUOUS
 62
               4
100
AcDbLine
 10
-1.0700183105468994
 20
34.999999999999893
 30
0.0
 11
-1.0700183105468994
 21
18.69191919067314
 31
0.0
  0
LINE
  5
205
100
AcDbEntity
  8
0
  6
CONTINUOUS
 62
               4
100
AcDbLine
 10
-0.5700183105468994
 20
18.191919190669417
 30
0.0
 11
7.969981689453121
 21
18.191919190669417
 31
0.0
  0
LINE
  5
206
100
AcDbEntity
  8
0
  6
CONTINUOUS
 62
               4
100
AcDbLine
 10
8.1999816894531392
 20
35.499999999999893
 30
0.0
 11
8.6999816894531392
 21
35.499999999999893
 31
0.0
  0
LINE
  5
207
100
AcDbEntity
  8
0
  6
CONTINUOUS
 62
               4
100
AcDbLine
 10
0.9499816894531392
 20
27.499999999999893
 30
0.0
 11
6.4499816894531392
 21
27.499999999999893
 31
0.0
  0
LINE
  5
208
100
AcDbEntity
  8
0
  6
CONTINUOUS
 62
               4
100
AcDbLine
 10
6.4499816894531392
 20
35.499999999999893
 30
0.0
 11
8.1999816894531392
 21
35.499999999999893
 31
0.0
  0
LINE
  5
209
100
AcDbEntity
  8
0
  6
CONTINUOUS
 62
               4
100
AcDbLine
 10
0.9499816894531392
 20
43.499999999999893
 30
0.0
 11
0.9499816894531392
 21
27.499999999999893
 31
0.0
  0
LINE
  5
20A
100
AcDbEntity
  8
0
  6
CONTINUOUS
 62
               4
100
AcDbLine
 10
-0.0500183105468608
 20
43.499999999999893
 30
0.0
 11
-0.0500183105468608
 21
35.499999999999893
 31
0.0
  0
LINE
  5
20B
100
AcDbEntity
  8
0
  6
CONTINUOUS
 62
               4
100
AcDbLine
 10
0.9499816894531392
 20
41.999999999999893
 30
0.0
 11
6.4499816894531392
 21
41.999999999999893
 31
0.0
  0
LINE
  5
20C
100
AcDbEntity
  8
0
  6
CONTINUOUS
 62
               4
100
AcDbLine
 10
6.4499816894531392
 20
43.499999999999893
 30
0.0
 11
6.4499816894531392
 21
27.499999999999893
 31
0.0
  0
LINE
  5
20D
100
AcDbEntity
  8
0
  6
CONTINUOUS
 62
               4
100
AcDbLine
 10
7.4499816894531392
 20
43.499999999999893
 30
0.0
 11
7.4499816894531392
 21
35.499999999999893
 31
0.0
  0
LINE
  5
20E
100
AcDbEntity
  8
0
  6
CONTINUOUS
 62
               4
100
AcDbLine
 10
-0.0500183105468608
 20
43.499999999999893
 30
0.0
 11
7.4499816894531392
 21
43.499999999999893
 31
0.0
  0
ARC
  5
20F
100
AcDbEntity
  8
0
  6
CONTINUOUS
 62
               4
100
AcDbCircle
 10
-0.5688300266416348
 20
18.693107474574681
 30
0.0
 40
0.5011896925741138
100
AcDbArc
 50
180.13584420715239
 51
269.86415579284636
  0
ARC
  5
210
100
AcDbEntity
  8
0
  6
CONTINUOUS
 62
               4
100
AcDbCircle
 10
7.9687781833413993
 20
18.693122696781167
 30
0.0
 40
0.5012049510586274
100
AcDbArc
 50
270.13758021931233
 51
359.86241978068648
  0
ARC
  5
211
100
AcDbEntity
  8
0
  6
CONTINUOUS
 62
               4
100
AcDbCircle
 10
7.9699792479738818
 20
34.999997558520597
 30
0.0
 40
0.500002441485227
100
AcDbArc
 50
0.0002797715494944
 51
89.999720228450514
  0
ARC
  5
212
100
AcDbEntity
  8
0
  6
CONTINUOUS
 62
               4
100
AcDbCircle
 10
-0.5700311278846328
 20
35.000012817337627
 30
0.0
 40
0.4999871828265524
100
AcDbArc
 50
89.998531203634272
 51
180.00146879636483
  0
ARC
  5
213
100
AcDbEntity
  8
0
  6
CONTINUOUS
 62
               4
100
AcDbCircle
 10
-0.8000289916782748
 20
35.000010681131251
 30
0.0
 40
0.4999893189827007
100
AcDbArc
 50
89.998776006354774
 51
180.00122399364432
  0
ARC
  5
214
100
AcDbEntity
  8
0
  6
CONTINUOUS
 62
               4
100
AcDbCircle
 10
8.1999771117023244
 20
34.999995422249079
 30
0.0
 40
0.5000045777717621
100
AcDbArc
 50
0.0005245667992071
 51
89.9994754332008
  0
ARC
  5
215
100
AcDbEntity
  8
0
  6
CONTINUOUS
 62
               4
100
AcDbCircle
 10
-0.8000228880695062
 20
16.499995422477248
 30
0.0
 40
0.4999954224983215
100
AcDbArc
 50
179.99947544974256
 51
270.00052455025656
  0
ARC
  5
216
100
AcDbEntity
  8
0
  6
CONTINUOUS
 62
               4
100
AcDbCircle
 10
8.1999710082798316
 20
16.500010681173201
 30
0.0
 40
0.5000106812873828
100
AcDbArc
 50
270.00122394615329
 51
359.9987760538454
  0
LINE
  5
217
100
AcDbEntity
  8
0
  6
CONTINUOUS
 62
               4
100
AcDbLine
 10
5.5999816894531165
 20
50.992929272933345
 30
0.0
 11
5.5999816894531165
 21
47.499999999999893
 31
0.0
  0
LINE
  5
218
100
AcDbEntity
  8
0
  6
CONTINUOUS
 62
               4
100
AcDbLine
 10
4.2999816894531051
 20
50.992929272933345
 30
0.0
 11
4.2999816894531051
 21
47.849999999999916
 31
0.0
  0
LINE
  5
219
100
AcDbEntity
  8
0
  6
CONTINUOUS
 62
               4
100
AcDbLine
 10
2.6999816894531392
 20
54.492929270933367
 30
0.0
 11
2.6999816894531392
 21
50.992929272933345
 31
0.0
  0
LINE
  5
21A
100
AcDbEntity
  8
0
  6
CONTINUOUS
 62
               4
100
AcDbLine
 10
2.1999816894531392
 20
54.492929270933367
 30
0.0
 11
2.1999816894531392
 21
50.992929272933345
 31
0.0
  0
LINE
  5
21B
100
AcDbEntity
  8
0
  6
CONTINUOUS
 62
               4
100
AcDbLine
 10
5.5999816894531165
 20
46.469999999999864
 30
0.0
 11
5.5999816894531165
 21
43.499999999999893
 31
0.0
  0
LINE
  5
21C
100
AcDbEntity
  8
0
  6
CONTINUOUS
 62
               4
100
AcDbLine
 10
4.2999816894531051
 20
46.819999999999887
 30
0.0
 11
4.2999816894531051
 21
43.499999999999893
 31
0.0
  0
LINE
  5
21D
100
AcDbEntity
  8
0
  6
CONTINUOUS
 62
               4
100
AcDbLine
 10
1.7999816894531051
 20
47.489999999999903
 30
0.0
 11
1.7999816894531051
 21
43.499999999999893
 31
0.0
  0
LINE
  5
21E
100
AcDbEntity
  8
0
  6
CONTINUOUS
 62
               4
100
AcDbLine
 10
3.0999816894531165
 20
50.992929272933345
 30
0.0
 11
3.0999816894531165
 21
48.169999999999909
 31
0.0
  0
LINE
  5
21F
100
AcDbEntity
  8
0
  6
CONTINUOUS
 62
               4
100
AcDbLine
 10
1.7999816894531051
 20
50.992929272933345
 30
0.0
 11
1.7999816894531051
 21
48.519999999999875
 31
0.0
  0
LINE
  5
220
100
AcDbEntity
  8
0
  6
CONTINUOUS
 62
               4
100
AcDbLine
 10
5.1999816894531392
 20
54.492929270933367
 30
0.0
 11
5.1999816894531392
 21
50.992929272933345
 31
0.0
  0
LINE
  5
221
100
AcDbEntity
  8
0
  6
CONTINUOUS
 62
               4
100
AcDbLine
 10
4.6999816894531392
 20
54.492929270933367
 30
0.0
 11
4.6999816894531392
 21
50.992929272933345
 31
0.0
  0
LINE
  5
222
100
AcDbEntity
  8
0
  6
CONTINUOUS
 62
               4
100
AcDbLine
 10
3.0999816894531165
 20
47.13999999999988
 30
0.0
 11
3.0999816894531165
 21
43.499999999999893
 31
0.0
  0
LINE
  5
223
100
AcDbEntity
  8
0
  6
CONTINUOUS
 62
               4
100
AcDbLine
 10
1.7999816894531051
 20
50.992929272933345
 30
0.0
 11
3.0999816894531165
 21
50.992929272933345
 31
0.0
  0
LINE
  5
224
100
AcDbEntity
  8
0
  6
CONTINUOUS
 62
             200
100
AcDbLine
 10
-0.0500183105468608
 20
47.979999999999912
 30
0.0
 11
7.4499816894531392
 21
45.969999999999864
 31
0.0
  0
LINE
  5
225
100
AcDbEntity
  8
0
  6
CONTINUOUS
 62
             200
100
AcDbLine
 10
-0.0500183105468608
 20
49.019999999999875
 30
0.0
 11
7.4499816894531392
 21
47.009999999999884
 31
0.0
  0
LINE
  5
226
100
AcDbEntity
  8
0
  6
CONTINUOUS
 62
               4
100
AcDbLine
 10
4.2999816894531051
 20
50.992929272933345
 30
0.0
 11
5.5999816894531165
 21
50.992929272933345
 31
0.0
  0
LINE
  5
227
100
AcDbEntity
  8
0
  6
PHANTOM
 62
             200
100
AcDbLine
 10
5.1999816894531392
 20
23.499999999999893
 30
0.0
 11
5.1999816894531392
 21
21.499999999999893
 31
0.0
  0
LINE
  5
228
100
AcDbEntity
  8
0
  6
PHANTOM
 62
             200
100
AcDbLine
 10
2.1999816894531392
 20
23.499999999999893
 30
0.0
 11
2.1999816894531392
 21
21.499999999999893
 31
0.0
  0
LINE
  5
229
100
AcDbEntity
  8
0
  6
PHANTOM
 62
             200
100
AcDbLine
 10
2.1999816894531392
 20
21.499999999999893
 30
0.0
 11
5.1999816894531392
 21
21.499999999999893
 31
0.0
  0
LINE
  5
22A
100
AcDbEntity
  8
0
  6
PHANTOM
 62
             200
100
AcDbLine
 10
2.1999816894531392
 20
23.499999999999893
 30
0.0
 11
5.1999816894531392
 21
23.499999999999893
 31
0.0
  0
LINE
  5
22B
100
AcDbEntity
  8
0
  6
CONTINUOUS
 62
               4
100
AcDbLine
 10
2.7000183105468523
 20
-64.092929270933354
 30
0.0
 11
2.2000183105468523
 21
-64.092929270933354
 31
0.0
  0
LINE
  5
22C
100
AcDbEntity
  8
0
  6
CONTINUOUS
 62
               4
100
AcDbLine
 10
5.2000183105468523
 20
-64.092929270933354
 30
0.0
 11
4.7000183105468523
 21
-64.092929270933354
 31
0.0
  0
ARC
  5
22D
100
AcDbEntity
  8
0
  6
CONTINUOUS
 62
               4
100
AcDbCircle
 10
-0.8002968478642174
 20
-26.099703152135795
 30
0.0
 40
0.4997032403068001
100
AcDbArc
 50
89.965963537146934
 51
180.03403646285233
  0
LINE
  5
22E
100
AcDbEntity
  8
0
  6
CONTINUOUS
 62
               4
100
AcDbLine
 10
8.6999999999999886
 20
-25.600000000000001
 30
0.0
 11
-1.3000000000000114
 21
-25.600000000000001
 31
0.0
  0
LINE
  5
22F
100
AcDbEntity
  8
0
  6
CONTINUOUS
 62
               4
100
AcDbLine
 10
-1.3000000000000114
 20
-48.100000000000001
 30
0.0
 11
-1.3000000000000114
 21
-25.600000000000001
 31
0.0
  0
LINE
  5
230
100
AcDbEntity
  8
0
  6
CONTINUOUS
 62
               4
100
AcDbLine
 10
8.6999999709108238
 20
-48.100000004269369
 30
0.0
 11
7.4500183105468523
 21
-48.100000004269369
 31
0.0
  0
ARC
  5
231
100
AcDbEntity
  8
0
  6
CONTINUOUS
 62
               4
100
AcDbCircle
 10
-0.5040951466581873
 20
-47.500095150927542
 30
0.0
 40
0.5999048608870732
100
AcDbArc
 50
179.99091272245337
 51
270.00908727754575
  0
ARC
  5
232
100
AcDbEntity
  8
0
  6
CONTINUOUS
 62
               4
100
AcDbCircle
 10
8.1999999999999886
 20
-47.500000004269346
 30
0.0
 40
0.5
100
AcDbArc
 50
269.99999999999937
 51
0.0
  0
LINE
  5
233
100
AcDbEntity
  8
0
  6
CONTINUOUS
 62
               4
100
AcDbLine
 10
7.4500183105468523
 20
-48.000000004269346
 30
0.0
 11
8.1999999999999886
 21
-48.000000004269346
 31
0.0
  0
LINE
  5
234
100
AcDbEntity
  8
0
  6
CONTINUOUS
 62
               4
100
AcDbLine
 10
-1.3000000000000114
 20
-46.500000004269346
 30
0.0
 11
-0.0499816894531477
 21
-46.500000004269346
 31
0.0
  0
LINE
  5
235
100
AcDbEntity
  8
0
  6
CONTINUOUS
 62
               4
100
AcDbLine
 10
-1.3000000000000114
 20
-48.100000004269369
 30
0.0
 11
-0.0499816894531477
 21
-48.100000004269369
 31
0.0
  0
LINE
  5
236
100
AcDbEntity
  8
0
  6
CONTINUOUS
 62
               4
100
AcDbLine
 10
-1.3000000000000114
 20
-47.500000004269346
 30
0.0
 11
-0.0499816894531477
 21
-47.500000004269346
 31
0.0
  0
LINE
  5
237
100
AcDbEntity
  8
0
  6
CONTINUOUS
 62
               4
100
AcDbLine
 10
8.6999999999999886
 20
-48.100000004269369
 30
0.0
 11
8.6999999999999886
 21
-25.600000000000001
 31
0.0
  0
LINE
  5
238
100
AcDbEntity
  8
0
  6
CONTINUOUS
 62
               4
100
AcDbLine
 10
8.7000183105468523
 20
-45.099999999999888
 30
0.0
 11
8.2000183105468523
 21
-45.099999999999888
 31
0.0
  0
LINE
  5
239
100
AcDbEntity
  8
0
  6
CONTINUOUS
 62
               4
100
AcDbLine
 10
8.2000183105468523
 20
-45.099999999999888
 30
0.0
 11
6.4500183105468523
 21
-45.099999999999888
 31
0.0
  0
LINE
  5
23A
100
AcDbEntity
  8
0
  6
CONTINUOUS
 62
               4
100
AcDbLine
 10
-1.0699816894531295
 20
-44.599999999999888
 30
0.0
 11
-1.0699816894531295
 21
-28.291919190653836
 31
0.0
  0
LINE
  5
23B
100
AcDbEntity
  8
0
  6
CONTINUOUS
 62
               4
100
AcDbLine
 10
8.4700183105468909
 20
-44.599999999999888
 30
0.0
 11
8.4700183105468909
 21
-28.291919190673134
 31
0.0
  0
LINE
  5
23C
100
AcDbEntity
  8
0
  6
CONTINUOUS
 62
               4
100
AcDbLine
 10
7.9700183105468909
 20
-27.791919190669411
 30
0.0
 11
-0.5699816894531296
 21
-27.791919190669411
 31
0.0
  0
LINE
  5
23D
100
AcDbEntity
  8
0
  6
CONTINUOUS
 62
               4
100
AcDbLine
 10
-0.7999816894531477
 20
-45.099999999999888
 30
0.0
 11
-1.2999816894531477
 21
-45.099999999999888
 31
0.0
  0
LINE
  5
23E
100
AcDbEntity
  8
0
  6
CONTINUOUS
 62
               4
100
AcDbLine
 10
6.4500183105468523
 20
-37.099999999999888
 30
0.0
 11
0.9500183105468523
 21
-37.099999999999888
 31
0.0
  0
LINE
  5
23F
100
AcDbEntity
  8
0
  6
CONTINUOUS
 62
               4
100
AcDbLine
 10
0.9500183105468523
 20
-45.099999999999888
 30
0.0
 11
-0.7999816894531477
 21
-45.099999999999888
 31
0.0
  0
LINE
  5
240
100
AcDbEntity
  8
0
  6
CONTINUOUS
 62
               4
100
AcDbLine
 10
6.4500183105468523
 20
-53.099999999999888
 30
0.0
 11
6.4500183105468523
 21
-37.099999999999888
 31
0.0
  0
LINE
  5
241
100
AcDbEntity
  8
0
  6
CONTINUOUS
 62
               4
100
AcDbLine
 10
7.4500183105468523
 20
-53.099999999999888
 30
0.0
 11
7.4500183105468523
 21
-45.099999999999888
 31
0.0
  0
LINE
  5
242
100
AcDbEntity
  8
0
  6
CONTINUOUS
 62
               4
100
AcDbLine
 10
6.4500183105468523
 20
-51.599999999999888
 30
0.0
 11
0.9500183105468523
 21
-51.599999999999888
 31
0.0
  0
LINE
  5
243
100
AcDbEntity
  8
0
  6
CONTINUOUS
 62
               4
100
AcDbLine
 10
0.9500183105468523
 20
-53.099999999999888
 30
0.0
 11
0.9500183105468523
 21
-37.099999999999888
 31
0.0
  0
LINE
  5
244
100
AcDbEntity
  8
0
  6
CONTINUOUS
 62
               4
100
AcDbLine
 10
-0.0499816894531477
 20
-53.099999999999888
 30
0.0
 11
-0.0499816894531477
 21
-45.099999999999888
 31
0.0
  0
LINE
  5
245
100
AcDbEntity
  8
0
  6
CONTINUOUS
 62
               4
100
AcDbLine
 10
7.4500183105468523
 20
-53.099999999999888
 30
0.0
 11
-0.0499816894531477
 21
-53.099999999999888
 31
0.0
  0
ARC
  5
246
100
AcDbEntity
  8
0
  6
CONTINUOUS
 62
               4
100
AcDbCircle
 10
7.9688300266416263
 20
-28.293107474574676
 30
0.0
 40
0.5011896925741138
100
AcDbArc
 50
0.1358442071527786
 51
89.864155792846745
  0
ARC
  5
247
100
AcDbEntity
  8
0
  6
CONTINUOUS
 62
               4
100
AcDbCircle
 10
-0.5687781833414078
 20
-28.293122696781161
 30
0.0
 40
0.5012049510586274
100
AcDbArc
 50
90.137580219312724
 51
179.86241978068688
  0
ARC
  5
248
100
AcDbEntity
  8
0
  6
CONTINUOUS
 62
               4
100
AcDbCircle
 10
-0.5699792479738903
 20
-44.599997558520592
 30
0.0
 40
0.500002441485227
100
AcDbArc
 50
180.00027977154909
 51
269.99972022845009
  0
ARC
  5
249
100
AcDbEntity
  8
0
  6
CONTINUOUS
 62
               4
100
AcDbCircle
 10
7.9700311278846243
 20
-44.600012817337621
 30
0.0
 40
0.4999871828265524
100
AcDbArc
 50
269.99853120363389
 51
0.0014687963652481
  0
ARC
  5
24A
100
AcDbEntity
  8
0
  6
CONTINUOUS
 62
               4
100
AcDbCircle
 10
8.2000289916782663
 20
-44.600010681131245
 30
0.0
 40
0.4999893189827007
100
AcDbArc
 50
269.99877600635432
 51
0.0012239936446972
  0
ARC
  5
24B
100
AcDbEntity
  8
0
  6
CONTINUOUS
 62
               4
100
AcDbCircle
 10
-0.7999771117023329
 20
-44.599995422249073
 30
0.0
 40
0.5000045777717621
100
AcDbArc
 50
180.00052456679882
 51
269.99947543320042
  0
ARC
  5
24C
100
AcDbEntity
  8
0
  6
CONTINUOUS
 62
               4
100
AcDbCircle
 10
8.2000228880694976
 20
-26.099995422477242
 30
0.0
 40
0.4999954224983215
100
AcDbArc
 50
359.99947544974214
 51
90.000524550256955
  0
ARC
  5
24D
100
AcDbEntity
  8
0
  6
CONTINUOUS
 62
               4
100
AcDbCircle
 10
-0.7999710082798401
 20
-26.100010681173195
 30
0.0
 40
0.5000106812873828
100
AcDbArc
 50
90.001223946153672
 51
179.99877605384583
  0
LINE
  5
24E
100
AcDbEntity
  8
0
  6
CONTINUOUS
 62
               4
100
AcDbLine
 10
1.800018310546875
 20
-60.59292927293334
 30
0.0
 11
1.800018310546875
 21
-57.099999999999888
 31
0.0
  0
LINE
  5
24F
100
AcDbEntity
  8
0
  6
CONTINUOUS
 62
               4
100
AcDbLine
 10
3.1000183105468864
 20
-60.59292927293334
 30
0.0
 11
3.1000183105468864
 21
-57.44999999999991
 31
0.0
  0
LINE
  5
250
100
AcDbEntity
  8
0
  6
CONTINUOUS
 62
               4
100
AcDbLine
 10
4.7000183105468523
 20
-64.092929270933354
 30
0.0
 11
4.7000183105468523
 21
-60.59292927293334
 31
0.0
  0
LINE
  5
251
100
AcDbEntity
  8
0
  6
CONTINUOUS
 62
               4
100
AcDbLine
 10
5.2000183105468523
 20
-64.092929270933354
 30
0.0
 11
5.2000183105468523
 21
-60.59292927293334
 31
0.0
  0
LINE
  5
252
100
AcDbEntity
  8
0
  6
CONTINUOUS
 62
               4
100
AcDbLine
 10
1.800018310546875
 20
-56.069999999999858
 30
0.0
 11
1.800018310546875
 21
-53.099999999999888
 31
0.0
  0
LINE
  5
253
100
AcDbEntity
  8
0
  6
CONTINUOUS
 62
               4
100
AcDbLine
 10
3.1000183105468864
 20
-56.419999999999881
 30
0.0
 11
3.1000183105468864
 21
-53.099999999999888
 31
0.0
  0
LINE
  5
254
100
AcDbEntity
  8
0
  6
CONTINUOUS
 62
               4
100
AcDbLine
 10
5.6000183105468864
 20
-57.089999999999897
 30
0.0
 11
5.6000183105468864
 21
-53.099999999999888
 31
0.0
  0
LINE
  5
255
100
AcDbEntity
  8
0
  6
CONTINUOUS
 62
               4
100
AcDbLine
 10
4.300018310546875
 20
-60.59292927293334
 30
0.0
 11
4.300018310546875
 21
-57.769999999999904
 31
0.0
  0
LINE
  5
256
100
AcDbEntity
  8
0
  6
CONTINUOUS
 62
               4
100
AcDbLine
 10
5.6000183105468864
 20
-60.59292927293334
 30
0.0
 11
5.6000183105468864
 21
-58.11999999999987
 31
0.0
  0
LINE
  5
257
100
AcDbEntity
  8
0
  6
CONTINUOUS
 62
               4
100
AcDbLine
 10
2.2000183105468523
 20
-64.092929270933354
 30
0.0
 11
2.2000183105468523
 21
-60.59292927293334
 31
0.0
  0
LINE
  5
258
100
AcDbEntity
  8
0
  6
CONTINUOUS
 62
               4
100
AcDbLine
 10
2.7000183105468523
 20
-64.092929270933354
 30
0.0
 11
2.7000183105468523
 21
-60.59292927293334
 31
0.0
  0
LINE
  5
259
100
AcDbEntity
  8
0
  6
CONTINUOUS
 62
               4
100
AcDbLine
 10
4.300018310546875
 20
-56.739999999999874
 30
0.0
 11
4.300018310546875
 21
-53.099999999999888
 31
0.0
  0
LINE
  5
25A
100
AcDbEntity
  8
0
  6
CONTINUOUS
 62
               4
100
AcDbLine
 10
5.6000183105468864
 20
-60.59292927293334
 30
0.0
 11
4.300018310546875
 21
-60.59292927293334
 31
0.0
  0
LINE
  5
25B
100
AcDbEntity
  8
0
  6
CONTINUOUS
 62
             200
100
AcDbLine
 10
7.4500183105468523
 20
-57.579999999999906
 30
0.0
 11
-0.0499816894531477
 21
-55.569999999999858
 31
0.0
  0
LINE
  5
25C
100
AcDbEntity
  8
0
  6
CONTINUOUS
 62
             200
100
AcDbLine
 10
7.4500183105468523
 20
-58.61999999999987
 30
0.0
 11
-0.0499816894531477
 21
-56.609999999999879
 31
0.0
  0
LINE
  5
25D
100
AcDbEntity
  8
0
  6
CONTINUOUS
 62
               4
100
AcDbLine
 10
3.1000183105468864
 20
-60.59292927293334
 30
0.0
 11
1.800018310546875
 21
-60.59292927293334
 31
0.0
  0
LINE
  5
25E
100
AcDbEntity
  8
0
  6
PHANTOM
 62
             200
100
AcDbLine
 10
2.2000183105468523
 20
-33.099999999999888
 30
0.0
 11
2.2000183105468523
 21
-31.099999999999888
 31
0.0
  0
LINE
  5
25F
100
AcDbEntity
  8
0
  6
PHANTOM
 62
             200
100
AcDbLine
 10
5.2000183105468523
 20
-33.099999999999888
 30
0.0
 11
5.2000183105468523
 21
-31.099999999999888
 31
0.0
  0
LINE
  5
260
100
AcDbEntity
  8
0
  6
PHANTOM
 62
             200
100
AcDbLine
 10
5.2000183105468523
 20
-31.099999999999888
 30
0.0
 11
2.2000183105468523
 21
-31.099999999999888
 31
0.0
  0
LINE
  5
261
100
AcDbEntity
  8
0
  6
PHANTOM
 62
             200
100
AcDbLine
 10
5.2000183105468523
 20
-33.099999999999888
 30
0.0
 11
2.2000183105468523
 21
-33.099999999999888
 31
0.0
  0
LINE
  5
262
100
AcDbEntity
  8
0
  6
CENTER
 62
               2
100
AcDbLine
 10
3.7000000000000028
 20
44.369683056948368
 30
0.0
 11
3.6999999999999886
 21
-53.969683056948362
 31
0.0
  0
ENDBLK
  5
263
100
AcDbEntity
  8
0
100
AcDbBlockEnd
  0
BLOCK
  5
264
100
AcDbEntity
  8
0
100
AcDbBlockBegin
  2
EA10SF6-5
 70
               0
 10
0.0
 20
0.0
 30
0.0
  3
EA10SF6-5
  1

  0
LINE
  5
265
100
AcDbEntity
  8
0
  6
CENTER
 62
               2
100
AcDbLine
 10
-2.4999999920755585
 20
0.0
 30
0.0
 11
2.5000000079244415
 21
0.0
 31
0.0
  0
LINE
  5
266
100
AcDbEntity
  8
0
  6
CENTER
 62
               2
100
AcDbLine
 10
-2.4999999920755585
 20
-9.6000000000000014
 30
0.0
 11
2.5000000079244415
 21
-9.6000000000000014
 31
0.0
  0
LINE
  5
267
100
AcDbEntity
  8
0
  6
CONTINUOUS
 62
               7
100
AcDbLine
 10
0.0
 20
-25.599999999999945
 30
0.0
 11
0.0
 21
15.999999999999936
 31
0.0
  0
LINE
  5
268
100
AcDbEntity
  8
0
  6
CONTINUOUS
 62
               7
100
AcDbLine
 10
14.000000000000043
 20
-25.59999999999993
 30
0.0
 11
14.000000000000043
 21
15.999999999999922
 31
0.0
  0
LINE
  5
269
100
AcDbEntity
  8
0
  6
CONTINUOUS
 62
               7
100
AcDbLine
 10
14.000000000000028
 20
-18.504999999999988
 30
0.0
 11
15.100000000000037
 21
-19.600000000000001
 31
0.0
  0
LINE
  5
26A
100
AcDbEntity
  8
0
  6
CONTINUOUS
 62
               7
100
AcDbLine
 10
15.547999999999973
 20
-22.199999999999996
 30
0.0
 11
15.548000000000002
 21
-24.400000000000041
 31
0.0
  0
LINE
  5
26B
100
AcDbEntity
  8
0
  6
CONTINUOUS
 62
               7
100
AcDbLine
 10
15.548000000000002
 20
-24.400000000000041
 30
0.0
 11
15.100000000000023
 21
-24.400000000000027
 31
0.0
  0
LINE
  5
26C
100
AcDbEntity
  8
0
  6
CONTINUOUS
 62
               7
100
AcDbLine
 10
15.547999999999973
 20
-22.199999999999996
 30
0.0
 11
15.100000000000037
 21
-22.199999999999996
 31
0.0
  0
LINE
  5
26D
100
AcDbEntity
  8
0
  6
CONTINUOUS
 62
               7
100
AcDbLine
 10
15.100000000000037
 20
-19.600000000000001
 30
0.0
 11
15.100000000000037
 21
-25.59999999999993
 31
0.0
  0
CIRCLE
  5
26E
100
AcDbEntity
  8
0
  6
CONTINUOUS
 62
               7
100
AcDbCircle
 10
2.8999999864818875
 20
-8.0000000000000213
 30
0.0
 40
1.075
  0
CIRCLE
  5
26F
100
AcDbEntity
  8
0
  6
CONTINUOUS
 62
               7
100
AcDbCircle
 10
2.8999999864818875
 20
-1.6000001002713518
 30
0.0
 40
1.075
  0
LINE
  5
270
100
AcDbEntity
  8
0
  6
CENTER
 62
               2
100
AcDbLine
 10
4.5580738695787346
 20
-7.9995622165198128
 30
0.0
 11
1.2989993842763141
 21
-7.9995622165198128
 31
0.0
  0
LINE
  5
271
100
AcDbEntity
  8
0
  6
CENTER
 62
               2
100
AcDbLine
 10
2.8999999864818875
 20
1.0056776575735498
 30
0.0
 11
2.8999999864818875
 21
-10.438647484203379
 31
0.0
  0
LINE
  5
272
100
AcDbEntity
  8
0
  6
CENTER
 62
               2
100
AcDbLine
 10
4.5580738695787346
 20
-1.6000000000000156
 30
0.0
 11
1.2989993842763141
 21
-1.6000000000000156
 31
0.0
  0
LINE
  5
273
100
AcDbEntity
  8
0
  6
CONTINUOUS
 62
               7
100
AcDbLine
 10
-0.00000002543905
 20
-13.899999999999999
 30
0.0
 11
13.99999997456095
 21
-13.899999999999999
 31
0.0
  0
LINE
  5
274
100
AcDbEntity
  8
0
  6
CONTINUOUS
 62
               7
100
AcDbLine
 10
12.999999986481882
 20
-1.5990014306152105
 30
0.0
 11
13.999999986481882
 21
-1.5990014306152105
 31
0.0
  0
LINE
  5
275
100
AcDbEntity
  8
0
  6
CONTINUOUS
 62
               7
100
AcDbLine
 10
12.999999986481882
 20
1.6009985693848066
 30
0.0
 11
13.999999986481882
 21
1.6009985693848066
 31
0.0
  0
LINE
  5
276
100
AcDbEntity
  8
0
  6
CONTINUOUS
 62
               7
100
AcDbLine
 10
-0.0000000000000142
 20
4.2999999999999901
 30
0.0
 11
13.999999986481882
 21
4.3000000000000043
 31
0.0
  0
LINE
  5
277
100
AcDbEntity
  8
0
  6
CONTINUOUS
 62
               7
100
AcDbLine
 10
15.100000000000037
 20
9.9999999999999929
 30
0.0
 11
15.100000000000037
 21
15.999999999999922
 31
0.0
  0
LINE
  5
278
100
AcDbEntity
  8
0
  6
CONTINUOUS
 62
               7
100
AcDbLine
 10
15.547999999999973
 20
12.599999999999987
 30
0.0
 11
15.100000000000037
 21
12.599999999999987
 31
0.0
  0
LINE
  5
279
100
AcDbEntity
  8
0
  6
CONTINUOUS
 62
               7
100
AcDbLine
 10
15.548000000000002
 20
14.800000000000033
 30
0.0
 11
15.100000000000023
 21
14.800000000000018
 31
0.0
  0
LINE
  5
27A
100
AcDbEntity
  8
0
  6
CONTINUOUS
 62
               7
100
AcDbLine
 10
15.547999999999973
 20
12.599999999999987
 30
0.0
 11
15.548000000000002
 21
14.800000000000033
 31
0.0
  0
LINE
  5
27B
100
AcDbEntity
  8
0
  6
CONTINUOUS
 62
               7
100
AcDbLine
 10
14.000000000000028
 20
8.9049999999999798
 30
0.0
 11
15.100000000000037
 21
9.9999999999999929
 31
0.0
  0
LINE
  5
27C
100
AcDbEntity
  8
0
  6
CONTINUOUS
 62
               7
100
AcDbLine
 10
12.999999986481882
 20
1.6009985693848066
 30
0.0
 11
12.999999986481882
 21
-1.5990014306152105
 31
0.0
  0
LINE
  5
27D
100
AcDbEntity
  8
0
  6
CENTER
 62
               2
100
AcDbLine
 10
0.8758465617809605
 20
-11.199999999999996
 30
0.0
 11
-13.405931081008063
 21
-11.199999999999996
 31
0.0
  0
LINE
  5
27E
100
AcDbEntity
  8
0
  6
CENTER
 62
               2
100
AcDbLine
 10
0.8758465617809605
 20
1.6000000000000014
 30
0.0
 11
-13.405931081008063
 21
1.6000000000000014
 31
0.0
  0
LINE
  5
27F
100
AcDbEntity
  8
0
  6
DASHED
 62
             200
100
AcDbLine
 10
-0.0000000135181182
 20
-14.199999999999996
 30
0.0
 11
-11.500000013518118
 21
-14.199999999999996
 31
0.0
  0
LINE
  5
280
100
AcDbEntity
  8
0
  6
DASHED
 62
             200
100
AcDbLine
 10
-0.0000000135181182
 20
-8.1999999999999957
 30
0.0
 11
-11.500000013518118
 21
-8.1999999999999957
 31
0.0
  0
LINE
  5
281
100
AcDbEntity
  8
0
  6
DASHED
 62
             200
100
AcDbLine
 10
-0.0000000135181182
 20
4.6000000000000014
 30
0.0
 11
-11.500000013518118
 21
4.6000000000000014
 31
0.0
  0
LINE
  5
282
100
AcDbEntity
  8
0
  6
DASHED
 62
             200
100
AcDbLine
 10
-0.0000000135181182
 20
-1.3999999999999986
 30
0.0
 11
-11.500000013518118
 21
-1.3999999999999986
 31
0.0
  0
LINE
  5
283
100
AcDbEntity
  8
0
  6
DASHED
 62
             200
100
AcDbLine
 10
-11.500000013518118
 20
-1.3999999999999986
 30
0.0
 11
-11.500000013518118
 21
4.6000000000000014
 31
0.0
  0
LINE
  5
284
100
AcDbEntity
  8
0
  6
DASHED
 62
             200
100
AcDbLine
 10
-9.5000000135181182
 20
-1.3999999999999986
 30
0.0
 11
-9.5000000135181182
 21
4.6000000000000014
 31
0.0
  0
LINE
  5
285
100
AcDbEntity
  8
0
  6
DASHED
 62
             200
100
AcDbLine
 10
-12.000000013518118
 20
-0.8999999999999986
 30
0.0
 11
-12.000000013518118
 21
4.1000000000000014
 31
0.0
  0
ARC
  5
286
100
AcDbEntity
  8
0
  6
DASHED
 62
             200
100
AcDbCircle
 10
-11.500000013518118
 20
4.1000000000000014
 30
0.0
 40
0.5
100
AcDbArc
 50
89.999999999999815
 51
179.99999999999963
  0
ARC
  5
287
100
AcDbEntity
  8
0
  6
DASHED
 62
             200
100
AcDbCircle
 10
-11.500000013518118
 20
-0.8999999999999986
 30
0.0
 40
0.5
100
AcDbArc
 50
179.99999999999963
 51
269.99999999999937
  0
ARC
  5
288
100
AcDbEntity
  8
0
  6
DASHED
 62
             200
100
AcDbCircle
 10
-11.500000013518118
 20
-13.699999999999996
 30
0.0
 40
0.5
100
AcDbArc
 50
179.99999999999963
 51
269.99999999999937
  0
ARC
  5
289
100
AcDbEntity
  8
0
  6
DASHED
 62
             200
100
AcDbCircle
 10
-11.500000013518118
 20
-8.6999999999999957
 30
0.0
 40
0.5
100
AcDbArc
 50
89.999999999999815
 51
179.99999999999963
  0
LINE
  5
28A
100
AcDbEntity
  8
0
  6
DASHED
 62
             200
100
AcDbLine
 10
-12.000000013518118
 20
-13.699999999999996
 30
0.0
 11
-12.000000013518118
 21
-8.6999999999999957
 31
0.0
  0
LINE
  5
28B
100
AcDbEntity
  8
0
  6
DASHED
 62
             200
100
AcDbLine
 10
-9.5000000135181182
 20
-14.199999999999996
 30
0.0
 11
-9.5000000135181182
 21
-8.1999999999999957
 31
0.0
  0
LINE
  5
28C
100
AcDbEntity
  8
0
  6
DASHED
 62
             200
100
AcDbLine
 10
-11.500000013518118
 20
-14.199999999999996
 30
0.0
 11
-11.500000013518118
 21
-8.1999999999999957
 31
0.0
  0
LINE
  5
28D
100
AcDbEntity
  8
0
  6
CONTINUOUS
 62
               4
100
AcDbLine
 10
19.253535333015165
 20
54.494949488666514
 30
0.0
 11
19.74848482768185
 21
54.494949488666514
 31
0.0
  0
LINE
  5
28E
100
AcDbEntity
  8
0
  6
CONTINUOUS
 62
               4
100
AcDbLine
 10
13.999999986481882
 20
15.999999999999936
 30
0.0
 11
13.999999986481882
 21
37.899999994932209
 31
0.0
  0
LINE
  5
28F
100
AcDbEntity
  8
0
  6
CONTINUOUS
 62
               4
100
AcDbLine
 10
-0.0000000135181182
 20
37.899999999999942
 30
0.0
 11
-0.0000000135181182
 21
15.999999999999936
 31
0.0
  0
LINE
  5
290
100
AcDbEntity
  8
0
  6
CONTINUOUS
 62
               4
100
AcDbLine
 10
-0.0000000135181182
 20
15.999999999999936
 30
0.0
 11
17.005050485815204
 21
15.999999999999936
 31
0.0
  0
LINE
  5
291
100
AcDbEntity
  8
0
  6
CONTINUOUS
 62
               4
100
AcDbLine
 10
2.6999999864818705
 20
38.499999999999964
 30
0.0
 11
2.6999999864818705
 21
37.899999999999999
 31
0.0
  0
LINE
  5
292
100
AcDbEntity
  8
0
  6
CONTINUOUS
 62
               4
100
AcDbLine
 10
2.6999999864818705
 20
37.899999999999999
 30
0.0
 11
-0.0000000095181036
 21
37.899999999999999
 31
0.0
  0
LINE
  5
293
100
AcDbEntity
  8
0
  6
CONTINUOUS
 62
               4
100
AcDbLine
 10
13.499999982481867
 20
38.399999999999999
 30
0.0
 11
11.999999986481939
 21
38.399999999999999
 31
0.0
  0
LINE
  5
294
100
AcDbEntity
  8
0
  6
CONTINUOUS
 62
               4
100
AcDbLine
 10
13.199999896481913
 20
38.499999999999964
 30
0.0
 11
0.8000000764818509
 21
38.499999999999964
 31
0.0
  0
ARC
  5
295
100
AcDbEntity
  8
0
  6
CONTINUOUS
 62
               4
100
AcDbCircle
 10
13.200095043130531
 20
37.900095146648617
 30
0.0
 40
0.5999048008965869
100
AcDbArc
 50
56.247417870393882
 51
90.009087277546172
  0
ARC
  5
296
100
AcDbEntity
  8
0
  6
CONTINUOUS
 62
               4
100
AcDbCircle
 10
0.7989120713536835
 20
37.901088005128166
 30
0.0
 40
0.5989129231257409
100
AcDbArc
 50
89.895914524772735
 51
180.10408547522667
  0
ARC
  5
297
100
AcDbEntity
  8
0
  6
CONTINUOUS
 62
               4
100
AcDbCircle
 10
0.4999999904818964
 20
37.899999999999999
 30
0.0
 40
0.5
100
AcDbArc
 50
93.919585899650798
 51
179.99999999999963
  0
ARC
  5
298
100
AcDbEntity
  8
0
  6
CONTINUOUS
 62
               4
100
AcDbCircle
 10
13.499999982481867
 20
37.899999999999999
 30
0.0
 40
0.5
100
AcDbArc
 50
0.0
 51
89.999999999999815
  0
LINE
  5
299
100
AcDbEntity
  8
0
  6
CONTINUOUS
 62
               4
100
AcDbLine
 10
11.999999986481939
 20
38.499999999999964
 30
0.0
 11
11.999999986481939
 21
36.899999999999999
 31
0.0
  0
LINE
  5
29A
100
AcDbEntity
  8
0
  6
CONTINUOUS
 62
               4
100
AcDbLine
 10
11.999999986481939
 20
36.899999999999999
 30
0.0
 11
-0.0000000095181036
 21
36.899999999999999
 31
0.0
  0
LINE
  5
29B
100
AcDbEntity
  8
0
  6
CONTINUOUS
 62
               4
100
AcDbLine
 10
13.999999982481867
 20
35.493939382799987
 30
0.0
 11
21.50202018021524
 21
35.493939382799987
 31
0.0
  0
LINE
  5
29C
100
AcDbEntity
  8
0
  6
CONTINUOUS
 62
               4
100
AcDbLine
 10
22.00404038194857
 20
34.998989888133302
 30
0.0
 11
22.00404038194857
 21
18.644444442933199
 31
0.0
  0
LINE
  5
29D
100
AcDbEntity
  8
0
  6
CONTINUOUS
 62
               4
100
AcDbLine
 10
17.005050485815204
 20
15.999999999999851
 30
0.0
 11
21.714141392215183
 21
18.191919190666589
 31
0.0
  0
LINE
  5
29E
100
AcDbEntity
  8
0
  6
CONTINUOUS
 62
               4
100
AcDbLine
 10
17.005050485815204
 20
43.499999999999822
 30
0.0
 11
21.098989877415178
 21
43.499999999999822
 31
0.0
  0
LINE
  5
29F
100
AcDbEntity
  8
0
  6
CONTINUOUS
 62
               4
100
AcDbLine
 10
18.603030282881818
 20
43.499999999999822
 30
0.0
 11
18.603030282881818
 21
35.49696969239988
 31
0.0
  0
LINE
  5
2A0
100
AcDbEntity
  8
0
  6
CONTINUOUS
 62
               4
100
AcDbLine
 10
20.398989877815197
 20
43.499999999999822
 30
0.0
 11
20.398989877815197
 21
35.49696969239988
 31
0.0
  0
LINE
  5
2A1
100
AcDbEntity
  8
0
  6
CONTINUOUS
 62
               4
100
AcDbLine
 10
23.997979774748487
 20
43.499999999999822
 30
0.0
 11
23.997979774748487
 21
42.002020193733181
 31
0.0
  0
LINE
  5
2A2
100
AcDbEntity
  8
0
  6
CONTINUOUS
 62
               4
100
AcDbLine
 10
23.099999977281854
 20
36.896969691599843
 30
0.0
 11
23.997979774748487
 21
42.002020193733181
 31
0.0
  0
LINE
  5
2A3
100
AcDbEntity
  8
0
  6
CONTINUOUS
 62
               4
100
AcDbLine
 10
23.001010078348585
 20
43.499999999999822
 30
0.0
 11
23.001010078348585
 21
42.086868678533158
 31
0.0
  0
LINE
  5
2A4
100
AcDbEntity
  8
0
  6
CONTINUOUS
 62
               4
100
AcDbLine
 10
23.001010078348585
 20
43.499999999999822
 30
0.0
 11
23.997979774748487
 21
43.499999999999822
 31
0.0
  0
LINE
  5
2A5
100
AcDbEntity
  8
0
  6
CONTINUOUS
 62
               4
100
AcDbLine
 10
21.897979775948542
 20
35.829292924533199
 30
0.0
 11
23.015151492481877
 21
42.171717163333192
 31
0.0
  0
LINE
  5
2A6
100
AcDbEntity
  8
0
  6
CONTINUOUS
 62
               4
100
AcDbLine
 10
22.103030280881839
 20
34.499999995999865
 30
0.0
 11
22.103030280881839
 21
28.801010100266517
 31
0.0
  0
LINE
  5
2A7
100
AcDbEntity
  8
0
  6
CONTINUOUS
 62
               4
100
AcDbLine
 10
21.098989877415178
 20
43.499999999999822
 30
0.0
 11
21.098989877415178
 21
35.899999995199884
 31
0.0
  0
LINE
  5
2A8
100
AcDbEntity
  8
0
  6
CONTINUOUS
 62
               4
100
AcDbLine
 10
21.403030281281858
 20
43.195959596133143
 30
0.0
 11
21.403030281281858
 21
37.299999994399847
 31
0.0
  0
LINE
  5
2A9
100
AcDbEntity
  8
0
  6
CONTINUOUS
 62
               4
100
AcDbLine
 10
21.098989877415178
 20
43.499999999999822
 30
0.0
 11
21.403030281281858
 21
43.195959596133143
 31
0.0
  0
LINE
  5
2AA
100
AcDbEntity
  8
0
  6
CONTINUOUS
 62
               4
100
AcDbLine
 10
17.005050485815204
 20
42.496969688399865
 30
0.0
 11
17.499999980481888
 21
42.496969688399865
 31
0.0
  0
LINE
  5
2AB
100
AcDbEntity
  8
0
  6
CONTINUOUS
 62
               4
100
AcDbLine
 10
17.005050485815204
 20
37.497979792266499
 30
0.0
 11
17.499999980481888
 21
37.497979792266499
 31
0.0
  0
LINE
  5
2AC
100
AcDbEntity
  8
0
  6
CONTINUOUS
 62
               4
100
AcDbLine
 10
21.098989877415178
 20
36.995959590533225
 30
0.0
 11
21.403030281281858
 21
37.299999994399847
 31
0.0
  0
LINE
  5
2AD
100
AcDbEntity
  8
0
  6
CONTINUOUS
 62
               4
100
AcDbLine
 10
23.099999977281854
 20
36.896969691599843
 30
0.0
 11
23.099999977281854
 21
27.796969696799856
 31
0.0
  0
LINE
  5
2AE
100
AcDbEntity
  8
0
  6
CONTINUOUS
 62
               4
100
AcDbLine
 10
22.103030280881839
 20
27.499999999999822
 30
0.0
 11
22.803030280481821
 21
27.499999999999822
 31
0.0
  0
LINE
  5
2AF
100
AcDbEntity
  8
0
  6
CONTINUOUS
 62
               4
100
AcDbLine
 10
22.00404038194857
 20
28.801010100266517
 30
0.0
 11
22.103030280881839
 21
28.801010100266517
 31
0.0
  0
LINE
  5
2B0
100
AcDbEntity
  8
0
  6
CONTINUOUS
 62
               4
100
AcDbLine
 10
22.00404038194857
 20
27.598989898933148
 30
0.0
 11
22.103030280881839
 21
27.499999999999822
 31
0.0
  0
LINE
  5
2B1
100
AcDbEntity
  8
0
  6
CONTINUOUS
 62
               4
100
AcDbLine
 10
18.850505030215217
 20
48.067676765066487
 30
0.0
 11
18.850505030215217
 21
43.499999999999822
 31
0.0
  0
LINE
  5
2B2
100
AcDbEntity
  8
0
  6
CONTINUOUS
 62
               4
100
AcDbLine
 10
20.151515130481911
 20
50.994949490666492
 30
0.0
 11
20.151515130481911
 21
47.664646462266482
 31
0.0
  0
LINE
  5
2B3
100
AcDbEntity
  8
0
  6
CONTINUOUS
 62
               4
100
AcDbLine
 10
18.850505030215217
 20
50.994949490666492
 30
0.0
 11
18.850505030215217
 21
48.414141411333155
 31
0.0
  0
LINE
  5
2B4
100
AcDbEntity
  8
0
  6
CONTINUOUS
 62
               4
100
AcDbLine
 10
18.850505030215217
 20
50.994949490666492
 30
0.0
 11
20.151515130481911
 21
50.994949490666492
 31
0.0
  0
LINE
  5
2B5
100
AcDbEntity
  8
0
  6
CONTINUOUS
 62
               4
100
AcDbLine
 10
19.253535333015165
 20
54.494949488666514
 30
0.0
 11
19.253535333015165
 21
50.994949490666492
 31
0.0
  0
LINE
  5
2B6
100
AcDbEntity
  8
0
  6
CONTINUOUS
 62
               4
100
AcDbLine
 10
19.74848482768185
 20
54.494949488666514
 30
0.0
 11
19.74848482768185
 21
50.994949490666492
 31
0.0
  0
LINE
  5
2B7
100
AcDbEntity
  8
0
  6
CONTINUOUS
 62
             200
100
AcDbLine
 10
20.99999997848191
 20
47.169696967599855
 30
0.0
 11
18.002020182215219
 21
48.902020198933137
 31
0.0
  0
LINE
  5
2B8
100
AcDbEntity
  8
0
  6
CONTINUOUS
 62
             200
100
AcDbLine
 10
20.99999997848191
 20
46.823232321333187
 30
0.0
 11
18.002020182215219
 21
48.555555552666526
 31
0.0
  0
LINE
  5
2B9
100
AcDbEntity
  8
0
  6
CONTINUOUS
 62
               4
100
AcDbLine
 10
20.151515130481911
 20
47.318181815999814
 30
0.0
 11
20.151515130481911
 21
43.499999999999822
 31
0.0
  0
LINE
  5
2BA
100
AcDbEntity
  8
0
  6
CONTINUOUS
 62
               4
100
AcDbLine
 10
17.005050485815204
 20
43.499999999999822
 30
0.0
 11
17.005050485815204
 21
42.496969688399865
 31
0.0
  0
LINE
  5
2BB
100
AcDbEntity
  8
0
  6
CONTINUOUS
 62
               4
100
AcDbLine
 10
17.005050485815204
 20
37.497979792266499
 30
0.0
 11
17.005050485815204
 21
35.49696969239988
 31
0.0
  0
LINE
  5
2BC
100
AcDbEntity
  8
0
  6
CONTINUOUS
 62
               4
100
AcDbLine
 10
17.499999980481888
 20
42.496969688399865
 30
0.0
 11
17.499999980481888
 21
37.497979792266499
 31
0.0
  0
LINE
  5
2BD
100
AcDbEntity
  8
0
  6
CONTINUOUS
 62
               4
100
AcDbLine
 10
17.005050485815204
 20
15.999999999999851
 30
0.0
 11
17.005050485815204
 21
35.493939382799987
 31
0.0
  0
ARC
  5
2BE
100
AcDbEntity
  8
0
  6
CONTINUOUS
 62
               4
100
AcDbCircle
 10
21.498033044050985
 20
18.649484497491606
 30
0.0
 40
0.5060324378497572
100
AcDbArc
 50
295.28139190005214
 51
359.42932783011406
  0
ARC
  5
2BF
100
AcDbEntity
  8
0
  6
CONTINUOUS
 62
               4
100
AcDbCircle
 10
21.503834105760561
 20
34.993708514783599
 30
0.0
 40
0.5002341568128574
100
AcDbArc
 50
0.6049287534634878
 51
90.207763713153867
  0
ARC
  5
2C0
100
AcDbEntity
  8
0
  6
CONTINUOUS
 62
               4
100
AcDbCircle
 10
22.797896104573724
 20
27.802103872708066
 30
0.0
 40
0.3021474965435785
100
AcDbArc
 50
270.97363298451126
 51
359.02636701548732
  0
ARC
  5
2C1
100
AcDbEntity
  8
0
  6
CONTINUOUS
 62
               4
100
AcDbCircle
 10
21.599986927348695
 20
34.497302043044378
 30
0.0
 40
0.5030505883944908
100
AcDbArc
 50
0.3072892911898554
 51
36.562608354652731
  0
ARC
  5
2C2
100
AcDbEntity
  8
0
  6
CONTINUOUS
 62
               4
100
AcDbCircle
 10
21.501921109179861
 20
35.903476452093564
 30
0.0
 40
0.4029462287748787
100
AcDbArc
 50
180.49433091715488
 51
349.39117201772478
  0
ARC
  5
2C3
100
AcDbEntity
  8
0
  6
CONTINUOUS
 62
               4
100
AcDbCircle
 10
21.501921109179861
 20
-45.503476452093572
 30
0.0
 40
0.4029462287748787
100
AcDbArc
 50
10.608827982274413
 51
179.50566908284432
  0
ARC
  5
2C4
100
AcDbEntity
  8
0
  6
CONTINUOUS
 62
               4
100
AcDbCircle
 10
21.599986927348695
 20
-44.097302043044387
 30
0.0
 40
0.5030505883944908
100
AcDbArc
 50
323.43739164534645
 51
359.69271070880933
  0
ARC
  5
2C5
100
AcDbEntity
  8
0
  6
CONTINUOUS
 62
               4
100
AcDbCircle
 10
22.797896104573724
 20
-37.402103872708075
 30
0.0
 40
0.3021474965435785
100
AcDbArc
 50
0.9736329845118463
 51
89.026367015487978
  0
ARC
  5
2C6
100
AcDbEntity
  8
0
  6
CONTINUOUS
 62
               4
100
AcDbCircle
 10
21.503834105760561
 20
-44.593708514783607
 30
0.0
 40
0.5002341568128574
100
AcDbArc
 50
269.79223628684531
 51
359.39507124653568
  0
ARC
  5
2C7
100
AcDbEntity
  8
0
  6
CONTINUOUS
 62
               4
100
AcDbCircle
 10
21.498033044050985
 20
-28.249484497491615
 30
0.0
 40
0.5060324378497572
100
AcDbArc
 50
0.570672169885155
 51
64.718608099947076
  0
LINE
  5
2C8
100
AcDbEntity
  8
0
  6
CONTINUOUS
 62
               4
100
AcDbLine
 10
17.005050485815204
 20
-25.599999999999859
 30
0.0
 11
17.005050485815204
 21
-45.093939382799995
 31
0.0
  0
LINE
  5
2C9
100
AcDbEntity
  8
0
  6
CONTINUOUS
 62
               4
100
AcDbLine
 10
17.499999980481888
 20
-52.096969688399874
 30
0.0
 11
17.499999980481888
 21
-47.097979792266507
 31
0.0
  0
LINE
  5
2CA
100
AcDbEntity
  8
0
  6
CONTINUOUS
 62
               4
100
AcDbLine
 10
17.005050485815204
 20
-47.097979792266507
 30
0.0
 11
17.005050485815204
 21
-45.096969692399888
 31
0.0
  0
LINE
  5
2CB
100
AcDbEntity
  8
0
  6
CONTINUOUS
 62
               4
100
AcDbLine
 10
17.005050485815204
 20
-53.099999999999831
 30
0.0
 11
17.005050485815204
 21
-52.096969688399874
 31
0.0
  0
LINE
  5
2CC
100
AcDbEntity
  8
0
  6
CONTINUOUS
 62
               4
100
AcDbLine
 10
20.151515130481911
 20
-56.918181815999823
 30
0.0
 11
20.151515130481911
 21
-53.099999999999831
 31
0.0
  0
LINE
  5
2CD
100
AcDbEntity
  8
0
  6
CONTINUOUS
 62
             200
100
AcDbLine
 10
20.99999997848191
 20
-56.423232321333195
 30
0.0
 11
18.002020182215219
 21
-58.155555552666534
 31
0.0
  0
LINE
  5
2CE
100
AcDbEntity
  8
0
  6
CONTINUOUS
 62
             200
100
AcDbLine
 10
20.99999997848191
 20
-56.769696967599863
 30
0.0
 11
18.002020182215219
 21
-58.502020198933145
 31
0.0
  0
LINE
  5
2CF
100
AcDbEntity
  8
0
  6
CONTINUOUS
 62
               4
100
AcDbLine
 10
19.74848482768185
 20
-64.094949488666515
 30
0.0
 11
19.74848482768185
 21
-60.594949490666501
 31
0.0
  0
LINE
  5
2D0
100
AcDbEntity
  8
0
  6
CONTINUOUS
 62
               4
100
AcDbLine
 10
19.253535333015165
 20
-64.094949488666515
 30
0.0
 11
19.253535333015165
 21
-60.594949490666501
 31
0.0
  0
LINE
  5
2D1
100
AcDbEntity
  8
0
  6
CONTINUOUS
 62
               4
100
AcDbLine
 10
18.850505030215217
 20
-60.594949490666501
 30
0.0
 11
20.151515130481911
 21
-60.594949490666501
 31
0.0
  0
LINE
  5
2D2
100
AcDbEntity
  8
0
  6
CONTINUOUS
 62
               4
100
AcDbLine
 10
18.850505030215217
 20
-60.594949490666501
 30
0.0
 11
18.850505030215217
 21
-58.014141411333163
 31
0.0
  0
LINE
  5
2D3
100
AcDbEntity
  8
0
  6
CONTINUOUS
 62
               4
100
AcDbLine
 10
20.151515130481911
 20
-60.594949490666501
 30
0.0
 11
20.151515130481911
 21
-57.264646462266491
 31
0.0
  0
LINE
  5
2D4
100
AcDbEntity
  8
0
  6
CONTINUOUS
 62
               4
100
AcDbLine
 10
18.850505030215217
 20
-57.667676765066496
 30
0.0
 11
18.850505030215217
 21
-53.099999999999831
 31
0.0
  0
LINE
  5
2D5
100
AcDbEntity
  8
0
  6
CONTINUOUS
 62
               4
100
AcDbLine
 10
22.00404038194857
 20
-37.198989898933156
 30
0.0
 11
22.103030280881839
 21
-37.099999999999831
 31
0.0
  0
LINE
  5
2D6
100
AcDbEntity
  8
0
  6
CONTINUOUS
 62
               4
100
AcDbLine
 10
22.00404038194857
 20
-38.401010100266525
 30
0.0
 11
22.103030280881839
 21
-38.401010100266525
 31
0.0
  0
LINE
  5
2D7
100
AcDbEntity
  8
0
  6
CONTINUOUS
 62
               4
100
AcDbLine
 10
22.103030280881839
 20
-37.099999999999831
 30
0.0
 11
22.803030280481821
 21
-37.099999999999831
 31
0.0
  0
LINE
  5
2D8
100
AcDbEntity
  8
0
  6
CONTINUOUS
 62
               4
100
AcDbLine
 10
23.099999977281854
 20
-46.496969691599851
 30
0.0
 11
23.099999977281854
 21
-37.396969696799864
 31
0.0
  0
LINE
  5
2D9
100
AcDbEntity
  8
0
  6
CONTINUOUS
 62
               4
100
AcDbLine
 10
21.098989877415178
 20
-46.595959590533234
 30
0.0
 11
21.403030281281858
 21
-46.899999994399856
 31
0.0
  0
LINE
  5
2DA
100
AcDbEntity
  8
0
  6
CONTINUOUS
 62
               4
100
AcDbLine
 10
17.005050485815204
 20
-47.097979792266507
 30
0.0
 11
17.499999980481888
 21
-47.097979792266507
 31
0.0
  0
LINE
  5
2DB
100
AcDbEntity
  8
0
  6
CONTINUOUS
 62
               4
100
AcDbLine
 10
17.005050485815204
 20
-52.096969688399874
 30
0.0
 11
17.499999980481888
 21
-52.096969688399874
 31
0.0
  0
LINE
  5
2DC
100
AcDbEntity
  8
0
  6
CONTINUOUS
 62
               4
100
AcDbLine
 10
21.098989877415178
 20
-53.099999999999831
 30
0.0
 11
21.403030281281858
 21
-52.795959596133152
 31
0.0
  0
LINE
  5
2DD
100
AcDbEntity
  8
0
  6
CONTINUOUS
 62
               4
100
AcDbLine
 10
21.403030281281858
 20
-52.795959596133152
 30
0.0
 11
21.403030281281858
 21
-46.899999994399856
 31
0.0
  0
LINE
  5
2DE
100
AcDbEntity
  8
0
  6
CONTINUOUS
 62
               4
100
AcDbLine
 10
21.098989877415178
 20
-53.099999999999831
 30
0.0
 11
21.098989877415178
 21
-45.499999995199893
 31
0.0
  0
LINE
  5
2DF
100
AcDbEntity
  8
0
  6
CONTINUOUS
 62
               4
100
AcDbLine
 10
22.103030280881839
 20
-44.099999995999873
 30
0.0
 11
22.103030280881839
 21
-38.401010100266525
 31
0.0
  0
LINE
  5
2E0
100
AcDbEntity
  8
0
  6
CONTINUOUS
 62
               4
100
AcDbLine
 10
21.897979775948542
 20
-45.429292924533208
 30
0.0
 11
23.015151492481877
 21
-51.7717171633332
 31
0.0
  0
LINE
  5
2E1
100
AcDbEntity
  8
0
  6
CONTINUOUS
 62
               4
100
AcDbLine
 10
23.001010078348585
 20
-53.099999999999831
 30
0.0
 11
23.997979774748487
 21
-53.099999999999831
 31
0.0
  0
LINE
  5
2E2
100
AcDbEntity
  8
0
  6
CONTINUOUS
 62
               4
100
AcDbLine
 10
23.001010078348585
 20
-53.099999999999831
 30
0.0
 11
23.001010078348585
 21
-51.686868678533166
 31
0.0
  0
LINE
  5
2E3
100
AcDbEntity
  8
0
  6
CONTINUOUS
 62
               4
100
AcDbLine
 10
23.099999977281854
 20
-46.496969691599851
 30
0.0
 11
23.997979774748487
 21
-51.602020193733189
 31
0.0
  0
LINE
  5
2E4
100
AcDbEntity
  8
0
  6
CONTINUOUS
 62
               4
100
AcDbLine
 10
23.997979774748487
 20
-53.099999999999831
 30
0.0
 11
23.997979774748487
 21
-51.602020193733189
 31
0.0
  0
LINE
  5
2E5
100
AcDbEntity
  8
0
  6
CONTINUOUS
 62
               4
100
AcDbLine
 10
20.398989877815197
 20
-53.099999999999831
 30
0.0
 11
20.398989877815197
 21
-45.096969692399888
 31
0.0
  0
LINE
  5
2E6
100
AcDbEntity
  8
0
  6
CONTINUOUS
 62
               4
100
AcDbLine
 10
18.603030282881818
 20
-53.099999999999831
 30
0.0
 11
18.603030282881818
 21
-45.096969692399888
 31
0.0
  0
LINE
  5
2E7
100
AcDbEntity
  8
0
  6
CONTINUOUS
 62
               4
100
AcDbLine
 10
17.005050485815204
 20
-53.099999999999831
 30
0.0
 11
21.098989877415178
 21
-53.099999999999831
 31
0.0
  0
LINE
  5
2E8
100
AcDbEntity
  8
0
  6
CONTINUOUS
 62
               4
100
AcDbLine
 10
17.005050485815204
 20
-25.599999999999859
 30
0.0
 11
21.714141392215183
 21
-27.791919190666597
 31
0.0
  0
LINE
  5
2E9
100
AcDbEntity
  8
0
  6
CONTINUOUS
 62
               4
100
AcDbLine
 10
22.00404038194857
 20
-44.59898988813331
 30
0.0
 11
22.00404038194857
 21
-28.244444442933208
 31
0.0
  0
LINE
  5
2EA
100
AcDbEntity
  8
0
  6
CONTINUOUS
 62
               4
100
AcDbLine
 10
13.999999982481867
 20
-45.093939382799995
 30
0.0
 11
21.50202018021524
 21
-45.093939382799995
 31
0.0
  0
LINE
  5
2EB
100
AcDbEntity
  8
0
  6
CONTINUOUS
 62
               4
100
AcDbLine
 10
1.999999986481825
 20
-46.500000000000007
 30
0.0
 11
13.999999982481867
 21
-46.500000000000007
 31
0.0
  0
LINE
  5
2EC
100
AcDbEntity
  8
0
  6
CONTINUOUS
 62
               4
100
AcDbLine
 10
1.999999986481825
 20
-48.099999999999973
 30
0.0
 11
1.999999986481825
 21
-46.500000000000007
 31
0.0
  0
ARC
  5
2ED
100
AcDbEntity
  8
0
  6
CONTINUOUS
 62
               4
100
AcDbCircle
 10
0.4999999904818964
 20
-47.500000000000007
 30
0.0
 40
0.5
100
AcDbArc
 50
179.99999999999963
 51
269.99999999999937
  0
ARC
  5
2EE
100
AcDbEntity
  8
0
  6
CONTINUOUS
 62
               4
100
AcDbCircle
 10
13.499999982481867
 20
-47.500000000000007
 30
0.0
 40
0.5
100
AcDbArc
 50
273.91958589965037
 51
0.0
  0
ARC
  5
2EF
100
AcDbEntity
  8
0
  6
CONTINUOUS
 62
               4
100
AcDbCircle
 10
13.20108790161008
 20
-47.501088005128175
 30
0.0
 40
0.5989129231257409
100
AcDbArc
 50
269.89591452477231
 51
0.1040854752270701
  0
ARC
  5
2F0
100
AcDbEntity
  8
0
  6
CONTINUOUS
 62
               4
100
AcDbCircle
 10
0.7999049298332324
 20
-47.500095146648626
 30
0.0
 40
0.5999048008965869
100
AcDbArc
 50
236.24741787039349
 51
270.00908727754575
  0
LINE
  5
2F1
100
AcDbEntity
  8
0
  6
CONTINUOUS
 62
               4
100
AcDbLine
 10
0.8000000764818509
 20
-48.099999999999973
 30
0.0
 11
13.199999896481913
 21
-48.099999999999973
 31
0.0
  0
LINE
  5
2F2
100
AcDbEntity
  8
0
  6
CONTINUOUS
 62
               4
100
AcDbLine
 10
0.4999999904818964
 20
-48.000000000000007
 30
0.0
 11
1.999999986481825
 21
-48.000000000000007
 31
0.0
  0
LINE
  5
2F3
100
AcDbEntity
  8
0
  6
CONTINUOUS
 62
               4
100
AcDbLine
 10
11.299999986481893
 20
-47.500000000000007
 30
0.0
 11
13.999999982481867
 21
-47.500000000000007
 31
0.0
  0
LINE
  5
2F4
100
AcDbEntity
  8
0
  6
CONTINUOUS
 62
               4
100
AcDbLine
 10
11.299999986481893
 20
-48.099999999999973
 30
0.0
 11
11.299999986481893
 21
-47.500000000000007
 31
0.0
  0
LINE
  5
2F5
100
AcDbEntity
  8
0
  6
CONTINUOUS
 62
               4
100
AcDbLine
 10
-0.0000000135181182
 20
-25.599999999999945
 30
0.0
 11
17.005050485815204
 21
-25.599999999999945
 31
0.0
  0
LINE
  5
2F6
100
AcDbEntity
  8
0
  6
CONTINUOUS
 62
               4
100
AcDbLine
 10
-0.0000000135181182
 20
-47.49999999999995
 30
0.0
 11
-0.0000000135181182
 21
-25.599999999999945
 31
0.0
  0
LINE
  5
2F7
100
AcDbEntity
  8
0
  6
CONTINUOUS
 62
               4
100
AcDbLine
 10
13.999999986481882
 20
-25.599999999999945
 30
0.0
 11
13.999999986481882
 21
-47.499999994932217
 31
0.0
  0
LINE
  5
2F8
100
AcDbEntity
  8
0
  6
CONTINUOUS
 62
               4
100
AcDbLine
 10
19.253535333015165
 20
-64.094949488666515
 30
0.0
 11
19.74848482768185
 21
-64.094949488666515
 31
0.0
  0
LINE
  5
2F9
100
AcDbEntity
  8
0
  6
CENTER
 62
               2
100
AcDbLine
 10
6.9999999864818818
 20
39.748582746836369
 30
0.0
 11
6.9999999864818818
 21
-49.348582746836378
 31
0.0
  0
ENDBLK
  5
2FA
100
AcDbEntity
  8
0
100
AcDbBlockEnd
  0
BLOCK
  5
2FB
100
AcDbEntity
  8
0
100
AcDbBlockBegin
  2
EA10SF6-6
 70
               0
 10
0.0
 20
0.0
 30
0.0
  3
EA10SF6-6
  1

  0
LINE
  5
2FC
100
AcDbEntity
  8
0
  6
CONTINUOUS
 62
               7
100
AcDbLine
 10
-8.7000000000000028
 20
-25.600000000000001
 30
0.0
 11
1.2999999999999972
 21
-25.600000000000001
 31
0.0
  0
LINE
  5
2FD
100
AcDbEntity
  8
0
  6
CONTINUOUS
 62
               7
100
AcDbLine
 10
-8.7000000000000028
 20
15.999999999999972
 30
0.0
 11
1.2999999999999972
 21
15.999999999999972
 31
0.0
  0
LINE
  5
2FE
100
AcDbEntity
  8
0
  6
CONTINUOUS
 62
               4
100
AcDbLine
 10
0.0499999999999972
 20
-52.096969688400087
 30
0.0
 11
-7.4500000000000028
 21
-52.096969688400087
 31
0.0
  0
LINE
  5
2FF
100
AcDbEntity
  8
0
  6
CONTINUOUS
 62
               4
100
AcDbLine
 10
0.0499999999999972
 20
42.496969688399652
 30
0.0
 11
-7.4500000000000028
 21
42.496969688399652
 31
0.0
  0
LINE
  5
300
100
AcDbEntity
  8
0
  6
CONTINUOUS
 62
               4
100
AcDbLine
 10
-4.2999999999999687
 20
-60.592929268663958
 30
0.0
 11
-5.5999999999999801
 21
-60.592929268663958
 31
0.0
  0
LINE
  5
301
100
AcDbEntity
  8
0
  6
CONTINUOUS
 62
             200
100
AcDbLine
 10
0.0499999999999972
 20
-58.619999995730488
 30
0.0
 11
-7.4500000000000028
 21
-56.609999995730497
 31
0.0
  0
LINE
  5
302
100
AcDbEntity
  8
0
  6
CONTINUOUS
 62
             200
100
AcDbLine
 10
0.0499999999999972
 20
-57.579999995730525
 30
0.0
 11
-7.4500000000000028
 21
-55.569999995730477
 31
0.0
  0
LINE
  5
303
100
AcDbEntity
  8
0
  6
CONTINUOUS
 62
               4
100
AcDbLine
 10
-1.7999999999999687
 20
-60.592929268663958
 30
0.0
 11
-3.0999999999999801
 21
-60.592929268663958
 31
0.0
  0
LINE
  5
304
100
AcDbEntity
  8
0
  6
CONTINUOUS
 62
               4
100
AcDbLine
 10
-3.0999999999999801
 20
-56.739999995730493
 30
0.0
 11
-3.0999999999999801
 21
-53.099999995730506
 31
0.0
  0
LINE
  5
305
100
AcDbEntity
  8
0
  6
CONTINUOUS
 62
               4
100
AcDbLine
 10
-4.7000000000000028
 20
-64.092929266663987
 30
0.0
 11
-4.7000000000000028
 21
-60.592929268663958
 31
0.0
  0
LINE
  5
306
100
AcDbEntity
  8
0
  6
CONTINUOUS
 62
               4
100
AcDbLine
 10
-5.2000000000000028
 20
-64.092929266663987
 30
0.0
 11
-5.2000000000000028
 21
-60.592929268663958
 31
0.0
  0
LINE
  5
307
100
AcDbEntity
  8
0
  6
CONTINUOUS
 62
               4
100
AcDbLine
 10
-1.7999999999999687
 20
-60.592929268663958
 30
0.0
 11
-1.7999999999999687
 21
-58.119999995730488
 31
0.0
  0
LINE
  5
308
100
AcDbEntity
  8
0
  6
CONTINUOUS
 62
               4
100
AcDbLine
 10
-3.0999999999999801
 20
-60.592929268663958
 30
0.0
 11
-3.0999999999999801
 21
-57.769999995730522
 31
0.0
  0
LINE
  5
309
100
AcDbEntity
  8
0
  6
CONTINUOUS
 62
               4
100
AcDbLine
 10
-1.7999999999999687
 20
-57.089999995730516
 30
0.0
 11
-1.7999999999999687
 21
-53.099999995730506
 31
0.0
  0
LINE
  5
30A
100
AcDbEntity
  8
0
  6
CONTINUOUS
 62
               4
100
AcDbLine
 10
-4.2999999999999687
 20
-56.4199999957305
 30
0.0
 11
-4.2999999999999687
 21
-53.099999995730506
 31
0.0
  0
LINE
  5
30B
100
AcDbEntity
  8
0
  6
CONTINUOUS
 62
               4
100
AcDbLine
 10
-5.5999999999999801
 20
-56.069999995730477
 30
0.0
 11
-5.5999999999999801
 21
-53.099999995730506
 31
0.0
  0
LINE
  5
30C
100
AcDbEntity
  8
0
  6
CONTINUOUS
 62
               4
100
AcDbLine
 10
-2.2000000000000028
 20
-64.092929266663987
 30
0.0
 11
-2.2000000000000028
 21
-60.592929268663958
 31
0.0
  0
LINE
  5
30D
100
AcDbEntity
  8
0
  6
CONTINUOUS
 62
               4
100
AcDbLine
 10
-2.7000000000000028
 20
-64.092929266663987
 30
0.0
 11
-2.7000000000000028
 21
-60.592929268663958
 31
0.0
  0
LINE
  5
30E
100
AcDbEntity
  8
0
  6
CONTINUOUS
 62
               4
100
AcDbLine
 10
-4.2999999999999687
 20
-60.592929268663958
 30
0.0
 11
-4.2999999999999687
 21
-57.449999995730529
 31
0.0
  0
LINE
  5
30F
100
AcDbEntity
  8
0
  6
CONTINUOUS
 62
               4
100
AcDbLine
 10
-5.5999999999999801
 20
-60.592929268663958
 30
0.0
 11
-5.5999999999999801
 21
-57.099999995730506
 31
0.0
  0
LINE
  5
310
100
AcDbEntity
  8
0
  6
CONTINUOUS
 62
               4
100
AcDbLine
 10
0.0499999999999972
 20
-53.099999995730506
 30
0.0
 11
-7.4500000000000028
 21
-53.099999995730506
 31
0.0
  0
LINE
  5
311
100
AcDbEntity
  8
0
  6
CONTINUOUS
 62
               4
100
AcDbLine
 10
-2.2000000000000028
 20
-64.092929266663987
 30
0.0
 11
-2.7000000000000028
 21
-64.092929266663987
 31
0.0
  0
LINE
  5
312
100
AcDbEntity
  8
0
  6
CONTINUOUS
 62
               4
100
AcDbLine
 10
-4.7000000000000028
 20
-64.092929266663987
 30
0.0
 11
-5.2000000000000028
 21
-64.092929266663987
 31
0.0
  0
LINE
  5
313
100
AcDbEntity
  8
0
  6
CONTINUOUS
 62
               4
100
AcDbLine
 10
0.0499999999999972
 20
-53.099999995730506
 30
0.0
 11
0.0499999999999972
 21
-48.099999999999987
 31
0.0
  0
LINE
  5
314
100
AcDbEntity
  8
0
  6
CONTINUOUS
 62
               4
100
AcDbLine
 10
-7.4500000000000028
 20
-53.099999995730506
 30
0.0
 11
-7.4500000000000028
 21
-48.099999999999987
 31
0.0
  0
LINE
  5
315
100
AcDbEntity
  8
0
  6
CONTINUOUS
 62
               4
100
AcDbLine
 10
-3.1000000000000085
 20
50.992929268663943
 30
0.0
 11
-1.7999999999999972
 21
50.992929268663943
 31
0.0
  0
LINE
  5
316
100
AcDbEntity
  8
0
  6
CONTINUOUS
 62
             200
100
AcDbLine
 10
-7.4499999999999744
 20
49.019999995730473
 30
0.0
 11
0.0500000000000256
 21
47.009999995730482
 31
0.0
  0
LINE
  5
317
100
AcDbEntity
  8
0
  6
CONTINUOUS
 62
             200
100
AcDbLine
 10
-7.4499999999999744
 20
47.979999995730509
 30
0.0
 11
0.0500000000000256
 21
45.969999995730461
 31
0.0
  0
LINE
  5
318
100
AcDbEntity
  8
0
  6
CONTINUOUS
 62
               4
100
AcDbLine
 10
-5.6000000000000085
 20
50.992929268663943
 30
0.0
 11
-4.2999999999999972
 21
50.992929268663943
 31
0.0
  0
LINE
  5
319
100
AcDbEntity
  8
0
  6
CONTINUOUS
 62
               4
100
AcDbLine
 10
-4.2999999999999972
 20
47.139999995730477
 30
0.0
 11
-4.2999999999999972
 21
43.499999995730491
 31
0.0
  0
LINE
  5
31A
100
AcDbEntity
  8
0
  6
CONTINUOUS
 62
               4
100
AcDbLine
 10
-2.6999999999999744
 20
54.492929266663964
 30
0.0
 11
-2.6999999999999744
 21
50.992929268663943
 31
0.0
  0
LINE
  5
31B
100
AcDbEntity
  8
0
  6
CONTINUOUS
 62
               4
100
AcDbLine
 10
-2.1999999999999744
 20
54.492929266663964
 30
0.0
 11
-2.1999999999999744
 21
50.992929268663943
 31
0.0
  0
LINE
  5
31C
100
AcDbEntity
  8
0
  6
CONTINUOUS
 62
               4
100
AcDbLine
 10
-5.6000000000000085
 20
50.992929268663943
 30
0.0
 11
-5.6000000000000085
 21
48.519999995730473
 31
0.0
  0
LINE
  5
31D
100
AcDbEntity
  8
0
  6
CONTINUOUS
 62
               4
100
AcDbLine
 10
-4.2999999999999972
 20
50.992929268663943
 30
0.0
 11
-4.2999999999999972
 21
48.169999995730507
 31
0.0
  0
LINE
  5
31E
100
AcDbEntity
  8
0
  6
CONTINUOUS
 62
               4
100
AcDbLine
 10
-5.6000000000000085
 20
47.4899999957305
 30
0.0
 11
-5.6000000000000085
 21
43.499999995730491
 31
0.0
  0
LINE
  5
31F
100
AcDbEntity
  8
0
  6
CONTINUOUS
 62
               4
100
AcDbLine
 10
-3.1000000000000085
 20
46.819999995730484
 30
0.0
 11
-3.1000000000000085
 21
43.499999995730491
 31
0.0
  0
LINE
  5
320
100
AcDbEntity
  8
0
  6
CONTINUOUS
 62
               4
100
AcDbLine
 10
-1.7999999999999972
 20
46.469999995730461
 30
0.0
 11
-1.7999999999999972
 21
43.499999995730491
 31
0.0
  0
LINE
  5
321
100
AcDbEntity
  8
0
  6
CONTINUOUS
 62
               4
100
AcDbLine
 10
-5.1999999999999744
 20
54.492929266663964
 30
0.0
 11
-5.1999999999999744
 21
50.992929268663943
 31
0.0
  0
LINE
  5
322
100
AcDbEntity
  8
0
  6
CONTINUOUS
 62
               4
100
AcDbLine
 10
-4.6999999999999744
 20
54.492929266663964
 30
0.0
 11
-4.6999999999999744
 21
50.992929268663943
 31
0.0
  0
LINE
  5
323
100
AcDbEntity
  8
0
  6
CONTINUOUS
 62
               4
100
AcDbLine
 10
-3.1000000000000085
 20
50.992929268663943
 30
0.0
 11
-3.1000000000000085
 21
47.849999995730514
 31
0.0
  0
LINE
  5
324
100
AcDbEntity
  8
0
  6
CONTINUOUS
 62
               4
100
AcDbLine
 10
-1.7999999999999972
 20
50.992929268663943
 30
0.0
 11
-1.7999999999999972
 21
47.499999995730491
 31
0.0
  0
LINE
  5
325
100
AcDbEntity
  8
0
  6
CONTINUOUS
 62
               4
100
AcDbLine
 10
-7.4500000000000028
 20
43.499999995730491
 30
0.0
 11
0.0499999999999972
 21
43.499999995730491
 31
0.0
  0
LINE
  5
326
100
AcDbEntity
  8
0
  6
CONTINUOUS
 62
               4
100
AcDbLine
 10
-5.1999999999999744
 20
54.492929266663964
 30
0.0
 11
-4.6999999999999744
 21
54.492929266663964
 31
0.0
  0
LINE
  5
327
100
AcDbEntity
  8
0
  6
CONTINUOUS
 62
               4
100
AcDbLine
 10
-2.6999999999999744
 20
54.492929266663964
 30
0.0
 11
-2.1999999999999744
 21
54.492929266663964
 31
0.0
  0
LINE
  5
328
100
AcDbEntity
  8
0
  6
CONTINUOUS
 62
               4
100
AcDbLine
 10
-7.4500000000000028
 20
43.499999995730491
 30
0.0
 11
-7.4500000000000028
 21
38.499999999999972
 31
0.0
  0
LINE
  5
329
100
AcDbEntity
  8
0
  6
CONTINUOUS
 62
               4
100
AcDbLine
 10
0.0499999999999972
 20
43.499999995730491
 30
0.0
 11
0.0499999999999972
 21
38.499999999999972
 31
0.0
  0
ARC
  5
32A
100
AcDbEntity
  8
0
  6
CONTINUOUS
 62
               4
100
AcDbCircle
 10
-1.2970880052370291
 20
37.901088005236971
 30
0.0
 40
0.5989129830170392
100
AcDbArc
 50
89.895914524772735
 51
180.10408547522667
  0
ARC
  5
32B
100
AcDbEntity
  8
0
  6
CONTINUOUS
 62
               4
100
AcDbCircle
 10
0.5040951466581731
 20
37.900095146658174
 30
0.0
 40
0.5999048608870732
100
AcDbArc
 50
359.99091272245295
 51
90.009087277546172
  0
LINE
  5
32C
100
AcDbEntity
  8
0
  6
CONTINUOUS
 62
               4
100
AcDbLine
 10
1.2999999999999972
 20
37.900000000000006
 30
0.0
 11
-1.8999999999999915
 21
37.900000000000006
 31
0.0
  0
ARC
  5
32D
100
AcDbEntity
  8
0
  6
CONTINUOUS
 62
               4
100
AcDbCircle
 10
-8.2000000000000028
 20
37.900000000000006
 30
0.0
 40
0.5
100
AcDbArc
 50
89.999999999999815
 51
179.99999999999963
  0
LINE
  5
32E
100
AcDbEntity
  8
0
  6
CONTINUOUS
 62
               4
100
AcDbLine
 10
-1.8999999999999915
 20
38.400000000000006
 30
0.0
 11
-1.8999999999999915
 21
36.900000000000006
 31
0.0
  0
LINE
  5
32F
100
AcDbEntity
  8
0
  6
CONTINUOUS
 62
               4
100
AcDbLine
 10
-1.8999999999999915
 20
38.400000000000006
 30
0.0
 11
-8.2000000000000028
 21
38.400000000000006
 31
0.0
  0
LINE
  5
330
100
AcDbEntity
  8
0
  6
CONTINUOUS
 62
               4
100
AcDbLine
 10
1.2999999999999972
 20
36.900000000000006
 30
0.0
 11
-1.8999999999999915
 21
36.900000000000006
 31
0.0
  0
LINE
  5
331
100
AcDbEntity
  8
0
  6
CONTINUOUS
 62
               4
100
AcDbLine
 10
1.2999999999999972
 20
38.499999999999972
 30
0.0
 11
-8.7000000000000028
 21
38.499999999999972
 31
0.0
  0
LINE
  5
332
100
AcDbEntity
  8
0
  6
CONTINUOUS
 62
               4
100
AcDbLine
 10
-8.7000000000000028
 20
38.499999999999972
 30
0.0
 11
-8.7000000000000028
 21
15.999999999999972
 31
0.0
  0
LINE
  5
333
100
AcDbEntity
  8
0
  6
CONTINUOUS
 62
               4
100
AcDbLine
 10
1.2999999999999972
 20
38.499999999999972
 30
0.0
 11
1.2999999999999972
 21
15.999999999999972
 31
0.0
  0
ARC
  5
334
100
AcDbEntity
  8
0
  6
CONTINUOUS
 62
               4
100
AcDbCircle
 10
-6.1029119947629766
 20
-47.501088005236987
 30
0.0
 40
0.5989129830170392
100
AcDbArc
 50
269.89591452477231
 51
0.1040854752270701
  0
ARC
  5
335
100
AcDbEntity
  8
0
  6
CONTINUOUS
 62
               4
100
AcDbCircle
 10
-7.9040951466581788
 20
-47.50009514665819
 30
0.0
 40
0.5999048608870732
100
AcDbArc
 50
179.99091272245337
 51
270.00908727754575
  0
LINE
  5
336
100
AcDbEntity
  8
0
  6
CONTINUOUS
 62
               4
100
AcDbLine
 10
-8.7000000000000028
 20
-47.500000000000021
 30
0.0
 11
-5.5000000000000142
 21
-47.500000000000021
 31
0.0
  0
ARC
  5
337
100
AcDbEntity
  8
0
  6
CONTINUOUS
 62
               4
100
AcDbCircle
 10
0.7999999999999972
 20
-47.500000000000021
 30
0.0
 40
0.5
100
AcDbArc
 50
269.99999999999937
 51
0.0
  0
LINE
  5
338
100
AcDbEntity
  8
0
  6
CONTINUOUS
 62
               4
100
AcDbLine
 10
-5.5000000000000142
 20
-48.000000000000021
 30
0.0
 11
-5.5000000000000142
 21
-46.500000000000021
 31
0.0
  0
LINE
  5
339
100
AcDbEntity
  8
0
  6
CONTINUOUS
 62
               4
100
AcDbLine
 10
-5.5000000000000142
 20
-48.000000000000021
 30
0.0
 11
0.7999999999999972
 21
-48.000000000000021
 31
0.0
  0
LINE
  5
33A
100
AcDbEntity
  8
0
  6
CONTINUOUS
 62
               4
100
AcDbLine
 10
-8.7000000000000028
 20
-46.500000000000021
 30
0.0
 11
-5.5000000000000142
 21
-46.500000000000021
 31
0.0
  0
LINE
  5
33B
100
AcDbEntity
  8
0
  6
CONTINUOUS
 62
               4
100
AcDbLine
 10
-8.7000000000000028
 20
-48.099999999999987
 30
0.0
 11
1.2999999999999972
 21
-48.099999999999987
 31
0.0
  0
LINE
  5
33C
100
AcDbEntity
  8
0
  6
CONTINUOUS
 62
               4
100
AcDbLine
 10
1.2999999999999972
 20
-48.099999999999987
 30
0.0
 11
1.2999999999999972
 21
-25.599999999999987
 31
0.0
  0
LINE
  5
33D
100
AcDbEntity
  8
0
  6
CONTINUOUS
 62
               4
100
AcDbLine
 10
-8.7000000000000028
 20
-48.099999999999987
 30
0.0
 11
-8.7000000000000028
 21
-25.599999999999987
 31
0.0
  0
LINE
  5
33E
100
AcDbEntity
  8
0
  6
CENTER
 62
               2
100
AcDbLine
 10
-3.7000000000000028
 20
-54.368403853194756
 30
0.0
 11
-3.7000000000000028
 21
44.496796160848469
 31
0.0
  0
CIRCLE
  5
33F
100
AcDbEntity
  8
0
  6
CONTINUOUS
 62
               7
100
AcDbCircle
 10
-3.6999816894531108
 20
-17.700018310546874
 30
0.0
 40
0.8999999761581421
  0
LINE
  5
340
100
AcDbEntity
  8
0
  6
CENTER
 62
               2
100
AcDbLine
 10
-1.7000000000000028
 20
-17.70000000000001
 30
0.0
 11
-5.7000000000000028
 21
-17.70000000000001
 31
0.0
  0
LINE
  5
341
100
AcDbEntity
  8
0
  6
CENTER
 62
               2
100
AcDbLine
 10
-5.7000000000000028
 20
8.0999999999999872
 30
0.0
 11
-1.7000000000000028
 21
8.0999999999999872
 31
0.0
  0
LINE
  5
342
100
AcDbEntity
  8
0
  6
CENTER
 62
               2
100
AcDbLine
 10
-6.0076604241943556
 20
1.5999999999999872
 30
0.0
 11
-1.39233957580565
 21
1.5999999999999872
 31
0.0
  0
LINE
  5
343
100
AcDbEntity
  8
0
  6
CONTINUOUS
 62
               7
100
AcDbLine
 10
1.2999999999999972
 20
-13.900000000000027
 30
0.0
 11
-8.6999999999999744
 21
-13.900000000000027
 31
0.0
  0
LINE
  5
344
100
AcDbEntity
  8
0
  6
CONTINUOUS
 62
               7
100
AcDbLine
 10
1.2999999999999972
 20
4.3000000000000043
 30
0.0
 11
-8.6999999999999744
 21
4.3000000000000043
 31
0.0
  0
CIRCLE
  5
345
100
AcDbEntity
  8
0
  6
CONTINUOUS
 62
               7
100
AcDbCircle
 10
0.0
 20
0.0
 30
0.0
 40
1.0
  0
LINE
  5
346
100
AcDbEntity
  8
0
  6
CENTER
 62
               2
100
AcDbLine
 10
0.0
 20
-1.6582043412881831
 30
0.0
 11
0.0
 21
1.6507458038142815
 31
0.0
  0
LINE
  5
347
100
AcDbEntity
  8
0
  6
CENTER
 62
               2
100
AcDbLine
 10
1.5141706867843681
 20
0.0
 30
0.0
 11
-1.4477988131531703
 21
0.0
 31
0.0
  0
CIRCLE
  5
348
100
AcDbEntity
  8
0
  6
CONTINUOUS
 62
               7
100
AcDbCircle
 10
-7.4000000000000199
 20
-9.6000000000000156
 30
0.0
 40
1.0
  0
LINE
  5
349
100
AcDbEntity
  8
0
  6
CENTER
 62
               2
100
AcDbLine
 10
-5.8095838508537412
 20
-9.6000000000000156
 30
0.0
 11
-8.8598351735368936
 21
-9.6000000000000156
 31
0.0
  0
LINE
  5
34A
100
AcDbEntity
  8
0
  6
CENTER
 62
               2
100
AcDbLine
 10
-7.4000000000000199
 20
-11.100461398562281
 30
0.0
 11
-7.4000000000000199
 21
-8.1184246891139296
 31
0.0
  0
CIRCLE
  5
34B
100
AcDbEntity
  8
0
  6
CONTINUOUS
 62
               2
100
AcDbCircle
 10
-3.7000000000000028
 20
-4.8000000000000043
 30
0.0
 40
1.5
  0
CIRCLE
  5
34C
100
AcDbEntity
  8
0
  6
CONTINUOUS
 62
               7
100
AcDbCircle
 10
-3.7000000000000028
 20
-4.8000000000000043
 30
0.0
 40
1.25
  0
CIRCLE
  5
34D
100
AcDbEntity
  8
0
  6
CONTINUOUS
 62
               7
100
AcDbCircle
 10
-3.7000000000000028
 20
1.5999999999999872
 30
0.0
 40
1.25
  0
CIRCLE
  5
34E
100
AcDbEntity
  8
0
  6
CONTINUOUS
 62
               7
100
AcDbCircle
 10
-3.7000000000000028
 20
-11.20000000000001
 30
0.0
 40
1.25
  0
CIRCLE
  5
34F
100
AcDbEntity
  8
0
  6
CONTINUOUS
 62
               2
100
AcDbCircle
 10
-3.7000000000000028
 20
1.5999999999999872
 30
0.0
 40
1.5
  0
CIRCLE
  5
350
100
AcDbEntity
  8
0
  6
CONTINUOUS
 62
               2
100
AcDbCircle
 10
-3.7000000000000028
 20
-11.20000000000001
 30
0.0
 40
1.5
  0
LINE
  5
351
100
AcDbEntity
  8
0
  6
CENTER
 62
               2
100
AcDbLine
 10
-1.39233957580565
 20
-11.20000000000001
 30
0.0
 11
-6.0076604241943556
 21
-11.20000000000001
 31
0.0
  0
LINE
  5
352
100
AcDbEntity
  8
0
  6
CENTER
 62
               2
100
AcDbLine
 10
-1.39233957580565
 20
-4.8000000000000043
 30
0.0
 11
-6.0076604241943556
 21
-4.8000000000000043
 31
0.0
  0
CIRCLE
  5
353
100
AcDbEntity
  8
0
  6
CONTINUOUS
 62
               7
100
AcDbCircle
 10
-3.7000183105468949
 20
8.1000183105468508
 30
0.0
 40
0.8999999761581421
  0
LINE
  5
354
100
AcDbEntity
  8
0
  6
CONTINUOUS
 62
               7
100
AcDbLine
 10
-8.7000000000000028
 20
-25.600000000000001
 30
0.0
 11
-8.7000000000000028
 21
15.999999999999979
 31
0.0
  0
LINE
  5
355
100
AcDbEntity
  8
0
  6
CONTINUOUS
 62
               7
100
AcDbLine
 10
1.2999999999999972
 20
-25.600000000000001
 30
0.0
 11
1.2999999999999972
 21
15.999999999999979
 31
0.0
  0
ENDBLK
  5
356
100
AcDbEntity
  8
0
100
AcDbBlockEnd
  0
BLOCK
  5
36E
100
AcDbEntity
  8
0
  6
ByBlock
 62
               0
100
AcDbBlockBegin
  2
_OPEN30
 70
               2
 10
0.0
 20
0.0
 30
0.0
  3
_OPEN30
  1

  0
LINE
  5
36F
100
AcDbEntity
  8
0
  6
ByBlock
 62
               0
100
AcDbLine
 10
-1.0
 20
0.267949
 30
0.0
 11
0.0
 21
0.0
 31
0.0
  0
LINE
  5
370
100
AcDbEntity
  8
0
  6
ByBlock
 62
               0
100
AcDbLine
 10
0.0
 20
0.0
 30
0.0
 11
-1.0
 21
-0.267949
 31
0.0
  0
LINE
  5
371
100
AcDbEntity
  8
0
  6
ByBlock
 62
               0
100
AcDbLine
 10
0.0
 20
0.0
 30
0.0
 11
-1.0
 21
0.0
 31
0.0
  0
ENDBLK
  5
372
100
AcDbEntity
  8
0
  6
ByBlock
 62
               0
100
AcDbBlockEnd
  0
ENDSEC
  0
SECTION
  2
ENTITIES
  0
INSERT
  5
357
100
AcDbEntity
  8
0
  6
ByBlock
100
AcDbBlockReference
  2
EA10SF6-1
 10
90.375001525878901
 20
57.437356282188524
 30
0.0
  0
INSERT
  5
358
100
AcDbEntity
  8
0
  6
ByBlock
100
AcDbBlockReference
  2
EA10SF6-2
 10
-6.7249984606029756
 20
57.437356282188524
 30
0.0
  0
INSERT
  5
359
100
AcDbEntity
  8
0
  6
ByBlock
100
AcDbBlockReference
  2
EA10SF6-3
 10
-67.024998474121091
 20
57.437356282188738
 30
0.0
  0
INSERT
  5
35A
100
AcDbEntity
  8
0
  6
ByBlock
100
AcDbBlockReference
  2
EA10SF6-4
 10
90.375001525878901
 20
-60.612646769569288
 30
0.0
  0
INSERT
  5
35B
100
AcDbEntity
  8
0
  6
ByBlock
100
AcDbBlockReference
  2
EA10SF6-5
 10
-6.7249984606029756
 20
-60.612646769569288
 30
0.0
  0
INSERT
  5
35C
100
AcDbEntity
  8
0
  6
ByBlock
100
AcDbBlockReference
  2
EA10SF6-6
 10
-67.024998474121091
 20
-60.612646769569075
 30
0.0
  0
MTEXT
  5
35D
100
AcDbEntity
  8
0
  6
CONTINUOUS
 62
               7
100
AcDbMText
 10
115.52672595002113
 20
-126.0
 30
0.0
 40
6.3000001907348633
 41
0.0
 71
               4
 72
               1
  1
\W1.121;\A1;KOGANEI CORP.
  0
MTEXT
  5
35E
100
AcDbEntity
  8
0
  6
CONTINUOUS
 62
               7
100
AcDbMText
 10
135.2836095956161
 20
125.10000610351562
 30
0.0
 40
4.5
 41
0.0
 71
               4
 72
               1
  1
\W1.311;\A1;Ver. 1.0
  0
LINE
  5
35F
100
AcDbEntity
  8
0
  6
CONTINUOUS
 62
               7
100
AcDbLine
 10
-109.25
 20
132.60000610351562
 30
0.0
 11
-109.25
 21
117.60000610351562
 31
0.0
  0
LINE
  5
360
100
AcDbEntity
  8
0
  6
CONTINUOUS
 62
               7
100
AcDbLine
 10
-194.25
 20
117.60000610351562
 30
0.0
 11
-109.25
 21
117.60000610351562
 31
0.0
  0
LINE
  5
361
100
AcDbEntity
  8
0
  6
CONTINUOUS
 62
               7
100
AcDbLine
 10
109.80000305175781
 20
117.60000610351562
 30
0.0
 11
194.80000305175781
 21
117.60000610351562
 31
0.0
  0
LINE
  5
362
100
AcDbEntity
  8
0
  6
CONTINUOUS
 62
               7
100
AcDbLine
 10
109.80000305175781
 20
132.60000610351562
 30
0.0
 11
109.80000305175781
 21
117.60000610351562
 31
0.0
  0
LINE
  5
363
100
AcDbEntity
  8
0
  6
CONTINUOUS
 62
               7
100
AcDbLine
 10
109.80000305175781
 20
-118.5
 30
0.0
 11
194.80000305175781
 21
-118.5
 31
0.0
  0
LINE
  5
364
100
AcDbEntity
  8
0
  6
CONTINUOUS
 62
               7
100
AcDbLine
 10
109.80000305175781
 20
-118.5
 30
0.0
 11
109.80000305175781
 21
-133.5
 31
0.0
  0
LINE
  5
365
100
AcDbEntity
  8
0
  6
CONTINUOUS
 62
               7
100
AcDbLine
 10
-194.25
 20
-133.5
 30
0.0
 11
194.80000305175781
 21
-133.5
 31
0.0
  0
LINE
  5
366
100
AcDbEntity
  8
0
  6
CONTINUOUS
 62
               7
100
AcDbLine
 10
-194.25
 20
132.60000610351562
 30
0.0
 11
-194.25
 21
-133.5
 31
0.0
  0
LINE
  5
367
100
AcDbEntity
  8
0
  6
CONTINUOUS
 62
               7
100
AcDbLine
 10
194.80000305175781
 20
132.60000610351562
 30
0.0
 11
194.80000305175781
 21
-133.5
 31
0.0
  0
LINE
  5
368
100
AcDbEntity
  8
0
  6
CONTINUOUS
 62
               7
100
AcDbLine
 10
-194.25
 20
132.60000610351562
 30
0.0
 11
194.80000305175781
 21
132.60000610351562
 31
0.0
  0
MTEXT
  5
369
100
AcDbEntity
  8
0
  6
CONTINUOUS
 62
               7
100
AcDbMText
 10
-185.69101127052457
 20
107.60000610351562
 30
0.0
 40
4.5
 41
0.0
 71
               4
 72
               1
  1
\W1.079;\A1;MODEL:EA10SF6-PL
  0
MTEXT
  5
36A
100
AcDbEntity
  8
0
  6
CONTINUOUS
 62
               1
100
AcDbMText
 10
-177.91666665526046
 20
125.10000610351562
 30
0.0
 40
4.5
 41
0.0
 71
               4
 72
               1
  1
\W1.111;\A1;EA･EB SERIES
  0
LINE
  5
36B
100
AcDbEntity
  8
0
  6
CONTINUOUS
 62
               7
100
AcDbLine
 10
-194.25
 20
-0.4499969482421875
 30
0.0
 11
194.80000305175781
 21
-0.4499969482421875
 31
0.0
  0
MTEXT
  5
36C
100
AcDbEntity
  8
0
  6
CONTINUOUS
 62
             200
100
AcDbMText
 10
-35.493338072299963
 20
-61.812647103355289
 30
0.0
 40
3.1999998092651367
 41
0.0
 71
               4
 72
               1
  1
\A1;-75
  0
LEADER
  5
373
100
AcDbEntity
  8
0
  6
CONTINUOUS
 62
             200
100
AcDbLeader
  3
MXDIMSTYLE
 73
               3
 74
               0
 75
               0
 40
0.0
 76
               3
 10
-18.724998474121094
 20
-59.012646769569287
 30
0.0
 10
-25.124998474121099
 20
-65.412646769569278
 30
0.0
 10
-35.493338072299963
 20
-65.412646769569278
 30
0.0
 77
             200
1001
ACAD
1000
DSTYLE
1002
{
1070
               6
1000
_OPEN30
1070
               7
1000
_OPEN30
1070
              41
1040
2.77
1070
             173
1070
               1
1070
             341
1005
36D
1002
}
  0
MTEXT
  5
374
100
AcDbEntity
  8
0
  6
CONTINUOUS
 62
               7
100
AcDbMText
 10
-185.69101127052457
 20
-10.449996948242187
 30
0.0
 40
4.5
 41
0.0
 71
               4
 72
               1
  1
\W1.079;\A1;MODEL:EA10SF6-PS
  0
MTEXT
  5
375
100
AcDbEntity
  8
0
  6
CONTINUOUS
 62
             200
100
AcDbMText
 10
-35.493338072299963
 20
56.237355948402524
 30
0.0
 40
3.1999998092651367
 41
0.0
 71
               4
 72
               1
  1
\A1;-75
  0
LEADER
  5
376
100
AcDbEntity
  8
0
  6
CONTINUOUS
 62
             200
100
AcDbLeader
  3
MXDIMSTYLE
 73
               3
 74
               0
 75
               0
 40
0.0
 76
               3
 10
-18.724998474121094
 20
59.037356282188526
 30
0.0
 10
-25.124998474121099
 20
52.637356282188534
 30
0.0
 10
-35.493338072299963
 20
52.637356282188534
 30
0.0
 77
             200
1001
ACAD
1000
DSTYLE
1002
{
1070
               6
1000
_OPEN30
1070
               7
1000
_OPEN30
1070
              41
1040
2.77
1070
             173
1070
               1
1070
             341
1005
36D
1002
}
  0
ENDSEC
  0
SECTION
  2
OBJECTS
  0
DICTIONARY
  5
19
100
AcDbDictionary
  3
ACAD_GROUP
350
1A
  3
ACAD_MLINESTYLE
350
1B
  0
DICTIONARY
  5
1A
102
{ACAD_REACTORS
330
19
102
}
100
AcDbDictionary
  0
DICTIONARY
  5
1B
102
{ACAD_REACTORS
330
19
102
}
100
AcDbDictionary
  3
STANDARD
350
1C
  0
MLINESTYLE
  5
1C
102
{ACAD_REACTORS
330
1B
102
}
100
AcDbMlineStyle
  2
Standard
 70
               0
  3

 62
               0
 51
90.0
 52
90.0
 71
               2
 49
0.5
 62
             256
  6
ByLayer
 49
-0.5
 62
             256
  6
ByLayer
  0
ENDSEC
  0
EOF
