  0
SECTION
  2
HEADER
  9
$ACADVER
  1
AC1012
  9
$DWGCODEPAGE
  3
dos932
  9
$INSBASE
 10
0.0
 20
0.0
 30
0.0
  9
$EXTMIN
 10
-281.25
 20
-195.0
 30
0.0
  9
$EXTMAX
 10
285.6319057062413
 20
195.5
 30
0.0
  9
$LIMMIN
 10
-281.25
 20
-195.0
  9
$LIMMAX
 10
285.6319057062413
 20
195.5
  9
$ORTHOMODE
 70
               0
  9
$REGENMODE
 70
               1
  9
$FILLMODE
 70
               1
  9
$QTEXTMODE
 70
               0
  9
$MIRRTEXT
 70
               1
  9
$DRAGMODE
 70
               2
  9
$LTSCALE
 40
1.0
  9
$OSMODE
 70
               0
  9
$ATTMODE
 70
               1
  9
$TEXTSIZE
 40
3.2000000476837158
  9
$TRACEWID
 40
0.05
  9
$TEXTSTYLE
  7
MX_NOTE_STANDARD
  9
$CLAYER
  8
0
  9
$CELTYPE
  6
CONTINUOUS
  9
$CECOLOR
 62
             256
  9
$CELTSCALE
 40
1.0
  9
$DELOBJ
 70
               1
  9
$DISPSILH
 70
               0
  9
$DIMSCALE
 40
1.0
  9
$DIMASZ
 40
2.5
  9
$DIMEXO
 40
1.5
  9
$DIMDLI
 40
3.75
  9
$DIMRND
 40
0.0
  9
$DIMDLE
 40
0.0
  9
$DIMEXE
 40
1.5
  9
$DIMTP
 40
0.0
  9
$DIMTM
 40
0.0
  9
$DIMTXT
 40
3.2000000476837158
  9
$DIMCEN
 40
2.5
  9
$DIMTSZ
 40
0.0
  9
$DIMTOL
 70
               0
  9
$DIMLIM
 70
               0
  9
$DIMTIH
 70
               0
  9
$DIMTOH
 70
               0
  9
$DIMSE1
 70
               0
  9
$DIMSE2
 70
               0
  9
$DIMTAD
 70
               1
  9
$DIMZIN
 70
               8
  9
$DIMBLK
  1

  9
$DIMASO
 70
               1
  9
$DIMSHO
 70
               1
  9
$DIMPOST
  1

  9
$DIMAPOST
  1

  9
$DIMALT
 70
               0
  9
$DIMALTD
 70
               4
  9
$DIMALTF
 40
0.03937007874016
  9
$DIMLFAC
 40
1.0
  9
$DIMTOFL
 70
               1
  9
$DIMTVP
 40
0.0
  9
$DIMTIX
 70
               0
  9
$DIMSOXD
 70
               0
  9
$DIMSAH
 70
               0
  9
$DIMBLK1
  1

  9
$DIMBLK2
  1

  9
$DIMSTYLE
  2
MXDIMSTYLE
  9
$DIMCLRD
 70
               0
  9
$DIMCLRE
 70
               0
  9
$DIMCLRT
 70
               0
  9
$DIMTFAC
 40
1.0
  9
$DIMGAP
 40
1.0
  9
$DIMJUST
 70
               0
  9
$DIMSD1
 70
               0
  9
$DIMSD2
 70
               0
  9
$DIMTOLJ
 70
               1
  9
$DIMTZIN
 70
               0
  9
$DIMALTZ
 70
               0
  9
$DIMALTTZ
 70
               0
  9
$DIMFIT
 70
               3
  9
$DIMUPT
 70
               1
  9
$DIMUNIT
 70
               2
  9
$DIMDEC
 70
               4
  9
$DIMTDEC
 70
               4
  9
$DIMALTU
 70
               2
  9
$DIMALTTD
 70
               4
  9
$DIMTXSTY
  7
MX_NOTE_STANDARD
  9
$DIMAUNIT
 70
               0
  9
$LUNITS
 70
               2
  9
$LUPREC
 70
               4
  9
$SKETCHINC
 40
0.1
  9
$FILLETRAD
 40
0.0
  9
$AUNITS
 70
               0
  9
$AUPREC
 70
               0
  9
$MENU
  1
acad
  9
$ELEVATION
 40
0.0
  9
$PELEVATION
 40
0.0
  9
$THICKNESS
 40
0.0
  9
$LIMCHECK
 70
               0
  9
$BLIPMODE
 70
               1
  9
$CHAMFERA
 40
0.0
  9
$CHAMFERB
 40
0.0
  9
$CHAMFERC
 40
0.0
  9
$CHAMFERD
 40
0.0
  9
$SKPOLY
 70
               0
  9
$TDCREATE
 40
2453378.356319444
  9
$TDUPDATE
 40
2453378.356319444
  9
$TDINDWG
 40
0.0000000000
  9
$TDUSRTIMER
 40
0.0000000000
  9
$USRTIMER
 70
               1
  9
$ANGBASE
 50
0.0
  9
$ANGDIR
 70
               0
  9
$PDMODE
 70
               0
  9
$PDSIZE
 40
0.0
  9
$PLINEWID
 40
0.0
  9
$COORDS
 70
               1
  9
$SPLFRAME
 70
               0
  9
$SPLINETYPE
 70
               6
  9
$SPLINESEGS
 70
               8
  9
$ATTDIA
 70
               0
  9
$ATTREQ
 70
               1
  9
$HANDLING
 70
               1
  9
$HANDSEED
  5
49D
  9
$SURFTAB1
 70
               6
  9
$SURFTAB2
 70
               6
  9
$SURFTYPE
 70
               6
  9
$SURFU
 70
               6
  9
$SURFV
 70
               6
  9
$UCSNAME
  2

  9
$UCSORG
 10
0.0
 20
0.0
 30
0.0
  9
$UCSXDIR
 10
1.0
 20
0.0
 30
0.0
  9
$UCSYDIR
 10
0.0
 20
1.0
 30
0.0
  9
$PUCSNAME
  2

  9
$PUCSORG
 10
0.0
 20
0.0
 30
0.0
  9
$PUCSXDIR
 10
1.0
 20
0.0
 30
0.0
  9
$PUCSYDIR
 10
0.0
 20
1.0
 30
0.0
  9
$USERI1
 70
               0
  9
$USERI2
 70
               0
  9
$USERI3
 70
               0
  9
$USERI4
 70
               0
  9
$USERI5
 70
               0
  9
$USERR1
 40
0.0
  9
$USERR2
 40
0.0
  9
$USERR3
 40
0.0
  9
$USERR4
 40
0.0
  9
$USERR5
 40
0.0
  9
$WORLDVIEW
 70
               1
  9
$SHADEDGE
 70
               3
  9
$SHADEDIF
 70
              70
  9
$TILEMODE
 70
               1
  9
$MAXACTVP
 70
              16
  9
$PINSBASE
 10
0.0
 20
0.0
 30
0.0
  9
$PLIMCHECK
 70
               0
  9
$PEXTMIN
 10
1.0000000000000000E+20
 20
1.0000000000000000E+20
 30
1.0000000000000000E+20
  9
$PEXTMAX
 10
-1.0000000000000000E+20
 20
-1.0000000000000000E+20
 30
-1.0000000000000000E+20
  9
$PLIMMIN
 10
0.0
 20
0.0
  9
$PLIMMAX
 10
12.0
 20
9.0
  9
$UNITMODE
 70
               0
  9
$VISRETAIN
 70
               0
  9
$PLINEGEN
 70
               1
  9
$PSLTSCALE
 70
               0
  9
$TREEDEPTH
 70
            3020
  9
$PICKSTYLE
 70
               1
  9
$CMLSTYLE
  2
Standard
  9
$CMLJUST
 70
               0
  9
$CMLSCALE
 40
1.0
  9
$SAVEIMAGES
 70
               0
  0
ENDSEC
  0
SECTION
  2
CLASSES
  0
CLASS
  1
LWPOLYLINE
  2
AcDbPolyline
  3
"AutoCAD"
 90
        0
280
               0
281
               1
  0
CLASS
  1
IMAGE
  2
AcDbRasterImage
  3
ISM
 90
      127
280
               0
281
               1
  0
CLASS
  1
OLE2FRAME
  2
AcDbOle2Frame
  3
""
 90
        0
280
               0
281
               1
  0
CLASS
  1
HATCH
  2
AcDbHatch
  3
"ACAD_SEDONA"
 90
        0
280
               0
281
               1
  0
CLASS
  1
DICTIONARYVAR
  2
AcDbDictionaryVar
  3
"AutoCAD"
 90
        0
280
               0
281
               0
  0
CLASS
  1
RASTERVARIABLES
  2
AcDbRasterVariables
  3
ISM
 90
        0
280
               0
281
               0
  0
CLASS
  1
IMAGEDEF
  2
AcDbRasterImageDef
  3
ISM
 90
        0
280
               0
281
               0
  0
CLASS
  1
IMAGEDEF_REACTOR
  2
AcDbRasterImageDefReactor
  3
ISM
 90
        1
280
               0
281
               0
  0
CLASS
  1
IDBUFFER
  2
AcDbIdBuffer
  3
"Acad"
 90
        0
280
               0
281
               0
  0
CLASS
  1
SPATIAL_FILTER
  2
AcDbSpatialFilter
  3
"Acad"
 90
        0
280
               0
281
               0
  0
CLASS
  1
XRECORD
  2
AcDbXrecord
  3
"<Built In>"
 90
        0
280
               0
281
               0
  0
CLASS
  1
SORTENTSTABLE
  2
AcDbSortentsTable
  3
"AutoCAD"
 90
        0
280
               0
281
               0
  0
CLASS
  1
LAYER_INDEX
  2
AcDbLayerIndex
  3
"Acad"
 90
        0
280
               0
281
               0
  0
CLASS
  1
SPATIAL_INDEX
  2
AcDbSpatialIndex
  3
"Acad"
 90
        0
280
               0
281
               0
  0
CLASS
  1
OBJECT_PTR
  2
CAseDLPNTableRecord
  3
"ASE-LPNTableRecord"
 90
        1
280
               0
281
               0
  0
CLASS
  1
LAYOUT
  2
AcDbLayout
  3
"AutoCAD 2000"
 90
        1
280
               0
281
               0
  0
CLASS
  1
PLOTSETTINGS
  2
AcDbPlotSettings
  3
"AutoCAD 2000"
 90
        1
280
               0
281
               0
  0
CLASS
  1
ACDBDICTIONARYWDFLT
  2
AcDbDictionaryWithDefault
  3
"AutoCAD 2000"
 90
        1
280
               0
281
               0
  0
CLASS
  1
ACDBPLACEHOLDER
  2
AcDbPlaceHolder
  3
"AutoCAD 2000"
 90
        1
280
               0
281
               0
  0
ENDSEC
  0
SECTION
  2
TABLES
  0
TABLE
  2
VPORT
  5
7
100
AcDbSymbolTable
 70
               1
  0
VPORT
  5
15
100
AcDbSymbolTableRecord
100
AcDbViewportTableRecord
  2
*ACTIVE
 70
               0
 10
0.0
 20
0.0
 11
1.0
 21
1.0
 12
2.1909528531206206
 22
0.25
 13
0.0
 23
0.0
 14
1.0
 24
1.0
 15
0.0
 25
0.0
 16
0.0
 26
0.0
 36
1.0
 17
0.0
 27
0.0
 37
0.0
 40
394.40500000000003
 41
1.7320508075688772
 42
50.0
 43
0.0
 44
0.0
 50
0.0
 51
0.0
 71
               0
 72
             100
 73
               1
 74
               1
 75
               0
 76
               0
 77
               0
 78
               0
  0
ENDTAB
  0
TABLE
  2
LTYPE
  5
4
100
AcDbSymbolTable
 70
               6
  0
LTYPE
  5
11
100
AcDbSymbolTableRecord
100
AcDbLinetypeTableRecord
  2
BYBLOCK
 70
              64
  3

 72
              65
 73
               0
 40
0.0
  0
LTYPE
  5
12
100
AcDbSymbolTableRecord
100
AcDbLinetypeTableRecord
  2
BYLAYER
 70
              64
  3

 72
              65
 73
               0
 40
0.0
  0
LTYPE
  5
13
100
AcDbSymbolTableRecord
100
AcDbLinetypeTableRecord
  2
CONTINUOUS
 70
              64
  3
Solid line
 72
              65
 73
               0
 40
0.0
  0
LTYPE
  5
28
100
AcDbSymbolTableRecord
100
AcDbLinetypeTableRecord
  2
CENTER
 70
              64
  3
Center ____ _ ____ _ ____ _ ____ _ ____ _ ____
 72
              65
 73
               4
 40
26.0
 49
20.0
 74
               0
 49
-2.0
 74
               0
 49
2.0
 74
               0
 49
-2.0
 74
               0
  0
LTYPE
  5
90
100
AcDbSymbolTableRecord
100
AcDbLinetypeTableRecord
  2
PHANTOM
 70
              64
  3
Phantom ______  __  __  ______  __  __  ______
 72
              65
 73
               6
 40
30.0
 49
20.0
 74
               0
 49
-2.0
 74
               0
 49
2.0
 74
               0
 49
-2.0
 74
               0
 49
2.0
 74
               0
 49
-2.0
 74
               0
  0
LTYPE
  5
E7
100
AcDbSymbolTableRecord
100
AcDbLinetypeTableRecord
  2
DASHED
 70
              64
  3
Dashed __ __ __ __ __ __ __ __ __ __ __ __ __ _
 72
              65
 73
               2
 40
4.0
 49
2.0
 74
               0
 49
-2.0
 74
               0
  0
ENDTAB
  0
TABLE
  2
LAYER
  5
2
100
AcDbSymbolTable
 70
               2
  0
LAYER
  5
14
100
AcDbSymbolTableRecord
100
AcDbLayerTableRecord
  2
0
 70
               0
 62
               7
  6
CONTINUOUS
  0
LAYER
  5
1D
100
AcDbSymbolTableRecord
100
AcDbLayerTableRecord
  2
DEFPOINTS
 70
               0
 62
               7
  6
CONTINUOUS
  0
ENDTAB
  0
TABLE
  2
STYLE
  5
3
100
AcDbSymbolTable
 70
               1
  0
STYLE
  5
17
100
AcDbSymbolTableRecord
100
AcDbTextStyleTableRecord
  2
MX_NOTE_STANDARD
 70
               0
 40
0.0
 41
1.0
 50
0.0
 71
               0
 42
3.2000000476837158
  3
txt.shx
  4
extfont.shx
  0
ENDTAB
  0
TABLE
  2
VIEW
  5
5
100
AcDbSymbolTable
 70
               0
  0
ENDTAB
  0
TABLE
  2
UCS
  5
6
100
AcDbSymbolTable
 70
               0
  0
ENDTAB
  0
TABLE
  2
APPID
  5
8
100
AcDbSymbolTable
 70
               1
  0
APPID
  5
16
100
AcDbSymbolTableRecord
100
AcDbRegAppTableRecord
  2
ACAD
 70
               0
  0
ENDTAB
  0
TABLE
  2
DIMSTYLE
  5
9
100
AcDbSymbolTable
 70
               1
  0
DIMSTYLE
105
18
100
AcDbSymbolTableRecord
100
AcDbDimStyleTableRecord
  2
MXDIMSTYLE
 70
               0
  3

  4

  5

  6

  7

 40
1.0
 41
2.5
 42
1.5
 43
3.75
 44
1.5
 45
0.0
 46
0.0
 47
0.0
 48
0.0
 71
               0
 72
               0
 73
               0
 74
               0
 75
               0
 76
               0
 77
               1
 78
               8
140
3.2000000476837158
141
2.5
142
0.0
143
0.03937007874016
144
1.0
145
0.0
146
1.0
147
1.0
170
               0
171
               4
172
               1
173
               0
174
               0
175
               0
176
               0
177
               0
178
               0
270
               2
271
               4
272
               4
273
               2
274
               4
275
               0
280
               0
281
               0
282
               0
283
               1
284
               0
285
               0
286
               0
287
               3
288
               1
340
17
  0
ENDTAB
  0
TABLE
  2
BLOCK_RECORD
  5
1
100
AcDbSymbolTable
 70
              10
  0
BLOCK_RECORD
  5
A
100
AcDbSymbolTableRecord
100
AcDbBlockTableRecord
  2
*MODEL_SPACE
  0
BLOCK_RECORD
  5
B
100
AcDbSymbolTableRecord
100
AcDbBlockTableRecord
  2
*PAPER_SPACE
  0
BLOCK_RECORD
  5
1E
100
AcDbSymbolTableRecord
100
AcDbBlockTableRecord
  2
EA10F6-1
  0
BLOCK_RECORD
  5
1F
100
AcDbSymbolTableRecord
100
AcDbBlockTableRecord
  2
EA10F6-2
  0
BLOCK_RECORD
  5
20
100
AcDbSymbolTableRecord
100
AcDbBlockTableRecord
  2
EA10F6-3
  0
BLOCK_RECORD
  5
21
100
AcDbSymbolTableRecord
100
AcDbBlockTableRecord
  2
EA10F6-4
  0
BLOCK_RECORD
  5
22
100
AcDbSymbolTableRecord
100
AcDbBlockTableRecord
  2
EA10F6-5
  0
BLOCK_RECORD
  5
23
100
AcDbSymbolTableRecord
100
AcDbBlockTableRecord
  2
EA10F6-6
  0
BLOCK_RECORD
  5
24
100
AcDbSymbolTableRecord
100
AcDbBlockTableRecord
  2
EA10F6-7
  0
BLOCK_RECORD
  5
25
100
AcDbSymbolTableRecord
100
AcDbBlockTableRecord
  2
EA10F6-8
  0
BLOCK_RECORD
  5
26
100
AcDbSymbolTableRecord
100
AcDbBlockTableRecord
  2
EA10F6-9
  0
BLOCK_RECORD
  5
48E
100
AcDbSymbolTableRecord
100
AcDbBlockTableRecord
  2
_OPEN30
  0
ENDTAB
  0
ENDSEC
  0
SECTION
  2
BLOCKS
  0
BLOCK
  5
D
100
AcDbEntity
  8
0
100
AcDbBlockBegin
  2
*MODEL_SPACE
 70
               0
 10
0.0
 20
0.0
 30
0.0
  3
*MODEL_SPACE
  1

  0
ENDBLK
  5
E
100
AcDbEntity
  8
0
100
AcDbBlockEnd
  0
BLOCK
  5
F
100
AcDbEntity
 67
               1
  8
0
100
AcDbBlockBegin
  2
*PAPER_SPACE
 70
               0
 10
0.0
 20
0.0
 30
0.0
  3
*PAPER_SPACE
  1

  0
ENDBLK
  5
10
100
AcDbEntity
 67
               1
  8
0
100
AcDbBlockEnd
  0
BLOCK
  5
27
100
AcDbEntity
  8
0
100
AcDbBlockBegin
  2
EA10F6-1
 70
               0
 10
0.0
 20
0.0
 30
0.0
  3
EA10F6-1
  1

  0
LINE
  5
29
100
AcDbEntity
  8
0
  6
CENTER
 62
               2
100
AcDbLine
 10
2.3700000000000045
 20
-22.599001430615189
 30
0.0
 11
5.0400000000000205
 21
-22.599001430615189
 31
0.0
  0
LINE
  5
2A
100
AcDbEntity
  8
0
  6
CONTINUOUS
 62
               7
100
AcDbLine
 10
8.6999999999999886
 20
-13.899999999999991
 30
0.0
 11
8.6999999999999886
 21
-24.899999999999991
 31
0.0
  0
LINE
  5
2B
100
AcDbEntity
  8
0
  6
CONTINUOUS
 62
               7
100
AcDbLine
 10
-1.3000000000000114
 20
-13.899999999999991
 30
0.0
 11
-1.3000000000000114
 21
-24.899999999999991
 31
0.0
  0
LINE
  5
2C
100
AcDbEntity
  8
0
  6
CONTINUOUS
 62
               7
100
AcDbLine
 10
5.6999999999999886
 20
-20.899999999999991
 30
0.0
 11
5.6999999999999886
 21
-24.899999999999991
 31
0.0
  0
LINE
  5
2D
100
AcDbEntity
  8
0
  6
CONTINUOUS
 62
               7
100
AcDbLine
 10
1.6999999999999886
 20
-20.899999999999991
 30
0.0
 11
1.6999999999999886
 21
-24.899999999999991
 31
0.0
  0
ARC
  5
2E
100
AcDbEntity
  8
0
  6
CONTINUOUS
 62
               7
100
AcDbCircle
 10
3.6999999999999886
 20
-20.899999999999991
 30
0.0
 40
2.0
100
AcDbArc
 50
0.0
 51
179.99999999999963
  0
LINE
  5
2F
100
AcDbEntity
  8
0
  6
CENTER
 62
               2
100
AcDbLine
 10
2.0
 20
-22.600000000000009
 30
0.0
 11
5.3999999999999773
 21
-22.600000000000009
 31
0.0
  0
CIRCLE
  5
30
100
AcDbEntity
  8
0
  6
CONTINUOUS
 62
               7
100
AcDbCircle
 10
3.6999999999999886
 20
-22.600000000000009
 30
0.0
 40
1.3000000000000012
  0
CIRCLE
  5
31
100
AcDbEntity
  8
0
  6
CONTINUOUS
 62
               7
100
AcDbCircle
 10
3.6999999999999886
 20
-22.600000000000009
 30
0.0
 40
1.1500000000000001
  0
CIRCLE
  5
32
100
AcDbEntity
  8
0
  6
CONTINUOUS
 62
               7
100
AcDbCircle
 10
3.6999999999999886
 20
-22.600000000000009
 30
0.0
 40
1.1000000000000001
  0
CIRCLE
  5
33
100
AcDbEntity
  8
0
  6
CONTINUOUS
 62
               7
100
AcDbCircle
 10
3.6999999999999886
 20
-22.600000000000009
 30
0.0
 40
0.75
  0
LINE
  5
34
100
AcDbEntity
  8
0
  6
CONTINUOUS
 62
               7
100
AcDbLine
 10
-1.3000000000000114
 20
-13.899999999999991
 30
0.0
 11
8.6999999999999886
 21
-13.899999999999991
 31
0.0
  0
CIRCLE
  5
35
100
AcDbEntity
  8
0
  6
CONTINUOUS
 62
               7
100
AcDbCircle
 10
0.0
 20
-0.0000000000000142
 30
0.0
 40
1.0
  0
ARC
  5
36
100
AcDbEntity
  8
0
  6
CONTINUOUS
 62
               7
100
AcDbCircle
 10
0.0
 20
-0.0000000000000142
 30
0.0
 40
1.6499999999999999
100
AcDbArc
 50
269.99999999999937
 51
89.999999999999801
  0
LINE
  5
37
100
AcDbEntity
  8
0
  6
CONTINUOUS
 62
               7
100
AcDbLine
 10
0.0
 20
1.6499999999999773
 30
0.0
 11
-1.3000000000000114
 21
1.6499999999999773
 31
0.0
  0
LINE
  5
38
100
AcDbEntity
  8
0
  6
CONTINUOUS
 62
               7
100
AcDbLine
 10
0.0
 20
-1.6500000000000199
 30
0.0
 11
-1.3000000000000114
 21
-1.6500000000000199
 31
0.0
  0
LINE
  5
39
100
AcDbEntity
  8
0
  6
CENTER
 62
               2
100
AcDbLine
 10
7.5838949302954006
 20
-1.6000000000000085
 30
0.0
 11
3.9224912070590676
 21
-1.6000000000000085
 31
0.0
  0
LINE
  5
3A
100
AcDbEntity
  8
0
  6
CENTER
 62
               2
100
AcDbLine
 10
9.5781662840152251
 20
-9.6000000000000085
 30
0.0
 11
5.2218337159847863
 21
-9.6000000000000085
 31
0.0
  0
LINE
  5
3B
100
AcDbEntity
  8
0
  6
CENTER
 62
               2
100
AcDbLine
 10
7.4000000000000057
 20
-11.778166284015228
 30
0.0
 11
7.4000000000000057
 21
-7.4218337159847891
 31
0.0
  0
CIRCLE
  5
3C
100
AcDbEntity
  8
0
  6
CONTINUOUS
 62
               7
100
AcDbCircle
 10
7.4000000000000057
 20
-9.6000000000000085
 30
0.0
 40
1.0
  0
LINE
  5
3D
100
AcDbEntity
  8
0
  6
CENTER
 62
               2
100
AcDbLine
 10
3.4959790593988203
 20
-8.0000000000000142
 30
0.0
 11
-0.2952400309144423
 21
-8.0000000000000142
 31
0.0
  0
CIRCLE
  5
3E
100
AcDbEntity
  8
0
  6
CONTINUOUS
 62
               2
100
AcDbCircle
 10
1.6999999999999886
 20
-8.0000000000000142
 30
0.0
 40
1.5
  0
CIRCLE
  5
3F
100
AcDbEntity
  8
0
  6
CONTINUOUS
 62
               7
100
AcDbCircle
 10
1.6999999999999886
 20
-8.0000000000000142
 30
0.0
 40
1.25
  0
LINE
  5
40
100
AcDbEntity
  8
0
  6
CENTER
 62
               2
100
AcDbLine
 10
1.6999999999999886
 20
-9.9088409314013717
 30
0.0
 11
1.6999999999999886
 21
-6.1176218410881376
 31
0.0
  0
ARC
  5
41
100
AcDbEntity
  8
0
  6
CONTINUOUS
 62
               7
100
AcDbCircle
 10
7.4000000000000057
 20
-9.6000000000000085
 30
0.0
 40
1.6499999999999999
100
AcDbArc
 50
89.999999999999815
 51
269.99999999999937
  0
LINE
  5
42
100
AcDbEntity
  8
0
  6
CONTINUOUS
 62
               7
100
AcDbLine
 10
7.4000000000000057
 20
-7.9500000000000171
 30
0.0
 11
8.6999999999999886
 21
-7.9500000000000171
 31
0.0
  0
LINE
  5
43
100
AcDbEntity
  8
0
  6
CONTINUOUS
 62
               7
100
AcDbLine
 10
7.4000000000000057
 20
-11.250000000000014
 30
0.0
 11
8.6999999999999886
 21
-11.250000000000014
 31
0.0
  0
LINE
  5
44
100
AcDbEntity
  8
0
  6
CENTER
 62
               2
100
AcDbLine
 10
0.0
 20
-2.1781662840152194
 30
0.0
 11
0.0
 21
2.1781662840152194
 31
0.0
  0
LINE
  5
45
100
AcDbEntity
  8
0
  6
CENTER
 62
               2
100
AcDbLine
 10
5.6999999999999886
 20
-3.806023608378041
 30
0.0
 11
5.6999999999999886
 21
0.5170115669600364
 31
0.0
  0
CIRCLE
  5
46
100
AcDbEntity
  8
0
  6
CONTINUOUS
 62
               7
100
AcDbCircle
 10
5.6999999999999886
 20
-1.6000000000000085
 30
0.0
 40
1.25
  0
CIRCLE
  5
47
100
AcDbEntity
  8
0
  6
CONTINUOUS
 62
               2
100
AcDbCircle
 10
5.6999999999999886
 20
-1.6000000000000085
 30
0.0
 40
1.5
  0
LINE
  5
48
100
AcDbEntity
  8
0
  6
CONTINUOUS
 62
               7
100
AcDbLine
 10
8.6999999999999886
 20
-13.900000000000006
 30
0.0
 11
8.6999999999999886
 21
4.2999999999999829
 31
0.0
  0
LINE
  5
49
100
AcDbEntity
  8
0
  6
CONTINUOUS
 62
               7
100
AcDbLine
 10
-1.3000000000000114
 20
-13.900000000000006
 30
0.0
 11
-1.3000000000000114
 21
4.2999999999999829
 31
0.0
  0
LINE
  5
4A
100
AcDbEntity
  8
0
  6
CONTINUOUS
 62
               7
100
AcDbLine
 10
8.6999999999999886
 20
4.2999999999999829
 30
0.0
 11
-1.3000000000000114
 21
4.2999999999999829
 31
0.0
  0
CIRCLE
  5
4B
100
AcDbEntity
  8
0
  6
CONTINUOUS
 62
               7
100
AcDbCircle
 10
3.6999999999999886
 20
13.000000000000014
 30
0.0
 40
0.75
  0
CIRCLE
  5
4C
100
AcDbEntity
  8
0
  6
CONTINUOUS
 62
               7
100
AcDbCircle
 10
3.6999999999999886
 20
13.000000000000014
 30
0.0
 40
1.1000000000000001
  0
CIRCLE
  5
4D
100
AcDbEntity
  8
0
  6
CONTINUOUS
 62
               7
100
AcDbCircle
 10
3.6999999999999886
 20
13.000000000000014
 30
0.0
 40
1.1500000000000001
  0
CIRCLE
  5
4E
100
AcDbEntity
  8
0
  6
CONTINUOUS
 62
               7
100
AcDbCircle
 10
3.6999999999999886
 20
13.000000000000014
 30
0.0
 40
1.3000000000000012
  0
LINE
  5
4F
100
AcDbEntity
  8
0
  6
CENTER
 62
               2
100
AcDbLine
 10
5.3999999999999773
 20
13.000000000000014
 30
0.0
 11
2.0
 21
13.000000000000014
 31
0.0
  0
ARC
  5
50
100
AcDbEntity
  8
0
  6
CONTINUOUS
 62
               7
100
AcDbCircle
 10
3.6999999999999886
 20
11.299999999999997
 30
0.0
 40
2.0
100
AcDbArc
 50
179.99999999999963
 51
0.0
  0
LINE
  5
51
100
AcDbEntity
  8
0
  6
CONTINUOUS
 62
               7
100
AcDbLine
 10
5.6999999999999886
 20
11.299999999999997
 30
0.0
 11
5.6999999999999886
 21
15.299999999999997
 31
0.0
  0
LINE
  5
52
100
AcDbEntity
  8
0
  6
CONTINUOUS
 62
               7
100
AcDbLine
 10
1.6999999999999886
 20
11.299999999999997
 30
0.0
 11
1.6999999999999886
 21
15.299999999999997
 31
0.0
  0
LINE
  5
53
100
AcDbEntity
  8
0
  6
CONTINUOUS
 62
               7
100
AcDbLine
 10
8.6999999999999886
 20
4.2999999999999829
 30
0.0
 11
8.6999999999999886
 21
15.299999999999997
 31
0.0
  0
LINE
  5
54
100
AcDbEntity
  8
0
  6
CONTINUOUS
 62
               7
100
AcDbLine
 10
-1.3000000000000114
 20
4.2999999999999829
 30
0.0
 11
-1.3000000000000114
 21
15.299999999999997
 31
0.0
  0
LINE
  5
55
100
AcDbEntity
  8
0
  6
CENTER
 62
               2
100
AcDbLine
 10
5.0300000000000011
 20
12.999001430615166
 30
0.0
 11
2.3600000000000136
 21
12.999001430615166
 31
0.0
  0
LINE
  5
56
100
AcDbEntity
  8
0
  6
CONTINUOUS
 62
               7
100
AcDbLine
 10
6.8000000000000114
 20
15.299999999999997
 30
0.0
 11
6.8000000000000114
 21
11.299999999999997
 31
0.0
  0
LINE
  5
57
100
AcDbEntity
  8
0
  6
CONTINUOUS
 62
               7
100
AcDbLine
 10
0.6000000000000227
 20
15.299999999999997
 30
0.0
 11
0.6000000000000227
 21
11.299999999999997
 31
0.0
  0
ARC
  5
58
100
AcDbEntity
  8
0
  6
CONTINUOUS
 62
               7
100
AcDbCircle
 10
3.6999999999999886
 20
11.299999999999997
 30
0.0
 40
3.0999999999999943
100
AcDbArc
 50
179.99999999999963
 51
0.0
  0
ARC
  5
59
100
AcDbEntity
  8
0
  6
CONTINUOUS
 62
               7
100
AcDbCircle
 10
3.6999999999999886
 20
-20.899999999999991
 30
0.0
 40
3.0999999999999801
100
AcDbArc
 50
0.0
 51
179.99999999999963
  0
LINE
  5
5A
100
AcDbEntity
  8
0
  6
CONTINUOUS
 62
               7
100
AcDbLine
 10
0.5999999999999943
 20
-20.899999999999991
 30
0.0
 11
0.5999999999999943
 21
-24.899999999999991
 31
0.0
  0
LINE
  5
5B
100
AcDbEntity
  8
0
  6
CONTINUOUS
 62
               7
100
AcDbLine
 10
6.7999999999999829
 20
-20.899999999999991
 30
0.0
 11
6.7999999999999829
 21
-24.899999999999991
 31
0.0
  0
LINE
  5
5C
100
AcDbEntity
  8
0
  6
CENTER
 62
               2
100
AcDbLine
 10
2.1781662840152194
 20
0.0
 30
0.0
 11
-2.1781662840152194
 21
0.0
 31
0.0
  0
LINE
  5
5D
100
AcDbEntity
  8
0
  6
CONTINUOUS
 62
               4
100
AcDbLine
 10
4.699981689453125
 20
53.792929270933371
 30
0.0
 11
5.199981689453125
 21
53.792929270933371
 31
0.0
  0
LINE
  5
5E
100
AcDbEntity
  8
0
  6
CONTINUOUS
 62
               4
100
AcDbLine
 10
2.199981689453125
 20
53.792929270933371
 30
0.0
 11
2.699981689453125
 21
53.792929270933371
 31
0.0
  0
ARC
  5
5F
100
AcDbEntity
  8
0
  6
CONTINUOUS
 62
               4
100
AcDbCircle
 10
8.2002968478641947
 20
15.799703152135791
 30
0.0
 40
0.4997032403068001
100
AcDbArc
 50
269.96596353714654
 51
0.0340364628527164
  0
LINE
  5
60
100
AcDbEntity
  8
0
  6
CONTINUOUS
 62
               4
100
AcDbLine
 10
-1.3000000000000114
 20
15.299999999999997
 30
0.0
 11
8.6999999999999886
 21
15.299999999999997
 31
0.0
  0
LINE
  5
61
100
AcDbEntity
  8
0
  6
CONTINUOUS
 62
               4
100
AcDbLine
 10
8.6999999999999886
 20
37.800000000000011
 30
0.0
 11
8.6999999999999886
 21
15.299999999999997
 31
0.0
  0
LINE
  5
62
100
AcDbEntity
  8
0
  6
CONTINUOUS
 62
               4
100
AcDbLine
 10
-1.2999999709108465
 20
37.80000000426935
 30
0.0
 11
-0.050018310546875
 21
37.80000000426935
 31
0.0
  0
ARC
  5
63
100
AcDbEntity
  8
0
  6
CONTINUOUS
 62
               4
100
AcDbCircle
 10
7.9040951466581646
 20
37.200095150927552
 30
0.0
 40
0.5999048608870732
100
AcDbArc
 50
359.99091272245295
 51
90.009087277546172
  0
ARC
  5
64
100
AcDbEntity
  8
0
  6
CONTINUOUS
 62
               4
100
AcDbCircle
 10
-0.8000000000000114
 20
37.200000004269327
 30
0.0
 40
0.5
100
AcDbArc
 50
89.999999999999815
 51
179.99999999999963
  0
LINE
  5
65
100
AcDbEntity
  8
0
  6
CONTINUOUS
 62
               4
100
AcDbLine
 10
-0.050018310546875
 20
37.700000004269327
 30
0.0
 11
-0.8000000000000114
 21
37.700000004269327
 31
0.0
  0
LINE
  5
66
100
AcDbEntity
  8
0
  6
CONTINUOUS
 62
               4
100
AcDbLine
 10
8.6999999999999886
 20
36.200000004269327
 30
0.0
 11
7.449981689453125
 21
36.200000004269327
 31
0.0
  0
LINE
  5
67
100
AcDbEntity
  8
0
  6
CONTINUOUS
 62
               4
100
AcDbLine
 10
8.6999999999999886
 20
37.80000000426935
 30
0.0
 11
7.449981689453125
 21
37.80000000426935
 31
0.0
  0
LINE
  5
68
100
AcDbEntity
  8
0
  6
CONTINUOUS
 62
               4
100
AcDbLine
 10
8.6999999999999886
 20
37.200000004269327
 30
0.0
 11
7.449981689453125
 21
37.200000004269327
 31
0.0
  0
LINE
  5
69
100
AcDbEntity
  8
0
  6
CONTINUOUS
 62
               4
100
AcDbLine
 10
-1.3000000000000114
 20
37.80000000426935
 30
0.0
 11
-1.3000000000000114
 21
15.299999999999997
 31
0.0
  0
LINE
  5
6A
100
AcDbEntity
  8
0
  6
CONTINUOUS
 62
               4
100
AcDbLine
 10
-1.300018310546875
 20
34.799999999999898
 30
0.0
 11
-0.800018310546875
 21
34.799999999999898
 31
0.0
  0
LINE
  5
6B
100
AcDbEntity
  8
0
  6
CONTINUOUS
 62
               4
100
AcDbLine
 10
-0.800018310546875
 20
34.799999999999898
 30
0.0
 11
0.949981689453125
 21
34.799999999999898
 31
0.0
  0
LINE
  5
6C
100
AcDbEntity
  8
0
  6
CONTINUOUS
 62
               4
100
AcDbLine
 10
8.4699816894531068
 20
34.299999999999898
 30
0.0
 11
8.4699816894531068
 21
17.991919190653846
 31
0.0
  0
LINE
  5
6D
100
AcDbEntity
  8
0
  6
CONTINUOUS
 62
               4
100
AcDbLine
 10
-1.0700183105469137
 20
34.299999999999898
 30
0.0
 11
-1.0700183105469137
 21
17.991919190673116
 31
0.0
  0
LINE
  5
6E
100
AcDbEntity
  8
0
  6
CONTINUOUS
 62
               4
100
AcDbLine
 10
-0.5700183105469137
 20
17.491919190669407
 30
0.0
 11
7.9699816894531068
 21
17.491919190669407
 31
0.0
  0
LINE
  5
6F
100
AcDbEntity
  8
0
  6
CONTINUOUS
 62
               4
100
AcDbLine
 10
8.199981689453125
 20
34.799999999999898
 30
0.0
 11
8.699981689453125
 21
34.799999999999898
 31
0.0
  0
LINE
  5
70
100
AcDbEntity
  8
0
  6
CONTINUOUS
 62
               4
100
AcDbLine
 10
0.949981689453125
 20
26.799999999999898
 30
0.0
 11
6.449981689453125
 21
26.799999999999898
 31
0.0
  0
LINE
  5
71
100
AcDbEntity
  8
0
  6
CONTINUOUS
 62
               4
100
AcDbLine
 10
6.449981689453125
 20
34.799999999999898
 30
0.0
 11
8.199981689453125
 21
34.799999999999898
 31
0.0
  0
LINE
  5
72
100
AcDbEntity
  8
0
  6
CONTINUOUS
 62
               4
100
AcDbLine
 10
0.949981689453125
 20
42.799999999999898
 30
0.0
 11
0.949981689453125
 21
26.799999999999898
 31
0.0
  0
LINE
  5
73
100
AcDbEntity
  8
0
  6
CONTINUOUS
 62
               4
100
AcDbLine
 10
-0.050018310546875
 20
42.799999999999898
 30
0.0
 11
-0.050018310546875
 21
34.799999999999898
 31
0.0
  0
LINE
  5
74
100
AcDbEntity
  8
0
  6
CONTINUOUS
 62
               4
100
AcDbLine
 10
0.949981689453125
 20
41.299999999999898
 30
0.0
 11
6.449981689453125
 21
41.299999999999898
 31
0.0
  0
LINE
  5
75
100
AcDbEntity
  8
0
  6
CONTINUOUS
 62
               4
100
AcDbLine
 10
6.449981689453125
 20
42.799999999999898
 30
0.0
 11
6.449981689453125
 21
26.799999999999898
 31
0.0
  0
LINE
  5
76
100
AcDbEntity
  8
0
  6
CONTINUOUS
 62
               4
100
AcDbLine
 10
7.449981689453125
 20
42.799999999999898
 30
0.0
 11
7.449981689453125
 21
34.799999999999898
 31
0.0
  0
LINE
  5
77
100
AcDbEntity
  8
0
  6
CONTINUOUS
 62
               4
100
AcDbLine
 10
-0.050018310546875
 20
42.799999999999898
 30
0.0
 11
7.449981689453125
 21
42.799999999999898
 31
0.0
  0
ARC
  5
78
100
AcDbEntity
  8
0
  6
CONTINUOUS
 62
               4
100
AcDbCircle
 10
-0.5688300266416491
 20
17.993107474574686
 30
0.0
 40
0.5011896925741138
100
AcDbArc
 50
180.13584420715239
 51
269.86415579284636
  0
ARC
  5
79
100
AcDbEntity
  8
0
  6
CONTINUOUS
 62
               4
100
AcDbCircle
 10
7.9687781833413851
 20
17.993122696781143
 30
0.0
 40
0.5012049510586274
100
AcDbArc
 50
270.13758021931233
 51
359.86241978068648
  0
ARC
  5
7A
100
AcDbEntity
  8
0
  6
CONTINUOUS
 62
               4
100
AcDbCircle
 10
7.9699792479738676
 20
34.299997558520602
 30
0.0
 40
0.500002441485227
100
AcDbArc
 50
0.0002797715494944
 51
89.999720228450514
  0
ARC
  5
7B
100
AcDbEntity
  8
0
  6
CONTINUOUS
 62
               4
100
AcDbCircle
 10
-0.5700311278846471
 20
34.300012817337631
 30
0.0
 40
0.4999871828265524
100
AcDbArc
 50
89.998531203634272
 51
180.00146879636483
  0
ARC
  5
7C
100
AcDbEntity
  8
0
  6
CONTINUOUS
 62
               4
100
AcDbCircle
 10
-0.800028991678289
 20
34.300010681131255
 30
0.0
 40
0.4999893189827007
100
AcDbArc
 50
89.998776006354774
 51
180.00122399364432
  0
ARC
  5
7D
100
AcDbEntity
  8
0
  6
CONTINUOUS
 62
               4
100
AcDbCircle
 10
8.1999771117023101
 20
34.299995422249083
 30
0.0
 40
0.5000045777717621
100
AcDbArc
 50
0.0005245667992071
 51
89.9994754332008
  0
ARC
  5
7E
100
AcDbEntity
  8
0
  6
CONTINUOUS
 62
               4
100
AcDbCircle
 10
-0.8000228880695204
 20
15.799995422477238
 30
0.0
 40
0.4999954224983215
100
AcDbArc
 50
179.99947544974256
 51
270.00052455025656
  0
ARC
  5
7F
100
AcDbEntity
  8
0
  6
CONTINUOUS
 62
               4
100
AcDbCircle
 10
8.1999710082798174
 20
15.800010681173191
 30
0.0
 40
0.5000106812873828
100
AcDbArc
 50
270.00122394615329
 51
359.9987760538454
  0
LINE
  5
80
100
AcDbEntity
  8
0
  6
CONTINUOUS
 62
               4
100
AcDbLine
 10
5.5999816894531023
 20
50.29292927293335
 30
0.0
 11
5.5999816894531023
 21
46.799999999999898
 31
0.0
  0
LINE
  5
81
100
AcDbEntity
  8
0
  6
CONTINUOUS
 62
               4
100
AcDbLine
 10
4.2999816894530909
 20
50.29292927293335
 30
0.0
 11
4.2999816894530909
 21
47.14999999999992
 31
0.0
  0
LINE
  5
82
100
AcDbEntity
  8
0
  6
CONTINUOUS
 62
               4
100
AcDbLine
 10
2.699981689453125
 20
53.792929270933371
 30
0.0
 11
2.699981689453125
 21
50.29292927293335
 31
0.0
  0
LINE
  5
83
100
AcDbEntity
  8
0
  6
CONTINUOUS
 62
               4
100
AcDbLine
 10
2.199981689453125
 20
53.792929270933371
 30
0.0
 11
2.199981689453125
 21
50.29292927293335
 31
0.0
  0
LINE
  5
84
100
AcDbEntity
  8
0
  6
CONTINUOUS
 62
               4
100
AcDbLine
 10
5.5999816894531023
 20
45.769999999999868
 30
0.0
 11
5.5999816894531023
 21
42.799999999999898
 31
0.0
  0
LINE
  5
85
100
AcDbEntity
  8
0
  6
CONTINUOUS
 62
               4
100
AcDbLine
 10
4.2999816894530909
 20
46.119999999999891
 30
0.0
 11
4.2999816894530909
 21
42.799999999999898
 31
0.0
  0
LINE
  5
86
100
AcDbEntity
  8
0
  6
CONTINUOUS
 62
               4
100
AcDbLine
 10
1.7999816894530909
 20
46.789999999999907
 30
0.0
 11
1.7999816894530909
 21
42.799999999999898
 31
0.0
  0
LINE
  5
87
100
AcDbEntity
  8
0
  6
CONTINUOUS
 62
               4
100
AcDbLine
 10
3.0999816894531023
 20
50.29292927293335
 30
0.0
 11
3.0999816894531023
 21
47.469999999999914
 31
0.0
  0
LINE
  5
88
100
AcDbEntity
  8
0
  6
CONTINUOUS
 62
               4
100
AcDbLine
 10
1.7999816894530909
 20
50.29292927293335
 30
0.0
 11
1.7999816894530909
 21
47.819999999999879
 31
0.0
  0
LINE
  5
89
100
AcDbEntity
  8
0
  6
CONTINUOUS
 62
               4
100
AcDbLine
 10
5.199981689453125
 20
53.792929270933371
 30
0.0
 11
5.199981689453125
 21
50.29292927293335
 31
0.0
  0
LINE
  5
8A
100
AcDbEntity
  8
0
  6
CONTINUOUS
 62
               4
100
AcDbLine
 10
4.699981689453125
 20
53.792929270933371
 30
0.0
 11
4.699981689453125
 21
50.29292927293335
 31
0.0
  0
LINE
  5
8B
100
AcDbEntity
  8
0
  6
CONTINUOUS
 62
               4
100
AcDbLine
 10
3.0999816894531023
 20
46.439999999999884
 30
0.0
 11
3.0999816894531023
 21
42.799999999999898
 31
0.0
  0
LINE
  5
8C
100
AcDbEntity
  8
0
  6
CONTINUOUS
 62
               4
100
AcDbLine
 10
1.7999816894530909
 20
50.29292927293335
 30
0.0
 11
3.0999816894531023
 21
50.29292927293335
 31
0.0
  0
LINE
  5
8D
100
AcDbEntity
  8
0
  6
CONTINUOUS
 62
             200
100
AcDbLine
 10
-0.050018310546875
 20
47.279999999999916
 30
0.0
 11
7.449981689453125
 21
45.269999999999868
 31
0.0
  0
LINE
  5
8E
100
AcDbEntity
  8
0
  6
CONTINUOUS
 62
             200
100
AcDbLine
 10
-0.050018310546875
 20
48.319999999999879
 30
0.0
 11
7.449981689453125
 21
46.309999999999889
 31
0.0
  0
LINE
  5
8F
100
AcDbEntity
  8
0
  6
CONTINUOUS
 62
               4
100
AcDbLine
 10
4.2999816894530909
 20
50.29292927293335
 30
0.0
 11
5.5999816894531023
 21
50.29292927293335
 31
0.0
  0
LINE
  5
91
100
AcDbEntity
  8
0
  6
PHANTOM
 62
             200
100
AcDbLine
 10
5.199981689453125
 20
22.799999999999898
 30
0.0
 11
5.199981689453125
 21
20.799999999999898
 31
0.0
  0
LINE
  5
92
100
AcDbEntity
  8
0
  6
PHANTOM
 62
             200
100
AcDbLine
 10
2.199981689453125
 20
22.799999999999898
 30
0.0
 11
2.199981689453125
 21
20.799999999999898
 31
0.0
  0
LINE
  5
93
100
AcDbEntity
  8
0
  6
PHANTOM
 62
             200
100
AcDbLine
 10
2.199981689453125
 20
20.799999999999898
 30
0.0
 11
5.199981689453125
 21
20.799999999999898
 31
0.0
  0
LINE
  5
94
100
AcDbEntity
  8
0
  6
PHANTOM
 62
             200
100
AcDbLine
 10
2.199981689453125
 20
22.799999999999898
 30
0.0
 11
5.199981689453125
 21
22.799999999999898
 31
0.0
  0
LINE
  5
95
100
AcDbEntity
  8
0
  6
CONTINUOUS
 62
               4
100
AcDbLine
 10
2.7000183105468523
 20
-63.392929270933351
 30
0.0
 11
2.2000183105468523
 21
-63.392929270933351
 31
0.0
  0
LINE
  5
96
100
AcDbEntity
  8
0
  6
CONTINUOUS
 62
               4
100
AcDbLine
 10
5.2000183105468523
 20
-63.392929270933351
 30
0.0
 11
4.7000183105468523
 21
-63.392929270933351
 31
0.0
  0
ARC
  5
97
100
AcDbEntity
  8
0
  6
CONTINUOUS
 62
               4
100
AcDbCircle
 10
-0.8002968478642174
 20
-25.399703152135785
 30
0.0
 40
0.4997032403068001
100
AcDbArc
 50
89.965963537146934
 51
180.03403646285233
  0
LINE
  5
98
100
AcDbEntity
  8
0
  6
CONTINUOUS
 62
               4
100
AcDbLine
 10
8.6999999999999886
 20
-24.899999999999991
 30
0.0
 11
-1.3000000000000114
 21
-24.899999999999991
 31
0.0
  0
LINE
  5
99
100
AcDbEntity
  8
0
  6
CONTINUOUS
 62
               4
100
AcDbLine
 10
-1.3000000000000114
 20
-47.399999999999991
 30
0.0
 11
-1.3000000000000114
 21
-24.899999999999991
 31
0.0
  0
LINE
  5
9A
100
AcDbEntity
  8
0
  6
CONTINUOUS
 62
               4
100
AcDbLine
 10
8.6999999709108238
 20
-47.400000004269359
 30
0.0
 11
7.4500183105468523
 21
-47.400000004269359
 31
0.0
  0
ARC
  5
9B
100
AcDbEntity
  8
0
  6
CONTINUOUS
 62
               4
100
AcDbCircle
 10
-0.5040951466581873
 20
-46.800095150927532
 30
0.0
 40
0.5999048608870732
100
AcDbArc
 50
179.99091272245337
 51
270.00908727754575
  0
ARC
  5
9C
100
AcDbEntity
  8
0
  6
CONTINUOUS
 62
               4
100
AcDbCircle
 10
8.1999999999999886
 20
-46.800000004269336
 30
0.0
 40
0.5
100
AcDbArc
 50
269.99999999999937
 51
0.0
  0
LINE
  5
9D
100
AcDbEntity
  8
0
  6
CONTINUOUS
 62
               4
100
AcDbLine
 10
7.4500183105468523
 20
-47.300000004269336
 30
0.0
 11
8.1999999999999886
 21
-47.300000004269336
 31
0.0
  0
LINE
  5
9E
100
AcDbEntity
  8
0
  6
CONTINUOUS
 62
               4
100
AcDbLine
 10
-1.3000000000000114
 20
-45.800000004269336
 30
0.0
 11
-0.0499816894531477
 21
-45.800000004269336
 31
0.0
  0
LINE
  5
9F
100
AcDbEntity
  8
0
  6
CONTINUOUS
 62
               4
100
AcDbLine
 10
-1.3000000000000114
 20
-47.400000004269359
 30
0.0
 11
-0.0499816894531477
 21
-47.400000004269359
 31
0.0
  0
LINE
  5
A0
100
AcDbEntity
  8
0
  6
CONTINUOUS
 62
               4
100
AcDbLine
 10
-1.3000000000000114
 20
-46.800000004269336
 30
0.0
 11
-0.0499816894531477
 21
-46.800000004269336
 31
0.0
  0
LINE
  5
A1
100
AcDbEntity
  8
0
  6
CONTINUOUS
 62
               4
100
AcDbLine
 10
8.6999999999999886
 20
-47.400000004269359
 30
0.0
 11
8.6999999999999886
 21
-24.899999999999991
 31
0.0
  0
LINE
  5
A2
100
AcDbEntity
  8
0
  6
CONTINUOUS
 62
               4
100
AcDbLine
 10
8.7000183105468523
 20
-44.399999999999878
 30
0.0
 11
8.2000183105468523
 21
-44.399999999999878
 31
0.0
  0
LINE
  5
A3
100
AcDbEntity
  8
0
  6
CONTINUOUS
 62
               4
100
AcDbLine
 10
8.2000183105468523
 20
-44.399999999999878
 30
0.0
 11
6.4500183105468523
 21
-44.399999999999878
 31
0.0
  0
LINE
  5
A4
100
AcDbEntity
  8
0
  6
CONTINUOUS
 62
               4
100
AcDbLine
 10
-1.0699816894531295
 20
-43.899999999999878
 30
0.0
 11
-1.0699816894531295
 21
-27.591919190653826
 31
0.0
  0
LINE
  5
A5
100
AcDbEntity
  8
0
  6
CONTINUOUS
 62
               4
100
AcDbLine
 10
8.4700183105468909
 20
-43.899999999999878
 30
0.0
 11
8.4700183105468909
 21
-27.591919190673124
 31
0.0
  0
LINE
  5
A6
100
AcDbEntity
  8
0
  6
CONTINUOUS
 62
               4
100
AcDbLine
 10
7.9700183105468909
 20
-27.091919190669401
 30
0.0
 11
-0.5699816894531296
 21
-27.091919190669401
 31
0.0
  0
LINE
  5
A7
100
AcDbEntity
  8
0
  6
CONTINUOUS
 62
               4
100
AcDbLine
 10
-0.7999816894531477
 20
-44.399999999999878
 30
0.0
 11
-1.2999816894531477
 21
-44.399999999999878
 31
0.0
  0
LINE
  5
A8
100
AcDbEntity
  8
0
  6
CONTINUOUS
 62
               4
100
AcDbLine
 10
6.4500183105468523
 20
-36.399999999999878
 30
0.0
 11
0.9500183105468523
 21
-36.399999999999878
 31
0.0
  0
LINE
  5
A9
100
AcDbEntity
  8
0
  6
CONTINUOUS
 62
               4
100
AcDbLine
 10
0.9500183105468523
 20
-44.399999999999878
 30
0.0
 11
-0.7999816894531477
 21
-44.399999999999878
 31
0.0
  0
LINE
  5
AA
100
AcDbEntity
  8
0
  6
CONTINUOUS
 62
               4
100
AcDbLine
 10
6.4500183105468523
 20
-52.399999999999878
 30
0.0
 11
6.4500183105468523
 21
-36.399999999999878
 31
0.0
  0
LINE
  5
AB
100
AcDbEntity
  8
0
  6
CONTINUOUS
 62
               4
100
AcDbLine
 10
7.4500183105468523
 20
-52.399999999999878
 30
0.0
 11
7.4500183105468523
 21
-44.399999999999878
 31
0.0
  0
LINE
  5
AC
100
AcDbEntity
  8
0
  6
CONTINUOUS
 62
               4
100
AcDbLine
 10
6.4500183105468523
 20
-50.899999999999878
 30
0.0
 11
0.9500183105468523
 21
-50.899999999999878
 31
0.0
  0
LINE
  5
AD
100
AcDbEntity
  8
0
  6
CONTINUOUS
 62
               4
100
AcDbLine
 10
0.9500183105468523
 20
-52.399999999999878
 30
0.0
 11
0.9500183105468523
 21
-36.399999999999878
 31
0.0
  0
LINE
  5
AE
100
AcDbEntity
  8
0
  6
CONTINUOUS
 62
               4
100
AcDbLine
 10
-0.0499816894531477
 20
-52.399999999999878
 30
0.0
 11
-0.0499816894531477
 21
-44.399999999999878
 31
0.0
  0
LINE
  5
AF
100
AcDbEntity
  8
0
  6
CONTINUOUS
 62
               4
100
AcDbLine
 10
7.4500183105468523
 20
-52.399999999999878
 30
0.0
 11
-0.0499816894531477
 21
-52.399999999999878
 31
0.0
  0
ARC
  5
B0
100
AcDbEntity
  8
0
  6
CONTINUOUS
 62
               4
100
AcDbCircle
 10
7.9688300266416263
 20
-27.593107474574666
 30
0.0
 40
0.5011896925741138
100
AcDbArc
 50
0.1358442071527786
 51
89.864155792846745
  0
ARC
  5
B1
100
AcDbEntity
  8
0
  6
CONTINUOUS
 62
               4
100
AcDbCircle
 10
-0.5687781833414078
 20
-27.593122696781151
 30
0.0
 40
0.5012049510586274
100
AcDbArc
 50
90.137580219312724
 51
179.86241978068688
  0
ARC
  5
B2
100
AcDbEntity
  8
0
  6
CONTINUOUS
 62
               4
100
AcDbCircle
 10
-0.5699792479738903
 20
-43.899997558520582
 30
0.0
 40
0.500002441485227
100
AcDbArc
 50
180.00027977154909
 51
269.99972022845009
  0
ARC
  5
B3
100
AcDbEntity
  8
0
  6
CONTINUOUS
 62
               4
100
AcDbCircle
 10
7.9700311278846243
 20
-43.900012817337611
 30
0.0
 40
0.4999871828265524
100
AcDbArc
 50
269.99853120363389
 51
0.0014687963652481
  0
ARC
  5
B4
100
AcDbEntity
  8
0
  6
CONTINUOUS
 62
               4
100
AcDbCircle
 10
8.2000289916782663
 20
-43.900010681131235
 30
0.0
 40
0.4999893189827007
100
AcDbArc
 50
269.99877600635432
 51
0.0012239936446972
  0
ARC
  5
B5
100
AcDbEntity
  8
0
  6
CONTINUOUS
 62
               4
100
AcDbCircle
 10
-0.7999771117023329
 20
-43.899995422249063
 30
0.0
 40
0.5000045777717621
100
AcDbArc
 50
180.00052456679882
 51
269.99947543320042
  0
ARC
  5
B6
100
AcDbEntity
  8
0
  6
CONTINUOUS
 62
               4
100
AcDbCircle
 10
8.2000228880694976
 20
-25.399995422477232
 30
0.0
 40
0.4999954224983215
100
AcDbArc
 50
359.99947544974214
 51
90.000524550256955
  0
ARC
  5
B7
100
AcDbEntity
  8
0
  6
CONTINUOUS
 62
               4
100
AcDbCircle
 10
-0.7999710082798401
 20
-25.400010681173185
 30
0.0
 40
0.5000106812873828
100
AcDbArc
 50
90.001223946153672
 51
179.99877605384583
  0
LINE
  5
B8
100
AcDbEntity
  8
0
  6
CONTINUOUS
 62
               4
100
AcDbLine
 10
1.800018310546875
 20
-59.89292927293333
 30
0.0
 11
1.800018310546875
 21
-56.399999999999878
 31
0.0
  0
LINE
  5
B9
100
AcDbEntity
  8
0
  6
CONTINUOUS
 62
               4
100
AcDbLine
 10
3.1000183105468864
 20
-59.89292927293333
 30
0.0
 11
3.1000183105468864
 21
-56.749999999999901
 31
0.0
  0
LINE
  5
BA
100
AcDbEntity
  8
0
  6
CONTINUOUS
 62
               4
100
AcDbLine
 10
4.7000183105468523
 20
-63.392929270933351
 30
0.0
 11
4.7000183105468523
 21
-59.89292927293333
 31
0.0
  0
LINE
  5
BB
100
AcDbEntity
  8
0
  6
CONTINUOUS
 62
               4
100
AcDbLine
 10
5.2000183105468523
 20
-63.392929270933351
 30
0.0
 11
5.2000183105468523
 21
-59.89292927293333
 31
0.0
  0
LINE
  5
BC
100
AcDbEntity
  8
0
  6
CONTINUOUS
 62
               4
100
AcDbLine
 10
1.800018310546875
 20
-55.369999999999848
 30
0.0
 11
1.800018310546875
 21
-52.399999999999878
 31
0.0
  0
LINE
  5
BD
100
AcDbEntity
  8
0
  6
CONTINUOUS
 62
               4
100
AcDbLine
 10
3.1000183105468864
 20
-55.719999999999871
 30
0.0
 11
3.1000183105468864
 21
-52.399999999999878
 31
0.0
  0
LINE
  5
BE
100
AcDbEntity
  8
0
  6
CONTINUOUS
 62
               4
100
AcDbLine
 10
5.6000183105468864
 20
-56.389999999999887
 30
0.0
 11
5.6000183105468864
 21
-52.399999999999878
 31
0.0
  0
LINE
  5
BF
100
AcDbEntity
  8
0
  6
CONTINUOUS
 62
               4
100
AcDbLine
 10
4.300018310546875
 20
-59.89292927293333
 30
0.0
 11
4.300018310546875
 21
-57.069999999999894
 31
0.0
  0
LINE
  5
C0
100
AcDbEntity
  8
0
  6
CONTINUOUS
 62
               4
100
AcDbLine
 10
5.6000183105468864
 20
-59.89292927293333
 30
0.0
 11
5.6000183105468864
 21
-57.41999999999986
 31
0.0
  0
LINE
  5
C1
100
AcDbEntity
  8
0
  6
CONTINUOUS
 62
               4
100
AcDbLine
 10
2.2000183105468523
 20
-63.392929270933351
 30
0.0
 11
2.2000183105468523
 21
-59.89292927293333
 31
0.0
  0
LINE
  5
C2
100
AcDbEntity
  8
0
  6
CONTINUOUS
 62
               4
100
AcDbLine
 10
2.7000183105468523
 20
-63.392929270933351
 30
0.0
 11
2.7000183105468523
 21
-59.89292927293333
 31
0.0
  0
LINE
  5
C3
100
AcDbEntity
  8
0
  6
CONTINUOUS
 62
               4
100
AcDbLine
 10
4.300018310546875
 20
-56.039999999999864
 30
0.0
 11
4.300018310546875
 21
-52.399999999999878
 31
0.0
  0
LINE
  5
C4
100
AcDbEntity
  8
0
  6
CONTINUOUS
 62
               4
100
AcDbLine
 10
5.6000183105468864
 20
-59.89292927293333
 30
0.0
 11
4.300018310546875
 21
-59.89292927293333
 31
0.0
  0
LINE
  5
C5
100
AcDbEntity
  8
0
  6
CONTINUOUS
 62
             200
100
AcDbLine
 10
7.4500183105468523
 20
-56.879999999999896
 30
0.0
 11
-0.0499816894531477
 21
-54.869999999999848
 31
0.0
  0
LINE
  5
C6
100
AcDbEntity
  8
0
  6
CONTINUOUS
 62
             200
100
AcDbLine
 10
7.4500183105468523
 20
-57.91999999999986
 30
0.0
 11
-0.0499816894531477
 21
-55.909999999999869
 31
0.0
  0
LINE
  5
C7
100
AcDbEntity
  8
0
  6
CONTINUOUS
 62
               4
100
AcDbLine
 10
3.1000183105468864
 20
-59.89292927293333
 30
0.0
 11
1.800018310546875
 21
-59.89292927293333
 31
0.0
  0
LINE
  5
C8
100
AcDbEntity
  8
0
  6
PHANTOM
 62
             200
100
AcDbLine
 10
2.2000183105468523
 20
-32.399999999999878
 30
0.0
 11
2.2000183105468523
 21
-30.399999999999878
 31
0.0
  0
LINE
  5
C9
100
AcDbEntity
  8
0
  6
PHANTOM
 62
             200
100
AcDbLine
 10
5.2000183105468523
 20
-32.399999999999878
 30
0.0
 11
5.2000183105468523
 21
-30.399999999999878
 31
0.0
  0
LINE
  5
CA
100
AcDbEntity
  8
0
  6
PHANTOM
 62
             200
100
AcDbLine
 10
5.2000183105468523
 20
-30.399999999999878
 30
0.0
 11
2.2000183105468523
 21
-30.399999999999878
 31
0.0
  0
LINE
  5
CB
100
AcDbEntity
  8
0
  6
PHANTOM
 62
             200
100
AcDbLine
 10
5.2000183105468523
 20
-32.399999999999878
 30
0.0
 11
2.2000183105468523
 21
-32.399999999999878
 31
0.0
  0
LINE
  5
CC
100
AcDbEntity
  8
0
  6
CENTER
 62
               2
100
AcDbLine
 10
3.6999999999999886
 20
43.669683056948372
 30
0.0
 11
3.6999999999999886
 21
-53.269683056948352
 31
0.0
  0
ENDBLK
  5
CD
100
AcDbEntity
  8
0
100
AcDbBlockEnd
  0
BLOCK
  5
CE
100
AcDbEntity
  8
0
100
AcDbBlockBegin
  2
EA10F6-2
 70
               0
 10
0.0
 20
0.0
 30
0.0
  3
EA10F6-2
  1

  0
LINE
  5
CF
100
AcDbEntity
  8
0
  6
CONTINUOUS
 62
               7
100
AcDbLine
 10
0.0
 20
-24.899999999999949
 30
0.0
 11
0.0
 21
15.299999999999926
 31
0.0
  0
LINE
  5
D0
100
AcDbEntity
  8
0
  6
CONTINUOUS
 62
               7
100
AcDbLine
 10
14.000000000000028
 20
-24.899999999999935
 30
0.0
 11
14.000000000000028
 21
15.299999999999912
 31
0.0
  0
LINE
  5
D1
100
AcDbEntity
  8
0
  6
CONTINUOUS
 62
               7
100
AcDbLine
 10
14.0
 20
-17.804999999999993
 30
0.0
 11
15.100000000000023
 21
-18.900000000000006
 31
0.0
  0
LINE
  5
D2
100
AcDbEntity
  8
0
  6
CONTINUOUS
 62
               7
100
AcDbLine
 10
15.547999999999945
 20
-21.5
 30
0.0
 11
15.548000000000002
 21
-23.700000000000045
 31
0.0
  0
LINE
  5
D3
100
AcDbEntity
  8
0
  6
CONTINUOUS
 62
               7
100
AcDbLine
 10
15.548000000000002
 20
-23.700000000000045
 30
0.0
 11
15.100000000000023
 21
-23.700000000000031
 31
0.0
  0
LINE
  5
D4
100
AcDbEntity
  8
0
  6
CONTINUOUS
 62
               7
100
AcDbLine
 10
15.547999999999945
 20
-21.5
 30
0.0
 11
15.100000000000023
 21
-21.5
 31
0.0
  0
LINE
  5
D5
100
AcDbEntity
  8
0
  6
CONTINUOUS
 62
               7
100
AcDbLine
 10
15.100000000000023
 20
-18.900000000000006
 30
0.0
 11
15.100000000000023
 21
-24.899999999999935
 31
0.0
  0
CIRCLE
  5
D6
100
AcDbEntity
  8
0
  6
CONTINUOUS
 62
               7
100
AcDbCircle
 10
2.8999999864818733
 20
-8.0000000000000284
 30
0.0
 40
1.075
  0
CIRCLE
  5
D7
100
AcDbEntity
  8
0
  6
CONTINUOUS
 62
               7
100
AcDbCircle
 10
2.8999999864818733
 20
-1.6000001002713589
 30
0.0
 40
1.075
  0
LINE
  5
D8
100
AcDbEntity
  8
0
  6
CENTER
 62
               2
100
AcDbLine
 10
4.5580738695787204
 20
-7.9995622165198199
 30
0.0
 11
1.2989993842762999
 21
-7.9995622165198199
 31
0.0
  0
LINE
  5
D9
100
AcDbEntity
  8
0
  6
CENTER
 62
               2
100
AcDbLine
 10
2.8999999864818733
 20
1.0056776575735427
 30
0.0
 11
2.8999999864818733
 21
-10.438647484203386
 31
0.0
  0
LINE
  5
DA
100
AcDbEntity
  8
0
  6
CENTER
 62
               2
100
AcDbLine
 10
4.5580738695787204
 20
-1.6000000000000227
 30
0.0
 11
1.2989993842762999
 21
-1.6000000000000227
 31
0.0
  0
LINE
  5
DB
100
AcDbEntity
  8
0
  6
CONTINUOUS
 62
               7
100
AcDbLine
 10
-0.0000000254390784
 20
-13.900000000000006
 30
0.0
 11
13.999999974560922
 21
-13.900000000000006
 31
0.0
  0
LINE
  5
DC
100
AcDbEntity
  8
0
  6
CONTINUOUS
 62
               7
100
AcDbLine
 10
12.999999986481868
 20
-1.5990014306152176
 30
0.0
 11
13.999999986481868
 21
-1.5990014306152176
 31
0.0
  0
LINE
  5
DD
100
AcDbEntity
  8
0
  6
CONTINUOUS
 62
               7
100
AcDbLine
 10
12.999999986481868
 20
1.6009985693847995
 30
0.0
 11
13.999999986481868
 21
1.6009985693847995
 31
0.0
  0
LINE
  5
DE
100
AcDbEntity
  8
0
  6
CONTINUOUS
 62
               7
100
AcDbLine
 10
-0.0000000000000284
 20
4.2999999999999829
 30
0.0
 11
13.999999986481868
 21
4.2999999999999972
 31
0.0
  0
LINE
  5
DF
100
AcDbEntity
  8
0
  6
CONTINUOUS
 62
               7
100
AcDbLine
 10
15.100000000000023
 20
9.2999999999999829
 30
0.0
 11
15.100000000000023
 21
15.299999999999912
 31
0.0
  0
LINE
  5
E0
100
AcDbEntity
  8
0
  6
CONTINUOUS
 62
               7
100
AcDbLine
 10
15.547999999999945
 20
11.899999999999977
 30
0.0
 11
15.100000000000023
 21
11.899999999999977
 31
0.0
  0
LINE
  5
E1
100
AcDbEntity
  8
0
  6
CONTINUOUS
 62
               7
100
AcDbLine
 10
15.548000000000002
 20
14.100000000000023
 30
0.0
 11
15.100000000000023
 21
14.100000000000009
 31
0.0
  0
LINE
  5
E2
100
AcDbEntity
  8
0
  6
CONTINUOUS
 62
               7
100
AcDbLine
 10
15.547999999999945
 20
11.899999999999977
 30
0.0
 11
15.548000000000002
 21
14.100000000000023
 31
0.0
  0
LINE
  5
E3
100
AcDbEntity
  8
0
  6
CONTINUOUS
 62
               7
100
AcDbLine
 10
14.0
 20
8.2049999999999699
 30
0.0
 11
15.100000000000023
 21
9.2999999999999829
 31
0.0
  0
LINE
  5
E4
100
AcDbEntity
  8
0
  6
CONTINUOUS
 62
               7
100
AcDbLine
 10
12.999999986481868
 20
1.6009985693847995
 30
0.0
 11
12.999999986481868
 21
-1.5990014306152176
 31
0.0
  0
LINE
  5
E5
100
AcDbEntity
  8
0
  6
CENTER
 62
               2
100
AcDbLine
 10
0.8758465617809463
 20
-11.200000000000003
 30
0.0
 11
-13.405931081008077
 21
-11.200000000000003
 31
0.0
  0
LINE
  5
E6
100
AcDbEntity
  8
0
  6
CENTER
 62
               2
100
AcDbLine
 10
0.8758465617809463
 20
1.5999999999999943
 30
0.0
 11
-13.405931081008077
 21
1.5999999999999943
 31
0.0
  0
LINE
  5
E8
100
AcDbEntity
  8
0
  6
DASHED
 62
             200
100
AcDbLine
 10
-0.0000000135181324
 20
-14.200000000000003
 30
0.0
 11
-11.500000013518132
 21
-14.200000000000003
 31
0.0
  0
LINE
  5
E9
100
AcDbEntity
  8
0
  6
DASHED
 62
             200
100
AcDbLine
 10
-0.0000000135181324
 20
-8.2000000000000028
 30
0.0
 11
-11.500000013518132
 21
-8.2000000000000028
 31
0.0
  0
LINE
  5
EA
100
AcDbEntity
  8
0
  6
DASHED
 62
             200
100
AcDbLine
 10
-0.0000000135181324
 20
4.5999999999999943
 30
0.0
 11
-11.500000013518132
 21
4.5999999999999943
 31
0.0
  0
LINE
  5
EB
100
AcDbEntity
  8
0
  6
DASHED
 62
             200
100
AcDbLine
 10
-0.0000000135181324
 20
-1.4000000000000057
 30
0.0
 11
-11.500000013518132
 21
-1.4000000000000057
 31
0.0
  0
LINE
  5
EC
100
AcDbEntity
  8
0
  6
DASHED
 62
             200
100
AcDbLine
 10
-11.500000013518132
 20
-1.4000000000000057
 30
0.0
 11
-11.500000013518132
 21
4.5999999999999943
 31
0.0
  0
LINE
  5
ED
100
AcDbEntity
  8
0
  6
DASHED
 62
             200
100
AcDbLine
 10
-9.5000000135181324
 20
-1.4000000000000057
 30
0.0
 11
-9.5000000135181324
 21
4.5999999999999943
 31
0.0
  0
LINE
  5
EE
100
AcDbEntity
  8
0
  6
DASHED
 62
             200
100
AcDbLine
 10
-12.000000013518132
 20
-0.9000000000000057
 30
0.0
 11
-12.000000013518132
 21
4.0999999999999943
 31
0.0
  0
ARC
  5
EF
100
AcDbEntity
  8
0
  6
DASHED
 62
             200
100
AcDbCircle
 10
-11.500000013518132
 20
4.0999999999999943
 30
0.0
 40
0.5
100
AcDbArc
 50
89.999999999999815
 51
179.99999999999963
  0
ARC
  5
F0
100
AcDbEntity
  8
0
  6
DASHED
 62
             200
100
AcDbCircle
 10
-11.500000013518132
 20
-0.9000000000000057
 30
0.0
 40
0.5
100
AcDbArc
 50
179.99999999999963
 51
269.99999999999937
  0
ARC
  5
F1
100
AcDbEntity
  8
0
  6
DASHED
 62
             200
100
AcDbCircle
 10
-11.500000013518132
 20
-13.700000000000003
 30
0.0
 40
0.5
100
AcDbArc
 50
179.99999999999963
 51
269.99999999999937
  0
ARC
  5
F2
100
AcDbEntity
  8
0
  6
DASHED
 62
             200
100
AcDbCircle
 10
-11.500000013518132
 20
-8.7000000000000028
 30
0.0
 40
0.5
100
AcDbArc
 50
89.999999999999815
 51
179.99999999999963
  0
LINE
  5
F3
100
AcDbEntity
  8
0
  6
DASHED
 62
             200
100
AcDbLine
 10
-12.000000013518132
 20
-13.700000000000003
 30
0.0
 11
-12.000000013518132
 21
-8.7000000000000028
 31
0.0
  0
LINE
  5
F4
100
AcDbEntity
  8
0
  6
DASHED
 62
             200
100
AcDbLine
 10
-9.5000000135181324
 20
-14.200000000000003
 30
0.0
 11
-9.5000000135181324
 21
-8.2000000000000028
 31
0.0
  0
LINE
  5
F5
100
AcDbEntity
  8
0
  6
DASHED
 62
             200
100
AcDbLine
 10
-11.500000013518132
 20
-14.200000000000003
 30
0.0
 11
-11.500000013518132
 21
-8.2000000000000028
 31
0.0
  0
LINE
  5
F6
100
AcDbEntity
  8
0
  6
CENTER
 62
               2
100
AcDbLine
 10
-2.4999999920755727
 20
0.0
 30
0.0
 11
2.5000000079244273
 21
0.0
 31
0.0
  0
LINE
  5
F7
100
AcDbEntity
  8
0
  6
CENTER
 62
               2
100
AcDbLine
 10
-2.4999999920755727
 20
-9.6000000000000085
 30
0.0
 11
2.5000000079244273
 21
-9.6000000000000085
 31
0.0
  0
LINE
  5
F8
100
AcDbEntity
  8
0
  6
CONTINUOUS
 62
               4
100
AcDbLine
 10
19.253535333015151
 20
53.794949488666504
 30
0.0
 11
19.748484827681835
 21
53.794949488666504
 31
0.0
  0
LINE
  5
F9
100
AcDbEntity
  8
0
  6
CONTINUOUS
 62
               4
100
AcDbLine
 10
13.999999986481868
 20
15.299999999999926
 30
0.0
 11
13.999999986481868
 21
37.199999994932199
 31
0.0
  0
LINE
  5
FA
100
AcDbEntity
  8
0
  6
CONTINUOUS
 62
               4
100
AcDbLine
 10
-0.0000000135181324
 20
37.199999999999932
 30
0.0
 11
-0.0000000135181324
 21
15.299999999999926
 31
0.0
  0
LINE
  5
FB
100
AcDbEntity
  8
0
  6
CONTINUOUS
 62
               4
100
AcDbLine
 10
-0.0000000135181324
 20
15.299999999999926
 30
0.0
 11
17.00505048581519
 21
15.299999999999926
 31
0.0
  0
LINE
  5
FC
100
AcDbEntity
  8
0
  6
CONTINUOUS
 62
               4
100
AcDbLine
 10
2.6999999864818562
 20
37.799999999999955
 30
0.0
 11
2.6999999864818562
 21
37.199999999999989
 31
0.0
  0
LINE
  5
FD
100
AcDbEntity
  8
0
  6
CONTINUOUS
 62
               4
100
AcDbLine
 10
2.6999999864818562
 20
37.199999999999989
 30
0.0
 11
-0.0000000095181178
 21
37.199999999999989
 31
0.0
  0
LINE
  5
FE
100
AcDbEntity
  8
0
  6
CONTINUOUS
 62
               4
100
AcDbLine
 10
13.499999982481853
 20
37.699999999999989
 30
0.0
 11
11.999999986481924
 21
37.699999999999989
 31
0.0
  0
LINE
  5
FF
100
AcDbEntity
  8
0
  6
CONTINUOUS
 62
               4
100
AcDbLine
 10
13.199999896481899
 20
37.799999999999955
 30
0.0
 11
0.8000000764818367
 21
37.799999999999955
 31
0.0
  0
ARC
  5
100
100
AcDbEntity
  8
0
  6
CONTINUOUS
 62
               4
100
AcDbCircle
 10
13.200095043130517
 20
37.200095146648607
 30
0.0
 40
0.5999048008965869
100
AcDbArc
 50
56.247417870393882
 51
90.009087277546172
  0
ARC
  5
101
100
AcDbEntity
  8
0
  6
CONTINUOUS
 62
               4
100
AcDbCircle
 10
0.7989120713536693
 20
37.201088005128156
 30
0.0
 40
0.5989129231257409
100
AcDbArc
 50
89.895914524772735
 51
180.10408547522667
  0
ARC
  5
102
100
AcDbEntity
  8
0
  6
CONTINUOUS
 62
               4
100
AcDbCircle
 10
0.4999999904818822
 20
37.199999999999989
 30
0.0
 40
0.5
100
AcDbArc
 50
93.919585899650798
 51
179.99999999999963
  0
ARC
  5
103
100
AcDbEntity
  8
0
  6
CONTINUOUS
 62
               4
100
AcDbCircle
 10
13.499999982481853
 20
37.199999999999989
 30
0.0
 40
0.5
100
AcDbArc
 50
0.0
 51
89.999999999999815
  0
LINE
  5
104
100
AcDbEntity
  8
0
  6
CONTINUOUS
 62
               4
100
AcDbLine
 10
11.999999986481924
 20
37.799999999999955
 30
0.0
 11
11.999999986481924
 21
36.199999999999989
 31
0.0
  0
LINE
  5
105
100
AcDbEntity
  8
0
  6
CONTINUOUS
 62
               4
100
AcDbLine
 10
11.999999986481924
 20
36.199999999999989
 30
0.0
 11
-0.0000000095181178
 21
36.199999999999989
 31
0.0
  0
LINE
  5
106
100
AcDbEntity
  8
0
  6
CONTINUOUS
 62
               4
100
AcDbLine
 10
13.999999982481853
 20
34.793939382799977
 30
0.0
 11
21.502020180215226
 21
34.793939382799977
 31
0.0
  0
LINE
  5
107
100
AcDbEntity
  8
0
  6
CONTINUOUS
 62
               4
100
AcDbLine
 10
22.004040381948556
 20
34.298989888133292
 30
0.0
 11
22.004040381948556
 21
17.94444444293319
 31
0.0
  0
LINE
  5
108
100
AcDbEntity
  8
0
  6
CONTINUOUS
 62
               4
100
AcDbLine
 10
17.00505048581519
 20
15.299999999999841
 30
0.0
 11
21.714141392215168
 21
17.491919190666579
 31
0.0
  0
LINE
  5
109
100
AcDbEntity
  8
0
  6
CONTINUOUS
 62
               4
100
AcDbLine
 10
17.00505048581519
 20
42.799999999999812
 30
0.0
 11
21.098989877415164
 21
42.799999999999812
 31
0.0
  0
LINE
  5
10A
100
AcDbEntity
  8
0
  6
CONTINUOUS
 62
               4
100
AcDbLine
 10
18.603030282881804
 20
42.799999999999812
 30
0.0
 11
18.603030282881804
 21
34.79696969239987
 31
0.0
  0
LINE
  5
10B
100
AcDbEntity
  8
0
  6
CONTINUOUS
 62
               4
100
AcDbLine
 10
20.398989877815183
 20
42.799999999999812
 30
0.0
 11
20.398989877815183
 21
34.79696969239987
 31
0.0
  0
LINE
  5
10C
100
AcDbEntity
  8
0
  6
CONTINUOUS
 62
               4
100
AcDbLine
 10
23.997979774748472
 20
42.799999999999812
 30
0.0
 11
23.997979774748472
 21
41.302020193733171
 31
0.0
  0
LINE
  5
10D
100
AcDbEntity
  8
0
  6
CONTINUOUS
 62
               4
100
AcDbLine
 10
23.09999997728184
 20
36.196969691599833
 30
0.0
 11
23.997979774748472
 21
41.302020193733171
 31
0.0
  0
LINE
  5
10E
100
AcDbEntity
  8
0
  6
CONTINUOUS
 62
               4
100
AcDbLine
 10
23.001010078348571
 20
42.799999999999812
 30
0.0
 11
23.001010078348571
 21
41.386868678533148
 31
0.0
  0
LINE
  5
10F
100
AcDbEntity
  8
0
  6
CONTINUOUS
 62
               4
100
AcDbLine
 10
23.001010078348571
 20
42.799999999999812
 30
0.0
 11
23.997979774748472
 21
42.799999999999812
 31
0.0
  0
LINE
  5
110
100
AcDbEntity
  8
0
  6
CONTINUOUS
 62
               4
100
AcDbLine
 10
21.897979775948528
 20
35.129292924533189
 30
0.0
 11
23.015151492481863
 21
41.471717163333182
 31
0.0
  0
LINE
  5
111
100
AcDbEntity
  8
0
  6
CONTINUOUS
 62
               4
100
AcDbLine
 10
22.103030280881825
 20
33.799999995999855
 30
0.0
 11
22.103030280881825
 21
28.101010100266507
 31
0.0
  0
LINE
  5
112
100
AcDbEntity
  8
0
  6
CONTINUOUS
 62
               4
100
AcDbLine
 10
21.098989877415164
 20
42.799999999999812
 30
0.0
 11
21.098989877415164
 21
35.199999995199875
 31
0.0
  0
LINE
  5
113
100
AcDbEntity
  8
0
  6
CONTINUOUS
 62
               4
100
AcDbLine
 10
21.403030281281843
 20
42.495959596133133
 30
0.0
 11
21.403030281281843
 21
36.599999994399838
 31
0.0
  0
LINE
  5
114
100
AcDbEntity
  8
0
  6
CONTINUOUS
 62
               4
100
AcDbLine
 10
21.098989877415164
 20
42.799999999999812
 30
0.0
 11
21.403030281281843
 21
42.495959596133133
 31
0.0
  0
LINE
  5
115
100
AcDbEntity
  8
0
  6
CONTINUOUS
 62
               4
100
AcDbLine
 10
17.00505048581519
 20
41.796969688399855
 30
0.0
 11
17.499999980481874
 21
41.796969688399855
 31
0.0
  0
LINE
  5
116
100
AcDbEntity
  8
0
  6
CONTINUOUS
 62
               4
100
AcDbLine
 10
17.00505048581519
 20
36.797979792266489
 30
0.0
 11
17.499999980481874
 21
36.797979792266489
 31
0.0
  0
LINE
  5
117
100
AcDbEntity
  8
0
  6
CONTINUOUS
 62
               4
100
AcDbLine
 10
21.098989877415164
 20
36.295959590533215
 30
0.0
 11
21.403030281281843
 21
36.599999994399838
 31
0.0
  0
LINE
  5
118
100
AcDbEntity
  8
0
  6
CONTINUOUS
 62
               4
100
AcDbLine
 10
23.09999997728184
 20
36.196969691599833
 30
0.0
 11
23.09999997728184
 21
27.096969696799846
 31
0.0
  0
LINE
  5
119
100
AcDbEntity
  8
0
  6
CONTINUOUS
 62
               4
100
AcDbLine
 10
22.103030280881825
 20
26.799999999999812
 30
0.0
 11
22.803030280481806
 21
26.799999999999812
 31
0.0
  0
LINE
  5
11A
100
AcDbEntity
  8
0
  6
CONTINUOUS
 62
               4
100
AcDbLine
 10
22.004040381948556
 20
28.101010100266507
 30
0.0
 11
22.103030280881825
 21
28.101010100266507
 31
0.0
  0
LINE
  5
11B
100
AcDbEntity
  8
0
  6
CONTINUOUS
 62
               4
100
AcDbLine
 10
22.004040381948556
 20
26.898989898933138
 30
0.0
 11
22.103030280881825
 21
26.799999999999812
 31
0.0
  0
LINE
  5
11C
100
AcDbEntity
  8
0
  6
CONTINUOUS
 62
               4
100
AcDbLine
 10
18.850505030215203
 20
47.367676765066477
 30
0.0
 11
18.850505030215203
 21
42.799999999999812
 31
0.0
  0
LINE
  5
11D
100
AcDbEntity
  8
0
  6
CONTINUOUS
 62
               4
100
AcDbLine
 10
20.151515130481897
 20
50.294949490666482
 30
0.0
 11
20.151515130481897
 21
46.964646462266472
 31
0.0
  0
LINE
  5
11E
100
AcDbEntity
  8
0
  6
CONTINUOUS
 62
               4
100
AcDbLine
 10
18.850505030215203
 20
50.294949490666482
 30
0.0
 11
18.850505030215203
 21
47.714141411333145
 31
0.0
  0
LINE
  5
11F
100
AcDbEntity
  8
0
  6
CONTINUOUS
 62
               4
100
AcDbLine
 10
18.850505030215203
 20
50.294949490666482
 30
0.0
 11
20.151515130481897
 21
50.294949490666482
 31
0.0
  0
LINE
  5
120
100
AcDbEntity
  8
0
  6
CONTINUOUS
 62
               4
100
AcDbLine
 10
19.253535333015151
 20
53.794949488666504
 30
0.0
 11
19.253535333015151
 21
50.294949490666482
 31
0.0
  0
LINE
  5
121
100
AcDbEntity
  8
0
  6
CONTINUOUS
 62
               4
100
AcDbLine
 10
19.748484827681835
 20
53.794949488666504
 30
0.0
 11
19.748484827681835
 21
50.294949490666482
 31
0.0
  0
LINE
  5
122
100
AcDbEntity
  8
0
  6
CONTINUOUS
 62
             200
100
AcDbLine
 10
20.999999978481895
 20
46.469696967599845
 30
0.0
 11
18.002020182215205
 21
48.202020198933127
 31
0.0
  0
LINE
  5
123
100
AcDbEntity
  8
0
  6
CONTINUOUS
 62
             200
100
AcDbLine
 10
20.999999978481895
 20
46.123232321333177
 30
0.0
 11
18.002020182215205
 21
47.855555552666516
 31
0.0
  0
LINE
  5
124
100
AcDbEntity
  8
0
  6
CONTINUOUS
 62
               4
100
AcDbLine
 10
20.151515130481897
 20
46.618181815999804
 30
0.0
 11
20.151515130481897
 21
42.799999999999812
 31
0.0
  0
LINE
  5
125
100
AcDbEntity
  8
0
  6
CONTINUOUS
 62
               4
100
AcDbLine
 10
17.00505048581519
 20
42.799999999999812
 30
0.0
 11
17.00505048581519
 21
41.796969688399855
 31
0.0
  0
LINE
  5
126
100
AcDbEntity
  8
0
  6
CONTINUOUS
 62
               4
100
AcDbLine
 10
17.00505048581519
 20
36.797979792266489
 30
0.0
 11
17.00505048581519
 21
34.79696969239987
 31
0.0
  0
LINE
  5
127
100
AcDbEntity
  8
0
  6
CONTINUOUS
 62
               4
100
AcDbLine
 10
17.499999980481874
 20
41.796969688399855
 30
0.0
 11
17.499999980481874
 21
36.797979792266489
 31
0.0
  0
LINE
  5
128
100
AcDbEntity
  8
0
  6
CONTINUOUS
 62
               4
100
AcDbLine
 10
17.00505048581519
 20
15.299999999999841
 30
0.0
 11
17.00505048581519
 21
34.793939382799977
 31
0.0
  0
ARC
  5
129
100
AcDbEntity
  8
0
  6
CONTINUOUS
 62
               4
100
AcDbCircle
 10
21.49803304405097
 20
17.949484497491596
 30
0.0
 40
0.5060324378497572
100
AcDbArc
 50
295.28139190005214
 51
359.42932783011406
  0
ARC
  5
12A
100
AcDbEntity
  8
0
  6
CONTINUOUS
 62
               4
100
AcDbCircle
 10
21.503834105760546
 20
34.293708514783589
 30
0.0
 40
0.5002341568128574
100
AcDbArc
 50
0.6049287534634878
 51
90.207763713153867
  0
ARC
  5
12B
100
AcDbEntity
  8
0
  6
CONTINUOUS
 62
               4
100
AcDbCircle
 10
22.797896104573709
 20
27.102103872708057
 30
0.0
 40
0.3021474965435785
100
AcDbArc
 50
270.97363298451126
 51
359.02636701548732
  0
ARC
  5
12C
100
AcDbEntity
  8
0
  6
CONTINUOUS
 62
               4
100
AcDbCircle
 10
21.599986927348681
 20
33.797302043044368
 30
0.0
 40
0.5030505883944908
100
AcDbArc
 50
0.3072892911898554
 51
36.562608354652731
  0
ARC
  5
12D
100
AcDbEntity
  8
0
  6
CONTINUOUS
 62
               4
100
AcDbCircle
 10
21.501921109179847
 20
35.203476452093554
 30
0.0
 40
0.4029462287748787
100
AcDbArc
 50
180.49433091715488
 51
349.39117201772478
  0
ARC
  5
12E
100
AcDbEntity
  8
0
  6
CONTINUOUS
 62
               4
100
AcDbCircle
 10
21.501921109179818
 20
-44.803476452093577
 30
0.0
 40
0.4029462287748787
100
AcDbArc
 50
10.608827982274413
 51
179.50566908284432
  0
ARC
  5
12F
100
AcDbEntity
  8
0
  6
CONTINUOUS
 62
               4
100
AcDbCircle
 10
21.599986927348652
 20
-43.397302043044391
 30
0.0
 40
0.5030505883944908
100
AcDbArc
 50
323.43739164534645
 51
359.69271070880933
  0
ARC
  5
130
100
AcDbEntity
  8
0
  6
CONTINUOUS
 62
               4
100
AcDbCircle
 10
22.797896104573681
 20
-36.702103872708079
 30
0.0
 40
0.3021474965435785
100
AcDbArc
 50
0.9736329845118463
 51
89.026367015487978
  0
ARC
  5
131
100
AcDbEntity
  8
0
  6
CONTINUOUS
 62
               4
100
AcDbCircle
 10
21.503834105760518
 20
-43.893708514783611
 30
0.0
 40
0.5002341568128574
100
AcDbArc
 50
269.79223628684531
 51
359.39507124653568
  0
ARC
  5
132
100
AcDbEntity
  8
0
  6
CONTINUOUS
 62
               4
100
AcDbCircle
 10
21.498033044050942
 20
-27.549484497491619
 30
0.0
 40
0.5060324378497572
100
AcDbArc
 50
0.570672169885155
 51
64.718608099947076
  0
LINE
  5
133
100
AcDbEntity
  8
0
  6
CONTINUOUS
 62
               4
100
AcDbLine
 10
17.005050485815161
 20
-24.899999999999864
 30
0.0
 11
17.005050485815161
 21
-44.393939382799999
 31
0.0
  0
LINE
  5
134
100
AcDbEntity
  8
0
  6
CONTINUOUS
 62
               4
100
AcDbLine
 10
17.499999980481846
 20
-51.396969688399878
 30
0.0
 11
17.499999980481846
 21
-46.397979792266511
 31
0.0
  0
LINE
  5
135
100
AcDbEntity
  8
0
  6
CONTINUOUS
 62
               4
100
AcDbLine
 10
17.005050485815161
 20
-46.397979792266511
 30
0.0
 11
17.005050485815161
 21
-44.396969692399892
 31
0.0
  0
LINE
  5
136
100
AcDbEntity
  8
0
  6
CONTINUOUS
 62
               4
100
AcDbLine
 10
17.005050485815161
 20
-52.399999999999835
 30
0.0
 11
17.005050485815161
 21
-51.396969688399878
 31
0.0
  0
LINE
  5
137
100
AcDbEntity
  8
0
  6
CONTINUOUS
 62
               4
100
AcDbLine
 10
20.151515130481869
 20
-56.218181815999827
 30
0.0
 11
20.151515130481869
 21
-52.399999999999835
 31
0.0
  0
LINE
  5
138
100
AcDbEntity
  8
0
  6
CONTINUOUS
 62
             200
100
AcDbLine
 10
20.999999978481867
 20
-55.723232321333199
 30
0.0
 11
18.002020182215176
 21
-57.455555552666539
 31
0.0
  0
LINE
  5
139
100
AcDbEntity
  8
0
  6
CONTINUOUS
 62
             200
100
AcDbLine
 10
20.999999978481867
 20
-56.069696967599867
 30
0.0
 11
18.002020182215176
 21
-57.80202019893315
 31
0.0
  0
LINE
  5
13A
100
AcDbEntity
  8
0
  6
CONTINUOUS
 62
               4
100
AcDbLine
 10
19.748484827681807
 20
-63.394949488666526
 30
0.0
 11
19.748484827681807
 21
-59.894949490666505
 31
0.0
  0
LINE
  5
13B
100
AcDbEntity
  8
0
  6
CONTINUOUS
 62
               4
100
AcDbLine
 10
19.253535333015122
 20
-63.394949488666526
 30
0.0
 11
19.253535333015122
 21
-59.894949490666505
 31
0.0
  0
LINE
  5
13C
100
AcDbEntity
  8
0
  6
CONTINUOUS
 62
               4
100
AcDbLine
 10
18.850505030215174
 20
-59.894949490666505
 30
0.0
 11
20.151515130481869
 21
-59.894949490666505
 31
0.0
  0
LINE
  5
13D
100
AcDbEntity
  8
0
  6
CONTINUOUS
 62
               4
100
AcDbLine
 10
18.850505030215174
 20
-59.894949490666505
 30
0.0
 11
18.850505030215174
 21
-57.314141411333168
 31
0.0
  0
LINE
  5
13E
100
AcDbEntity
  8
0
  6
CONTINUOUS
 62
               4
100
AcDbLine
 10
20.151515130481869
 20
-59.894949490666505
 30
0.0
 11
20.151515130481869
 21
-56.564646462266495
 31
0.0
  0
LINE
  5
13F
100
AcDbEntity
  8
0
  6
CONTINUOUS
 62
               4
100
AcDbLine
 10
18.850505030215174
 20
-56.9676767650665
 30
0.0
 11
18.850505030215174
 21
-52.399999999999835
 31
0.0
  0
LINE
  5
140
100
AcDbEntity
  8
0
  6
CONTINUOUS
 62
               4
100
AcDbLine
 10
22.004040381948528
 20
-36.498989898933161
 30
0.0
 11
22.103030280881796
 21
-36.399999999999835
 31
0.0
  0
LINE
  5
141
100
AcDbEntity
  8
0
  6
CONTINUOUS
 62
               4
100
AcDbLine
 10
22.004040381948528
 20
-37.701010100266529
 30
0.0
 11
22.103030280881796
 21
-37.701010100266529
 31
0.0
  0
LINE
  5
142
100
AcDbEntity
  8
0
  6
CONTINUOUS
 62
               4
100
AcDbLine
 10
22.103030280881796
 20
-36.399999999999835
 30
0.0
 11
22.803030280481778
 21
-36.399999999999835
 31
0.0
  0
LINE
  5
143
100
AcDbEntity
  8
0
  6
CONTINUOUS
 62
               4
100
AcDbLine
 10
23.099999977281811
 20
-45.796969691599855
 30
0.0
 11
23.099999977281811
 21
-36.696969696799869
 31
0.0
  0
LINE
  5
144
100
AcDbEntity
  8
0
  6
CONTINUOUS
 62
               4
100
AcDbLine
 10
21.098989877415136
 20
-45.895959590533238
 30
0.0
 11
21.403030281281815
 21
-46.19999999439986
 31
0.0
  0
LINE
  5
145
100
AcDbEntity
  8
0
  6
CONTINUOUS
 62
               4
100
AcDbLine
 10
17.005050485815161
 20
-46.397979792266511
 30
0.0
 11
17.499999980481846
 21
-46.397979792266511
 31
0.0
  0
LINE
  5
146
100
AcDbEntity
  8
0
  6
CONTINUOUS
 62
               4
100
AcDbLine
 10
17.005050485815161
 20
-51.396969688399878
 30
0.0
 11
17.499999980481846
 21
-51.396969688399878
 31
0.0
  0
LINE
  5
147
100
AcDbEntity
  8
0
  6
CONTINUOUS
 62
               4
100
AcDbLine
 10
21.098989877415136
 20
-52.399999999999835
 30
0.0
 11
21.403030281281815
 21
-52.095959596133156
 31
0.0
  0
LINE
  5
148
100
AcDbEntity
  8
0
  6
CONTINUOUS
 62
               4
100
AcDbLine
 10
21.403030281281815
 20
-52.095959596133156
 30
0.0
 11
21.403030281281815
 21
-46.19999999439986
 31
0.0
  0
LINE
  5
149
100
AcDbEntity
  8
0
  6
CONTINUOUS
 62
               4
100
AcDbLine
 10
21.098989877415136
 20
-52.399999999999835
 30
0.0
 11
21.098989877415136
 21
-44.799999995199897
 31
0.0
  0
LINE
  5
14A
100
AcDbEntity
  8
0
  6
CONTINUOUS
 62
               4
100
AcDbLine
 10
22.103030280881796
 20
-43.399999995999877
 30
0.0
 11
22.103030280881796
 21
-37.701010100266529
 31
0.0
  0
LINE
  5
14B
100
AcDbEntity
  8
0
  6
CONTINUOUS
 62
               4
100
AcDbLine
 10
21.8979797759485
 20
-44.729292924533212
 30
0.0
 11
23.015151492481834
 21
-51.071717163333204
 31
0.0
  0
LINE
  5
14C
100
AcDbEntity
  8
0
  6
CONTINUOUS
 62
               4
100
AcDbLine
 10
23.001010078348543
 20
-52.399999999999835
 30
0.0
 11
23.997979774748444
 21
-52.399999999999835
 31
0.0
  0
LINE
  5
14D
100
AcDbEntity
  8
0
  6
CONTINUOUS
 62
               4
100
AcDbLine
 10
23.001010078348543
 20
-52.399999999999835
 30
0.0
 11
23.001010078348543
 21
-50.98686867853317
 31
0.0
  0
LINE
  5
14E
100
AcDbEntity
  8
0
  6
CONTINUOUS
 62
               4
100
AcDbLine
 10
23.099999977281811
 20
-45.796969691599855
 30
0.0
 11
23.997979774748444
 21
-50.902020193733193
 31
0.0
  0
LINE
  5
14F
100
AcDbEntity
  8
0
  6
CONTINUOUS
 62
               4
100
AcDbLine
 10
23.997979774748444
 20
-52.399999999999835
 30
0.0
 11
23.997979774748444
 21
-50.902020193733193
 31
0.0
  0
LINE
  5
150
100
AcDbEntity
  8
0
  6
CONTINUOUS
 62
               4
100
AcDbLine
 10
20.398989877815154
 20
-52.399999999999835
 30
0.0
 11
20.398989877815154
 21
-44.396969692399892
 31
0.0
  0
LINE
  5
151
100
AcDbEntity
  8
0
  6
CONTINUOUS
 62
               4
100
AcDbLine
 10
18.603030282881775
 20
-52.399999999999835
 30
0.0
 11
18.603030282881775
 21
-44.396969692399892
 31
0.0
  0
LINE
  5
152
100
AcDbEntity
  8
0
  6
CONTINUOUS
 62
               4
100
AcDbLine
 10
17.005050485815161
 20
-52.399999999999835
 30
0.0
 11
21.098989877415136
 21
-52.399999999999835
 31
0.0
  0
LINE
  5
153
100
AcDbEntity
  8
0
  6
CONTINUOUS
 62
               4
100
AcDbLine
 10
17.005050485815161
 20
-24.899999999999864
 30
0.0
 11
21.71414139221514
 21
-27.091919190666601
 31
0.0
  0
LINE
  5
154
100
AcDbEntity
  8
0
  6
CONTINUOUS
 62
               4
100
AcDbLine
 10
22.004040381948528
 20
-43.898989888133315
 30
0.0
 11
22.004040381948528
 21
-27.544444442933212
 31
0.0
  0
LINE
  5
155
100
AcDbEntity
  8
0
  6
CONTINUOUS
 62
               4
100
AcDbLine
 10
13.999999982481825
 20
-44.393939382799999
 30
0.0
 11
21.502020180215197
 21
-44.393939382799999
 31
0.0
  0
LINE
  5
156
100
AcDbEntity
  8
0
  6
CONTINUOUS
 62
               4
100
AcDbLine
 10
1.9999999864817823
 20
-45.800000000000011
 30
0.0
 11
13.999999982481825
 21
-45.800000000000011
 31
0.0
  0
LINE
  5
157
100
AcDbEntity
  8
0
  6
CONTINUOUS
 62
               4
100
AcDbLine
 10
1.9999999864817823
 20
-47.399999999999977
 30
0.0
 11
1.9999999864817823
 21
-45.800000000000011
 31
0.0
  0
ARC
  5
158
100
AcDbEntity
  8
0
  6
CONTINUOUS
 62
               4
100
AcDbCircle
 10
0.4999999904818537
 20
-46.800000000000011
 30
0.0
 40
0.5
100
AcDbArc
 50
179.99999999999963
 51
269.99999999999937
  0
ARC
  5
159
100
AcDbEntity
  8
0
  6
CONTINUOUS
 62
               4
100
AcDbCircle
 10
13.499999982481825
 20
-46.800000000000011
 30
0.0
 40
0.5
100
AcDbArc
 50
273.91958589965037
 51
0.0
  0
ARC
  5
15A
100
AcDbEntity
  8
0
  6
CONTINUOUS
 62
               4
100
AcDbCircle
 10
13.201087901610038
 20
-46.801088005128179
 30
0.0
 40
0.5989129231257409
100
AcDbArc
 50
269.89591452477231
 51
0.1040854752270701
  0
ARC
  5
15B
100
AcDbEntity
  8
0
  6
CONTINUOUS
 62
               4
100
AcDbCircle
 10
0.7999049298331897
 20
-46.80009514664863
 30
0.0
 40
0.5999048008965869
100
AcDbArc
 50
236.24741787039349
 51
270.00908727754575
  0
LINE
  5
15C
100
AcDbEntity
  8
0
  6
CONTINUOUS
 62
               4
100
AcDbLine
 10
0.8000000764818083
 20
-47.399999999999977
 30
0.0
 11
13.19999989648187
 21
-47.399999999999977
 31
0.0
  0
LINE
  5
15D
100
AcDbEntity
  8
0
  6
CONTINUOUS
 62
               4
100
AcDbLine
 10
0.4999999904818537
 20
-47.300000000000011
 30
0.0
 11
1.9999999864817823
 21
-47.300000000000011
 31
0.0
  0
LINE
  5
15E
100
AcDbEntity
  8
0
  6
CONTINUOUS
 62
               4
100
AcDbLine
 10
11.299999986481851
 20
-46.800000000000011
 30
0.0
 11
13.999999982481825
 21
-46.800000000000011
 31
0.0
  0
LINE
  5
15F
100
AcDbEntity
  8
0
  6
CONTINUOUS
 62
               4
100
AcDbLine
 10
11.299999986481851
 20
-47.399999999999977
 30
0.0
 11
11.299999986481851
 21
-46.800000000000011
 31
0.0
  0
LINE
  5
160
100
AcDbEntity
  8
0
  6
CONTINUOUS
 62
               4
100
AcDbLine
 10
-0.0000000135181608
 20
-24.899999999999949
 30
0.0
 11
17.005050485815161
 21
-24.899999999999949
 31
0.0
  0
LINE
  5
161
100
AcDbEntity
  8
0
  6
CONTINUOUS
 62
               4
100
AcDbLine
 10
-0.0000000135181608
 20
-46.799999999999955
 30
0.0
 11
-0.0000000135181608
 21
-24.899999999999949
 31
0.0
  0
LINE
  5
162
100
AcDbEntity
  8
0
  6
CONTINUOUS
 62
               4
100
AcDbLine
 10
13.999999986481839
 20
-24.899999999999949
 30
0.0
 11
13.999999986481839
 21
-46.799999994932222
 31
0.0
  0
LINE
  5
163
100
AcDbEntity
  8
0
  6
CONTINUOUS
 62
               4
100
AcDbLine
 10
19.253535333015122
 20
-63.394949488666526
 30
0.0
 11
19.748484827681807
 21
-63.394949488666526
 31
0.0
  0
LINE
  5
164
100
AcDbEntity
  8
0
  6
CENTER
 62
               2
100
AcDbLine
 10
6.9999999864818676
 20
39.04858274683636
 30
0.0
 11
6.9999999864818392
 21
-48.648582746836382
 31
0.0
  0
ENDBLK
  5
165
100
AcDbEntity
  8
0
100
AcDbBlockEnd
  0
BLOCK
  5
166
100
AcDbEntity
  8
0
100
AcDbBlockBegin
  2
EA10F6-3
 70
               0
 10
0.0
 20
0.0
 30
0.0
  3
EA10F6-3
  1

  0
LINE
  5
167
100
AcDbEntity
  8
0
  6
CONTINUOUS
 62
               4
100
AcDbLine
 10
-8.6999999999999886
 20
-47.399999999999991
 30
0.0
 11
-8.6999999999999886
 21
-24.899999999999991
 31
0.0
  0
LINE
  5
168
100
AcDbEntity
  8
0
  6
CONTINUOUS
 62
               4
100
AcDbLine
 10
1.3000000000000114
 20
-47.399999999999991
 30
0.0
 11
1.3000000000000114
 21
-24.899999999999991
 31
0.0
  0
LINE
  5
169
100
AcDbEntity
  8
0
  6
CENTER
 62
               2
100
AcDbLine
 10
-3.6999999999999886
 20
-48.297001430615211
 30
0.0
 11
-3.6999999999999886
 21
38.698998569384827
 31
0.0
  0
LINE
  5
16A
100
AcDbEntity
  8
0
  6
CONTINUOUS
 62
               4
100
AcDbLine
 10
1.3000000000000114
 20
-24.899999999999991
 30
0.0
 11
-8.6999999999999886
 21
-24.899999999999991
 31
0.0
  0
CIRCLE
  5
16B
100
AcDbEntity
  8
0
  6
CONTINUOUS
 62
               7
100
AcDbCircle
 10
-3.6999816894530966
 20
-17.700018310546866
 30
0.0
 40
0.8999999761581421
  0
ARC
  5
16C
100
AcDbEntity
  8
0
  6
CONTINUOUS
 62
               4
100
AcDbCircle
 10
-6.102911994762934
 20
-46.801088005236991
 30
0.0
 40
0.5989129830170392
100
AcDbArc
 50
269.89591452477231
 51
0.1040854752270701
  0
ARC
  5
16D
100
AcDbEntity
  8
0
  6
CONTINUOUS
 62
               4
100
AcDbCircle
 10
-7.904095146658193
 20
-46.800095146658165
 30
0.0
 40
0.5999048608870732
100
AcDbArc
 50
179.99091272245337
 51
270.00908727754575
  0
LINE
  5
16E
100
AcDbEntity
  8
0
  6
CONTINUOUS
 62
               4
100
AcDbLine
 10
-8.6999999999999602
 20
-46.799999999999997
 30
0.0
 11
-5.4999999999999716
 21
-46.799999999999997
 31
0.0
  0
ARC
  5
16F
100
AcDbEntity
  8
0
  6
CONTINUOUS
 62
               4
100
AcDbCircle
 10
0.8000000000000114
 20
-46.799999999999997
 30
0.0
 40
0.5
100
AcDbArc
 50
269.99999999999937
 51
0.0
  0
LINE
  5
170
100
AcDbEntity
  8
0
  6
CONTINUOUS
 62
               4
100
AcDbLine
 10
-5.4999999999999716
 20
-47.299999999999997
 30
0.0
 11
-5.4999999999999716
 21
-45.799999999999997
 31
0.0
  0
LINE
  5
171
100
AcDbEntity
  8
0
  6
CONTINUOUS
 62
               4
100
AcDbLine
 10
-5.4999999999999716
 20
-47.299999999999997
 30
0.0
 11
0.8000000000000114
 21
-47.299999999999997
 31
0.0
  0
LINE
  5
172
100
AcDbEntity
  8
0
  6
CONTINUOUS
 62
               4
100
AcDbLine
 10
-8.6999999999999602
 20
-45.799999999999997
 30
0.0
 11
-5.4999999999999716
 21
-45.799999999999997
 31
0.0
  0
LINE
  5
173
100
AcDbEntity
  8
0
  6
CONTINUOUS
 62
               4
100
AcDbLine
 10
-8.6999999999999602
 20
-47.399999999999991
 30
0.0
 11
1.3000000000000114
 21
-47.399999999999991
 31
0.0
  0
LINE
  5
174
100
AcDbEntity
  8
0
  6
CENTER
 62
               2
100
AcDbLine
 10
-1.6999999999999886
 20
-17.700000000000003
 30
0.0
 11
-5.6999999999999886
 21
-17.700000000000003
 31
0.0
  0
LINE
  5
175
100
AcDbEntity
  8
0
  6
CENTER
 62
               2
100
AcDbLine
 10
-5.6999999999999886
 20
8.0999999999999943
 30
0.0
 11
-1.6999999999999886
 21
8.0999999999999943
 31
0.0
  0
LINE
  5
176
100
AcDbEntity
  8
0
  6
CENTER
 62
               2
100
AcDbLine
 10
-6.0076604241943414
 20
1.5999999999999943
 30
0.0
 11
-1.3923395758056358
 21
1.5999999999999943
 31
0.0
  0
LINE
  5
177
100
AcDbEntity
  8
0
  6
CONTINUOUS
 62
               7
100
AcDbLine
 10
1.3000000000000114
 20
-13.90000000000002
 30
0.0
 11
-8.6999999999999602
 21
-13.90000000000002
 31
0.0
  0
LINE
  5
178
100
AcDbEntity
  8
0
  6
CONTINUOUS
 62
               7
100
AcDbLine
 10
1.3000000000000114
 20
4.3000000000000114
 30
0.0
 11
-8.6999999999999602
 21
4.3000000000000114
 31
0.0
  0
CIRCLE
  5
179
100
AcDbEntity
  8
0
  6
CONTINUOUS
 62
               7
100
AcDbCircle
 10
0.0
 20
0.0
 30
0.0
 40
1.0
  0
LINE
  5
17A
100
AcDbEntity
  8
0
  6
CENTER
 62
               2
100
AcDbLine
 10
0.0
 20
-1.6582043412881831
 30
0.0
 11
0.0
 21
1.6507458038142886
 31
0.0
  0
LINE
  5
17B
100
AcDbEntity
  8
0
  6
CENTER
 62
               2
100
AcDbLine
 10
1.5141706867843823
 20
0.0
 30
0.0
 11
-1.4477988131531561
 21
0.0
 31
0.0
  0
CIRCLE
  5
17C
100
AcDbEntity
  8
0
  6
CONTINUOUS
 62
               7
100
AcDbCircle
 10
-7.4000000000000057
 20
-9.6000000000000085
 30
0.0
 40
1.0
  0
LINE
  5
17D
100
AcDbEntity
  8
0
  6
CENTER
 62
               2
100
AcDbLine
 10
-5.809583850853727
 20
-9.6000000000000085
 30
0.0
 11
-8.8598351735368794
 21
-9.6000000000000085
 31
0.0
  0
LINE
  5
17E
100
AcDbEntity
  8
0
  6
CENTER
 62
               2
100
AcDbLine
 10
-7.4000000000000057
 20
-11.100461398562274
 30
0.0
 11
-7.4000000000000057
 21
-8.1184246891139225
 31
0.0
  0
CIRCLE
  5
17F
100
AcDbEntity
  8
0
  6
CONTINUOUS
 62
               2
100
AcDbCircle
 10
-3.6999999999999886
 20
-4.7999999999999972
 30
0.0
 40
1.5
  0
CIRCLE
  5
180
100
AcDbEntity
  8
0
  6
CONTINUOUS
 62
               7
100
AcDbCircle
 10
-3.6999999999999886
 20
-4.7999999999999972
 30
0.0
 40
1.25
  0
CIRCLE
  5
181
100
AcDbEntity
  8
0
  6
CONTINUOUS
 62
               7
100
AcDbCircle
 10
-3.6999999999999886
 20
1.5999999999999943
 30
0.0
 40
1.25
  0
CIRCLE
  5
182
100
AcDbEntity
  8
0
  6
CONTINUOUS
 62
               7
100
AcDbCircle
 10
-3.6999999999999886
 20
-11.200000000000003
 30
0.0
 40
1.25
  0
CIRCLE
  5
183
100
AcDbEntity
  8
0
  6
CONTINUOUS
 62
               2
100
AcDbCircle
 10
-3.6999999999999886
 20
1.5999999999999943
 30
0.0
 40
1.5
  0
CIRCLE
  5
184
100
AcDbEntity
  8
0
  6
CONTINUOUS
 62
               2
100
AcDbCircle
 10
-3.6999999999999886
 20
-11.200000000000003
 30
0.0
 40
1.5
  0
LINE
  5
185
100
AcDbEntity
  8
0
  6
CENTER
 62
               2
100
AcDbLine
 10
-1.3923395758056358
 20
-11.200000000000003
 30
0.0
 11
-6.0076604241943414
 21
-11.200000000000003
 31
0.0
  0
LINE
  5
186
100
AcDbEntity
  8
0
  6
CENTER
 62
               2
100
AcDbLine
 10
-1.3923395758056358
 20
-4.7999999999999972
 30
0.0
 11
-6.0076604241943414
 21
-4.7999999999999972
 31
0.0
  0
LINE
  5
187
100
AcDbEntity
  8
0
  6
CONTINUOUS
 62
               4
100
AcDbLine
 10
1.3000000000000114
 20
37.799999999999983
 30
0.0
 11
-8.7000000000000171
 21
37.799999999999983
 31
0.0
  0
LINE
  5
188
100
AcDbEntity
  8
0
  6
CONTINUOUS
 62
               4
100
AcDbLine
 10
1.3000000000000114
 20
36.199999999999989
 30
0.0
 11
-1.9000000000000057
 21
36.199999999999989
 31
0.0
  0
LINE
  5
189
100
AcDbEntity
  8
0
  6
CONTINUOUS
 62
               4
100
AcDbLine
 10
-1.9000000000000057
 20
37.699999999999989
 30
0.0
 11
-8.2000000000000171
 21
37.699999999999989
 31
0.0
  0
LINE
  5
18A
100
AcDbEntity
  8
0
  6
CONTINUOUS
 62
               4
100
AcDbLine
 10
-1.9000000000000057
 20
37.699999999999989
 30
0.0
 11
-1.9000000000000057
 21
36.199999999999989
 31
0.0
  0
ARC
  5
18B
100
AcDbEntity
  8
0
  6
CONTINUOUS
 62
               4
100
AcDbCircle
 10
-8.2000000000000171
 20
37.199999999999989
 30
0.0
 40
0.5
100
AcDbArc
 50
89.999999999999815
 51
179.99999999999963
  0
LINE
  5
18C
100
AcDbEntity
  8
0
  6
CONTINUOUS
 62
               4
100
AcDbLine
 10
1.3000000000000114
 20
37.199999999999989
 30
0.0
 11
-1.9000000000000057
 21
37.199999999999989
 31
0.0
  0
ARC
  5
18D
100
AcDbEntity
  8
0
  6
CONTINUOUS
 62
               4
100
AcDbCircle
 10
0.5040951466582442
 20
37.200095146658157
 30
0.0
 40
0.5999048608870732
100
AcDbArc
 50
359.99091272245295
 51
90.009087277546172
  0
ARC
  5
18E
100
AcDbEntity
  8
0
  6
CONTINUOUS
 62
               4
100
AcDbCircle
 10
-1.2970880052370148
 20
37.201088005236983
 30
0.0
 40
0.5989129830170392
100
AcDbArc
 50
89.895914524772735
 51
180.10408547522667
  0
CIRCLE
  5
18F
100
AcDbEntity
  8
0
  6
CONTINUOUS
 62
               7
100
AcDbCircle
 10
-3.7000183105468807
 20
8.1000183105468579
 30
0.0
 40
0.8999999761581421
  0
LINE
  5
190
100
AcDbEntity
  8
0
  6
CONTINUOUS
 62
               4
100
AcDbLine
 10
-8.6999999999999886
 20
15.299999999999983
 30
0.0
 11
1.3000000000000114
 21
15.299999999999983
 31
0.0
  0
LINE
  5
191
100
AcDbEntity
  8
0
  6
CONTINUOUS
 62
               4
100
AcDbLine
 10
1.3000000000000114
 20
15.299999999999983
 30
0.0
 11
1.3000000000000114
 21
37.799999999999983
 31
0.0
  0
LINE
  5
192
100
AcDbEntity
  8
0
  6
CONTINUOUS
 62
               4
100
AcDbLine
 10
-8.6999999999999886
 20
15.299999999999983
 30
0.0
 11
-8.6999999999999886
 21
37.799999999999983
 31
0.0
  0
LINE
  5
193
100
AcDbEntity
  8
0
  6
CONTINUOUS
 62
               7
100
AcDbLine
 10
-8.6999999999999886
 20
-24.899999999999991
 30
0.0
 11
-8.6999999999999886
 21
15.299999999999983
 31
0.0
  0
LINE
  5
194
100
AcDbEntity
  8
0
  6
CONTINUOUS
 62
               7
100
AcDbLine
 10
1.3000000000000114
 20
-24.899999999999991
 30
0.0
 11
1.3000000000000114
 21
15.299999999999983
 31
0.0
  0
LINE
  5
195
100
AcDbEntity
  8
0
  6
CONTINUOUS
 62
               4
100
AcDbLine
 10
-1.8000000000000114
 20
45.76999999999984
 30
0.0
 11
-1.8000000000000114
 21
42.799999999999869
 31
0.0
  0
LINE
  5
196
100
AcDbEntity
  8
0
  6
CONTINUOUS
 62
               4
100
AcDbLine
 10
-3.1000000000000227
 20
46.119999999999862
 30
0.0
 11
-3.1000000000000227
 21
42.799999999999869
 31
0.0
  0
LINE
  5
197
100
AcDbEntity
  8
0
  6
CONTINUOUS
 62
               4
100
AcDbLine
 10
-5.6000000000000227
 20
46.789999999999878
 30
0.0
 11
-5.6000000000000227
 21
42.799999999999869
 31
0.0
  0
LINE
  5
198
100
AcDbEntity
  8
0
  6
CONTINUOUS
 62
               4
100
AcDbLine
 10
-4.3000000000000114
 20
46.439999999999856
 30
0.0
 11
-4.3000000000000114
 21
42.799999999999869
 31
0.0
  0
LINE
  5
199
100
AcDbEntity
  8
0
  6
CONTINUOUS
 62
               4
100
AcDbLine
 10
-3.1000000000000227
 20
50.292929272933321
 30
0.0
 11
-1.8000000000000114
 21
50.292929272933321
 31
0.0
  0
LINE
  5
19A
100
AcDbEntity
  8
0
  6
CONTINUOUS
 62
             200
100
AcDbLine
 10
-7.4499999999999886
 20
48.319999999999851
 30
0.0
 11
0.0500000000000114
 21
46.30999999999986
 31
0.0
  0
LINE
  5
19B
100
AcDbEntity
  8
0
  6
CONTINUOUS
 62
             200
100
AcDbLine
 10
-7.4499999999999886
 20
47.279999999999887
 30
0.0
 11
0.0500000000000114
 21
45.26999999999984
 31
0.0
  0
LINE
  5
19C
100
AcDbEntity
  8
0
  6
CONTINUOUS
 62
               4
100
AcDbLine
 10
-5.6000000000000227
 20
50.292929272933321
 30
0.0
 11
-4.3000000000000114
 21
50.292929272933321
 31
0.0
  0
LINE
  5
19D
100
AcDbEntity
  8
0
  6
CONTINUOUS
 62
               4
100
AcDbLine
 10
-2.6999999999999886
 20
53.792929270933342
 30
0.0
 11
-2.6999999999999886
 21
50.292929272933321
 31
0.0
  0
LINE
  5
19E
100
AcDbEntity
  8
0
  6
CONTINUOUS
 62
               4
100
AcDbLine
 10
-2.1999999999999886
 20
53.792929270933342
 30
0.0
 11
-2.1999999999999886
 21
50.292929272933321
 31
0.0
  0
LINE
  5
19F
100
AcDbEntity
  8
0
  6
CONTINUOUS
 62
               4
100
AcDbLine
 10
-5.6000000000000227
 20
50.292929272933321
 30
0.0
 11
-5.6000000000000227
 21
47.819999999999851
 31
0.0
  0
LINE
  5
1A0
100
AcDbEntity
  8
0
  6
CONTINUOUS
 62
               4
100
AcDbLine
 10
-4.3000000000000114
 20
50.292929272933321
 30
0.0
 11
-4.3000000000000114
 21
47.469999999999885
 31
0.0
  0
LINE
  5
1A1
100
AcDbEntity
  8
0
  6
CONTINUOUS
 62
               4
100
AcDbLine
 10
-5.1999999999999886
 20
53.792929270933342
 30
0.0
 11
-5.1999999999999886
 21
50.292929272933321
 31
0.0
  0
LINE
  5
1A2
100
AcDbEntity
  8
0
  6
CONTINUOUS
 62
               4
100
AcDbLine
 10
-4.6999999999999886
 20
53.792929270933342
 30
0.0
 11
-4.6999999999999886
 21
50.292929272933321
 31
0.0
  0
LINE
  5
1A3
100
AcDbEntity
  8
0
  6
CONTINUOUS
 62
               4
100
AcDbLine
 10
-3.1000000000000227
 20
50.292929272933321
 30
0.0
 11
-3.1000000000000227
 21
47.149999999999892
 31
0.0
  0
LINE
  5
1A4
100
AcDbEntity
  8
0
  6
CONTINUOUS
 62
               4
100
AcDbLine
 10
-1.8000000000000114
 20
50.292929272933321
 30
0.0
 11
-1.8000000000000114
 21
46.799999999999869
 31
0.0
  0
LINE
  5
1A5
100
AcDbEntity
  8
0
  6
CONTINUOUS
 62
               4
100
AcDbLine
 10
-5.1999999999999886
 20
53.792929270933342
 30
0.0
 11
-4.6999999999999886
 21
53.792929270933342
 31
0.0
  0
LINE
  5
1A6
100
AcDbEntity
  8
0
  6
CONTINUOUS
 62
               4
100
AcDbLine
 10
-2.6999999999999886
 20
53.792929270933342
 30
0.0
 11
-2.1999999999999886
 21
53.792929270933342
 31
0.0
  0
LINE
  5
1A7
100
AcDbEntity
  8
0
  6
CONTINUOUS
 62
               4
100
AcDbLine
 10
-7.4499999999999886
 20
42.799999999999869
 30
0.0
 11
0.0500000000000114
 21
42.799999999999869
 31
0.0
  0
LINE
  5
1A8
100
AcDbEntity
  8
0
  6
CONTINUOUS
 62
               4
100
AcDbLine
 10
-7.4499999999999886
 20
42.799999999999869
 30
0.0
 11
-7.4499999999999886
 21
37.799999999999983
 31
0.0
  0
LINE
  5
1A9
100
AcDbEntity
  8
0
  6
CONTINUOUS
 62
               4
100
AcDbLine
 10
0.0500000000000114
 20
42.799999999999869
 30
0.0
 11
0.0500000000000114
 21
37.799999999999983
 31
0.0
  0
LINE
  5
1AA
100
AcDbEntity
  8
0
  6
CONTINUOUS
 62
               4
100
AcDbLine
 10
-5.5999999999999659
 20
-55.369999999999848
 30
0.0
 11
-5.5999999999999659
 21
-52.399999999999878
 31
0.0
  0
LINE
  5
1AB
100
AcDbEntity
  8
0
  6
CONTINUOUS
 62
               4
100
AcDbLine
 10
-4.2999999999999545
 20
-55.719999999999871
 30
0.0
 11
-4.2999999999999545
 21
-52.399999999999878
 31
0.0
  0
LINE
  5
1AC
100
AcDbEntity
  8
0
  6
CONTINUOUS
 62
               4
100
AcDbLine
 10
-1.7999999999999545
 20
-56.389999999999887
 30
0.0
 11
-1.7999999999999545
 21
-52.399999999999878
 31
0.0
  0
LINE
  5
1AD
100
AcDbEntity
  8
0
  6
CONTINUOUS
 62
               4
100
AcDbLine
 10
-3.0999999999999659
 20
-56.039999999999864
 30
0.0
 11
-3.0999999999999659
 21
-52.399999999999878
 31
0.0
  0
LINE
  5
1AE
100
AcDbEntity
  8
0
  6
CONTINUOUS
 62
               4
100
AcDbLine
 10
-4.2999999999999545
 20
-59.89292927293333
 30
0.0
 11
-5.5999999999999659
 21
-59.89292927293333
 31
0.0
  0
LINE
  5
1AF
100
AcDbEntity
  8
0
  6
CONTINUOUS
 62
             200
100
AcDbLine
 10
0.0500000000000114
 20
-57.91999999999986
 30
0.0
 11
-7.4499999999999886
 21
-55.909999999999869
 31
0.0
  0
LINE
  5
1B0
100
AcDbEntity
  8
0
  6
CONTINUOUS
 62
             200
100
AcDbLine
 10
0.0500000000000114
 20
-56.879999999999896
 30
0.0
 11
-7.4499999999999886
 21
-54.869999999999848
 31
0.0
  0
LINE
  5
1B1
100
AcDbEntity
  8
0
  6
CONTINUOUS
 62
               4
100
AcDbLine
 10
-1.7999999999999545
 20
-59.89292927293333
 30
0.0
 11
-3.0999999999999659
 21
-59.89292927293333
 31
0.0
  0
LINE
  5
1B2
100
AcDbEntity
  8
0
  6
CONTINUOUS
 62
               4
100
AcDbLine
 10
-4.6999999999999886
 20
-63.392929270933351
 30
0.0
 11
-4.6999999999999886
 21
-59.89292927293333
 31
0.0
  0
LINE
  5
1B3
100
AcDbEntity
  8
0
  6
CONTINUOUS
 62
               4
100
AcDbLine
 10
-5.1999999999999886
 20
-63.392929270933351
 30
0.0
 11
-5.1999999999999886
 21
-59.89292927293333
 31
0.0
  0
LINE
  5
1B4
100
AcDbEntity
  8
0
  6
CONTINUOUS
 62
               4
100
AcDbLine
 10
-1.7999999999999545
 20
-59.89292927293333
 30
0.0
 11
-1.7999999999999545
 21
-57.41999999999986
 31
0.0
  0
LINE
  5
1B5
100
AcDbEntity
  8
0
  6
CONTINUOUS
 62
               4
100
AcDbLine
 10
-3.0999999999999659
 20
-59.89292927293333
 30
0.0
 11
-3.0999999999999659
 21
-57.069999999999894
 31
0.0
  0
LINE
  5
1B6
100
AcDbEntity
  8
0
  6
CONTINUOUS
 62
               4
100
AcDbLine
 10
-2.1999999999999886
 20
-63.392929270933351
 30
0.0
 11
-2.1999999999999886
 21
-59.89292927293333
 31
0.0
  0
LINE
  5
1B7
100
AcDbEntity
  8
0
  6
CONTINUOUS
 62
               4
100
AcDbLine
 10
-2.6999999999999886
 20
-63.392929270933351
 30
0.0
 11
-2.6999999999999886
 21
-59.89292927293333
 31
0.0
  0
LINE
  5
1B8
100
AcDbEntity
  8
0
  6
CONTINUOUS
 62
               4
100
AcDbLine
 10
-4.2999999999999545
 20
-59.89292927293333
 30
0.0
 11
-4.2999999999999545
 21
-56.749999999999901
 31
0.0
  0
LINE
  5
1B9
100
AcDbEntity
  8
0
  6
CONTINUOUS
 62
               4
100
AcDbLine
 10
-5.5999999999999659
 20
-59.89292927293333
 30
0.0
 11
-5.5999999999999659
 21
-56.399999999999878
 31
0.0
  0
LINE
  5
1BA
100
AcDbEntity
  8
0
  6
CONTINUOUS
 62
               4
100
AcDbLine
 10
-2.1999999999999886
 20
-63.392929270933351
 30
0.0
 11
-2.6999999999999886
 21
-63.392929270933351
 31
0.0
  0
LINE
  5
1BB
100
AcDbEntity
  8
0
  6
CONTINUOUS
 62
               4
100
AcDbLine
 10
-4.6999999999999886
 20
-63.392929270933351
 30
0.0
 11
-5.1999999999999886
 21
-63.392929270933351
 31
0.0
  0
LINE
  5
1BC
100
AcDbEntity
  8
0
  6
CONTINUOUS
 62
               4
100
AcDbLine
 10
0.0500000000000114
 20
-52.399999999999878
 30
0.0
 11
-7.4499999999999886
 21
-52.399999999999878
 31
0.0
  0
LINE
  5
1BD
100
AcDbEntity
  8
0
  6
CONTINUOUS
 62
               4
100
AcDbLine
 10
0.0500000000000114
 20
-52.399999999999878
 30
0.0
 11
0.0500000000000114
 21
-47.399999999999991
 31
0.0
  0
LINE
  5
1BE
100
AcDbEntity
  8
0
  6
CONTINUOUS
 62
               4
100
AcDbLine
 10
-7.4499999999999886
 20
-52.399999999999878
 30
0.0
 11
-7.4499999999999886
 21
-47.399999999999991
 31
0.0
  0
LINE
  5
1BF
100
AcDbEntity
  8
0
  6
CONTINUOUS
 62
               4
100
AcDbLine
 10
0.0500000000000114
 20
41.796969688399656
 30
0.0
 11
-7.4499999999999886
 21
41.796969688399656
 31
0.0
  0
LINE
  5
1C0
100
AcDbEntity
  8
0
  6
CONTINUOUS
 62
               4
100
AcDbLine
 10
0.0500000000000114
 20
-51.396969688400077
 30
0.0
 11
-7.4499999999999886
 21
-51.396969688400077
 31
0.0
  0
ENDBLK
  5
1C1
100
AcDbEntity
  8
0
100
AcDbBlockEnd
  0
BLOCK
  5
1C2
100
AcDbEntity
  8
0
100
AcDbBlockBegin
  2
EA10F6-4
 70
               0
 10
0.0
 20
0.0
 30
0.0
  3
EA10F6-4
  1

  0
LINE
  5
1C3
100
AcDbEntity
  8
0
  6
CENTER
 62
               2
100
AcDbLine
 10
3.7000000000000028
 20
38.698000000000029
 30
0.0
 11
3.6999999999999886
 21
-48.298000000000016
 31
0.0
  0
LINE
  5
1C4
100
AcDbEntity
  8
0
  6
CENTER
 62
               2
100
AcDbLine
 10
2.3700000000000045
 20
-22.599001430615175
 30
0.0
 11
5.0400000000000063
 21
-22.599001430615175
 31
0.0
  0
LINE
  5
1C5
100
AcDbEntity
  8
0
  6
CONTINUOUS
 62
               4
100
AcDbLine
 10
-1.2999999999999972
 20
-24.899999999999991
 30
0.0
 11
8.7000000000000028
 21
-24.899999999999991
 31
0.0
  0
LINE
  5
1C6
100
AcDbEntity
  8
0
  6
CONTINUOUS
 62
               7
100
AcDbLine
 10
8.7000000000000028
 20
-13.899999999999991
 30
0.0
 11
8.7000000000000028
 21
-24.899999999999991
 31
0.0
  0
LINE
  5
1C7
100
AcDbEntity
  8
0
  6
CONTINUOUS
 62
               7
100
AcDbLine
 10
-1.2999999999999972
 20
-13.899999999999991
 30
0.0
 11
-1.2999999999999972
 21
-24.899999999999991
 31
0.0
  0
LINE
  5
1C8
100
AcDbEntity
  8
0
  6
CONTINUOUS
 62
               7
100
AcDbLine
 10
5.7000000000000028
 20
-20.899999999999991
 30
0.0
 11
5.7000000000000028
 21
-24.899999999999991
 31
0.0
  0
LINE
  5
1C9
100
AcDbEntity
  8
0
  6
CONTINUOUS
 62
               7
100
AcDbLine
 10
1.7000000000000028
 20
-20.899999999999991
 30
0.0
 11
1.7000000000000028
 21
-24.899999999999991
 31
0.0
  0
ARC
  5
1CA
100
AcDbEntity
  8
0
  6
CONTINUOUS
 62
               7
100
AcDbCircle
 10
3.7000000000000028
 20
-20.899999999999991
 30
0.0
 40
2.0
100
AcDbArc
 50
0.0
 51
179.99999999999963
  0
LINE
  5
1CB
100
AcDbEntity
  8
0
  6
CENTER
 62
               2
100
AcDbLine
 10
2.0000000000000142
 20
-22.600000000000009
 30
0.0
 11
5.3999999999999915
 21
-22.600000000000009
 31
0.0
  0
CIRCLE
  5
1CC
100
AcDbEntity
  8
0
  6
CONTINUOUS
 62
               7
100
AcDbCircle
 10
3.7000000000000028
 20
-22.600000000000009
 30
0.0
 40
1.3000000000000012
  0
CIRCLE
  5
1CD
100
AcDbEntity
  8
0
  6
CONTINUOUS
 62
               7
100
AcDbCircle
 10
3.7000000000000028
 20
-22.600000000000009
 30
0.0
 40
1.1500000000000001
  0
CIRCLE
  5
1CE
100
AcDbEntity
  8
0
  6
CONTINUOUS
 62
               7
100
AcDbCircle
 10
3.7000000000000028
 20
-22.600000000000009
 30
0.0
 40
1.1000000000000001
  0
CIRCLE
  5
1CF
100
AcDbEntity
  8
0
  6
CONTINUOUS
 62
               7
100
AcDbCircle
 10
3.7000000000000028
 20
-22.600000000000009
 30
0.0
 40
0.75
  0
LINE
  5
1D0
100
AcDbEntity
  8
0
  6
CONTINUOUS
 62
               7
100
AcDbLine
 10
-1.2999999999999972
 20
-13.899999999999991
 30
0.0
 11
8.7000000000000028
 21
-13.899999999999991
 31
0.0
  0
LINE
  5
1D1
100
AcDbEntity
  8
0
  6
CONTINUOUS
 62
               4
100
AcDbLine
 10
8.4699999999999847
 20
-43.902000000000015
 30
0.0
 11
8.4699999999999847
 21
-26.611999999999995
 31
0.0
  0
LINE
  5
1D2
100
AcDbEntity
  8
0
  6
CONTINUOUS
 62
               4
100
AcDbLine
 10
-1.0699999999999932
 20
-43.902000000000015
 30
0.0
 11
-1.069999999999979
 21
-26.611999999999995
 31
0.0
  0
LINE
  5
1D3
100
AcDbEntity
  8
0
  6
CONTINUOUS
 62
               4
100
AcDbLine
 10
8.7000000000000028
 20
-47.40000000000002
 30
0.0
 11
8.7000000000000028
 21
-24.899999999999991
 31
0.0
  0
LINE
  5
1D4
100
AcDbEntity
  8
0
  6
CONTINUOUS
 62
               4
100
AcDbLine
 10
-1.3000000000000114
 20
-47.40000000000002
 30
0.0
 11
-1.2999999999999972
 21
-24.899999999999991
 31
0.0
  0
LINE
  5
1D5
100
AcDbEntity
  8
0
  6
CONTINUOUS
 62
               4
100
AcDbLine
 10
-1.3000000000000114
 20
-47.40000000000002
 30
0.0
 11
8.7000000000000028
 21
-47.40000000000002
 31
0.0
  0
LINE
  5
1D6
100
AcDbEntity
  8
0
  6
CONTINUOUS
 62
               4
100
AcDbLine
 10
-1.3000000000000114
 20
-45.799999999999997
 30
0.0
 11
0.9499999999999886
 21
-45.799999999999997
 31
0.0
  0
LINE
  5
1D7
100
AcDbEntity
  8
0
  6
CONTINUOUS
 62
               4
100
AcDbLine
 10
1.8999999999999773
 20
-47.299999999999997
 30
0.0
 11
8.2000000000000028
 21
-47.299999999999997
 31
0.0
  0
LINE
  5
1D8
100
AcDbEntity
  8
0
  6
CONTINUOUS
 62
               4
100
AcDbLine
 10
1.8999999999999773
 20
-47.299999999999997
 30
0.0
 11
1.8999999999999773
 21
-46.50200000000001
 31
0.0
  0
ARC
  5
1D9
100
AcDbEntity
  8
0
  6
CONTINUOUS
 62
               4
100
AcDbCircle
 10
8.2000000000000028
 20
-46.799999999999997
 30
0.0
 40
0.5
100
AcDbArc
 50
269.99999999999937
 51
0.0
  0
LINE
  5
1DA
100
AcDbEntity
  8
0
  6
CONTINUOUS
 62
               4
100
AcDbLine
 10
-1.3000000000000114
 20
-46.799999999999997
 30
0.0
 11
1.8999999999999773
 21
-46.799999999999997
 31
0.0
  0
ARC
  5
1DB
100
AcDbEntity
  8
0
  6
CONTINUOUS
 62
               4
100
AcDbCircle
 10
-0.5040951466582442
 20
-46.800095146658165
 30
0.0
 40
0.5999048608870732
100
AcDbArc
 50
179.99091272245337
 51
270.00908727754575
  0
ARC
  5
1DC
100
AcDbEntity
  8
0
  6
CONTINUOUS
 62
               4
100
AcDbCircle
 10
1.2970880052370148
 20
-46.80108800523702
 30
0.0
 40
0.5989129830170392
100
AcDbArc
 50
269.89591452477231
 51
0.1040854752270701
  0
LINE
  5
1DD
100
AcDbEntity
  8
0
  6
CONTINUOUS
 62
               4
100
AcDbLine
 10
0.9499999999999886
 20
-46.50200000000001
 30
0.0
 11
0.9499999999999886
 21
-42.801999999999992
 31
0.0
  0
LINE
  5
1DE
100
AcDbEntity
  8
0
  6
CONTINUOUS
 62
               4
100
AcDbLine
 10
6.5499999999999829
 20
-39.402000000000015
 30
0.0
 11
0.8499999999999943
 21
-39.402000000000015
 31
0.0
  0
LINE
  5
1DF
100
AcDbEntity
  8
0
  6
CONTINUOUS
 62
               4
100
AcDbLine
 10
6.1200000000000045
 20
-43.801999999999992
 30
0.0
 11
1.289999999999992
 21
-43.801999999999992
 31
0.0
  0
LINE
  5
1E0
100
AcDbEntity
  8
0
  6
CONTINUOUS
 62
               4
100
AcDbLine
 10
6.4199999999999875
 20
-43.50200000000001
 30
0.0
 11
0.9900000000000091
 21
-43.50200000000001
 31
0.0
  0
LINE
  5
1E1
100
AcDbEntity
  8
0
  6
CONTINUOUS
 62
               4
100
AcDbLine
 10
6.4499999999999886
 20
-44.50200000000001
 30
0.0
 11
0.9499999999999886
 21
-44.50200000000001
 31
0.0
  0
LINE
  5
1E2
100
AcDbEntity
  8
0
  6
CONTINUOUS
 62
               4
100
AcDbLine
 10
6.4499999999999886
 20
-39.50200000000001
 30
0.0
 11
0.9499999999999886
 21
-39.50200000000001
 31
0.0
  0
ARC
  5
1E3
100
AcDbEntity
  8
0
  6
CONTINUOUS
 62
               4
100
AcDbCircle
 10
-0.8000045775226568
 20
-43.902004577522632
 30
0.0
 40
0.4999954224983215
100
AcDbArc
 50
179.99947544974253
 51
270.00052455025644
  0
LINE
  5
1E4
100
AcDbEntity
  8
0
  6
CONTINUOUS
 62
               4
100
AcDbLine
 10
0.9499999999999886
 20
-44.402000000000015
 30
0.0
 11
-0.8000000000000114
 21
-44.402000000000015
 31
0.0
  0
LINE
  5
1E5
100
AcDbEntity
  8
0
  6
CONTINUOUS
 62
               4
100
AcDbLine
 10
3.3999999999999773
 20
-43.152000000000015
 30
0.0
 11
3.3999999999999773
 21
-41.051999999999992
 31
0.0
  0
LINE
  5
1E6
100
AcDbEntity
  8
0
  6
CONTINUOUS
 62
               4
100
AcDbLine
 10
2.9499999999999886
 20
-41.051999999999992
 30
0.0
 11
2.9499999999999886
 21
-40.75200000000001
 31
0.0
  0
ARC
  5
1E7
100
AcDbEntity
  8
0
  6
CONTINUOUS
 62
               4
100
AcDbCircle
 10
-0.5699990844457545
 20
-43.901999084445748
 30
0.0
 40
0.5000009155550945
100
AcDbArc
 50
180.00010491459673
 51
269.99989508540227
  0
LINE
  5
1E8
100
AcDbEntity
  8
0
  6
CONTINUOUS
 62
               4
100
AcDbLine
 10
-0.0500000000000114
 20
-41.00200000000001
 30
0.0
 11
-0.0500000000000114
 21
-42.801999999999992
 31
0.0
  0
LINE
  5
1E9
100
AcDbEntity
  8
0
  6
CONTINUOUS
 62
               4
100
AcDbLine
 10
-0.1500000000000057
 20
-42.902000000000015
 30
0.0
 11
-0.1500000000000057
 21
-40.902000000000015
 31
0.0
  0
LINE
  5
1EA
100
AcDbEntity
  8
0
  6
CONTINUOUS
 62
               4
100
AcDbLine
 10
0.8499999999999943
 20
-40.902000000000015
 30
0.0
 11
0.8499999999999943
 21
-39.402000000000015
 31
0.0
  0
LINE
  5
1EB
100
AcDbEntity
  8
0
  6
CONTINUOUS
 62
               4
100
AcDbLine
 10
0.8499999999999943
 20
-44.402000000000015
 30
0.0
 11
0.8499999999999943
 21
-42.902000000000015
 31
0.0
  0
LINE
  5
1EC
100
AcDbEntity
  8
0
  6
CONTINUOUS
 62
               4
100
AcDbLine
 10
1.5
 20
-43.152000000000015
 30
0.0
 11
1.5
 21
-41.051999999999992
 31
0.0
  0
LINE
  5
1ED
100
AcDbEntity
  8
0
  6
CONTINUOUS
 62
               4
100
AcDbLine
 10
0.9900000000000091
 20
-43.50200000000001
 30
0.0
 11
1.289999999999992
 21
-43.801999999999992
 31
0.0
  0
LINE
  5
1EE
100
AcDbEntity
  8
0
  6
CONTINUOUS
 62
               4
100
AcDbLine
 10
1.9499999999999886
 20
-41.051999999999992
 30
0.0
 11
1.9499999999999886
 21
-40.75200000000001
 31
0.0
  0
LINE
  5
1EF
100
AcDbEntity
  8
0
  6
CONTINUOUS
 62
               4
100
AcDbLine
 10
0.9499999999999886
 20
-41.00200000000001
 30
0.0
 11
0.9499999999999886
 21
-39.50200000000001
 31
0.0
  0
LINE
  5
1F0
100
AcDbEntity
  8
0
  6
CONTINUOUS
 62
               4
100
AcDbLine
 10
2.9499999999999886
 20
-40.75200000000001
 30
0.0
 11
1.9499999999999886
 21
-40.75200000000001
 31
0.0
  0
LINE
  5
1F1
100
AcDbEntity
  8
0
  6
CONTINUOUS
 62
               4
100
AcDbLine
 10
0.9499999999999886
 20
-41.00200000000001
 30
0.0
 11
-0.0500000000000114
 21
-41.00200000000001
 31
0.0
  0
LINE
  5
1F2
100
AcDbEntity
  8
0
  6
CONTINUOUS
 62
               4
100
AcDbLine
 10
0.9499999999999886
 20
-42.801999999999992
 30
0.0
 11
-0.0500000000000114
 21
-42.801999999999992
 31
0.0
  0
LINE
  5
1F3
100
AcDbEntity
  8
0
  6
CONTINUOUS
 62
               4
100
AcDbLine
 10
3.3999999999999773
 20
-42.951999999999998
 30
0.0
 11
1.5
 21
-42.951999999999998
 31
0.0
  0
LINE
  5
1F4
100
AcDbEntity
  8
0
  6
CONTINUOUS
 62
               4
100
AcDbLine
 10
3.3999999999999773
 20
-41.051999999999992
 30
0.0
 11
1.5
 21
-41.051999999999992
 31
0.0
  0
LINE
  5
1F5
100
AcDbEntity
  8
0
  6
CONTINUOUS
 62
               4
100
AcDbLine
 10
3.3999999999999773
 20
-43.152000000000015
 30
0.0
 11
1.5
 21
-43.152000000000015
 31
0.0
  0
LINE
  5
1F6
100
AcDbEntity
  8
0
  6
CONTINUOUS
 62
               4
100
AcDbLine
 10
0.8499999999999943
 20
-42.902000000000015
 30
0.0
 11
-0.1500000000000057
 21
-42.902000000000015
 31
0.0
  0
LINE
  5
1F7
100
AcDbEntity
  8
0
  6
CONTINUOUS
 62
               4
100
AcDbLine
 10
0.8499999999999943
 20
-40.902000000000015
 30
0.0
 11
-0.1500000000000057
 21
-40.902000000000015
 31
0.0
  0
CIRCLE
  5
1F8
100
AcDbEntity
  8
0
  6
CONTINUOUS
 62
               4
100
AcDbCircle
 10
2.4499999999999886
 20
-42.001984741210947
 30
0.0
 40
0.8499675393104553
  0
LINE
  5
1F9
100
AcDbEntity
  8
0
  6
CONTINUOUS
 62
               4
100
AcDbLine
 10
6.4499999999999886
 20
-45.50200000000001
 30
0.0
 11
0.9499999999999886
 21
-45.50200000000001
 31
0.0
  0
LINE
  5
1FA
100
AcDbEntity
  8
0
  6
CONTINUOUS
 62
               4
100
AcDbLine
 10
6.4499999999999886
 20
-46.50200000000001
 30
0.0
 11
0.9499999999999886
 21
-46.50200000000001
 31
0.0
  0
LINE
  5
1FB
100
AcDbEntity
  8
0
  6
CONTINUOUS
 62
               4
100
AcDbLine
 10
6.4499999999999886
 20
-46.50200000000001
 30
0.0
 11
6.4499999999999886
 21
-42.801999999999992
 31
0.0
  0
LINE
  5
1FC
100
AcDbEntity
  8
0
  6
CONTINUOUS
 62
               4
100
AcDbLine
 10
5.8999999999999773
 20
-41.051999999999992
 30
0.0
 11
4.0
 21
-41.051999999999992
 31
0.0
  0
LINE
  5
1FD
100
AcDbEntity
  8
0
  6
CONTINUOUS
 62
               4
100
AcDbLine
 10
5.4499999999999886
 20
-40.75200000000001
 30
0.0
 11
4.4499999999999886
 21
-40.75200000000001
 31
0.0
  0
LINE
  5
1FE
100
AcDbEntity
  8
0
  6
CONTINUOUS
 62
               4
100
AcDbLine
 10
7.4500000000000028
 20
-41.00200000000001
 30
0.0
 11
6.4499999999999886
 21
-41.00200000000001
 31
0.0
  0
LINE
  5
1FF
100
AcDbEntity
  8
0
  6
CONTINUOUS
 62
               4
100
AcDbLine
 10
5.8999999999999773
 20
-43.152000000000015
 30
0.0
 11
5.8999999999999773
 21
-41.051999999999992
 31
0.0
  0
LINE
  5
200
100
AcDbEntity
  8
0
  6
CONTINUOUS
 62
               4
100
AcDbLine
 10
7.5499999999999972
 20
-40.902000000000015
 30
0.0
 11
6.5499999999999829
 21
-40.902000000000015
 31
0.0
  0
CIRCLE
  5
201
100
AcDbEntity
  8
0
  6
CONTINUOUS
 62
               4
100
AcDbCircle
 10
4.9499999999999886
 20
-42.001984741210947
 30
0.0
 40
0.8499675393104553
  0
LINE
  5
202
100
AcDbEntity
  8
0
  6
CONTINUOUS
 62
               4
100
AcDbLine
 10
6.5499999999999829
 20
-40.902000000000015
 30
0.0
 11
6.5499999999999829
 21
-39.402000000000015
 31
0.0
  0
LINE
  5
203
100
AcDbEntity
  8
0
  6
CONTINUOUS
 62
               4
100
AcDbLine
 10
5.4499999999999886
 20
-41.051999999999992
 30
0.0
 11
5.4499999999999886
 21
-40.75200000000001
 31
0.0
  0
LINE
  5
204
100
AcDbEntity
  8
0
  6
CONTINUOUS
 62
               4
100
AcDbLine
 10
6.4499999999999886
 20
-41.00200000000001
 30
0.0
 11
6.4499999999999886
 21
-39.50200000000001
 31
0.0
  0
LINE
  5
205
100
AcDbEntity
  8
0
  6
CONTINUOUS
 62
               4
100
AcDbLine
 10
7.4500000000000028
 20
-42.801999999999992
 30
0.0
 11
6.4499999999999886
 21
-42.801999999999992
 31
0.0
  0
LINE
  5
206
100
AcDbEntity
  8
0
  6
CONTINUOUS
 62
               4
100
AcDbLine
 10
7.4500000000000028
 20
-41.00200000000001
 30
0.0
 11
7.4500000000000028
 21
-42.801999999999992
 31
0.0
  0
LINE
  5
207
100
AcDbEntity
  8
0
  6
CONTINUOUS
 62
               4
100
AcDbLine
 10
7.5499999999999972
 20
-42.902000000000015
 30
0.0
 11
7.5499999999999972
 21
-40.902000000000015
 31
0.0
  0
LINE
  5
208
100
AcDbEntity
  8
0
  6
CONTINUOUS
 62
               4
100
AcDbLine
 10
7.5499999999999972
 20
-42.902000000000015
 30
0.0
 11
6.5499999999999829
 21
-42.902000000000015
 31
0.0
  0
LINE
  5
209
100
AcDbEntity
  8
0
  6
CONTINUOUS
 62
               4
100
AcDbLine
 10
6.4499999999999886
 20
-43.462000000000018
 30
0.0
 11
6.1200000000000045
 21
-43.801999999999992
 31
0.0
  0
LINE
  5
20A
100
AcDbEntity
  8
0
  6
CONTINUOUS
 62
               4
100
AcDbLine
 10
6.5499999999999829
 20
-44.402000000000015
 30
0.0
 11
6.5499999999999829
 21
-42.902000000000015
 31
0.0
  0
LINE
  5
20B
100
AcDbEntity
  8
0
  6
CONTINUOUS
 62
               4
100
AcDbLine
 10
4.0
 20
-43.152000000000015
 30
0.0
 11
4.0
 21
-41.051999999999992
 31
0.0
  0
LINE
  5
20C
100
AcDbEntity
  8
0
  6
CONTINUOUS
 62
               4
100
AcDbLine
 10
4.4499999999999886
 20
-41.051999999999992
 30
0.0
 11
4.4499999999999886
 21
-40.75200000000001
 31
0.0
  0
LINE
  5
20D
100
AcDbEntity
  8
0
  6
CONTINUOUS
 62
               4
100
AcDbLine
 10
5.8999999999999773
 20
-43.152000000000015
 30
0.0
 11
4.0
 21
-43.152000000000015
 31
0.0
  0
LINE
  5
20E
100
AcDbEntity
  8
0
  6
CONTINUOUS
 62
               4
100
AcDbLine
 10
5.8999999999999773
 20
-42.951999999999998
 30
0.0
 11
4.0
 21
-42.951999999999998
 31
0.0
  0
LINE
  5
20F
100
AcDbEntity
  8
0
  6
PHANTOM
 62
             200
100
AcDbLine
 10
5.2000000000000028
 20
-32.401999999999987
 30
0.0
 11
2.2000000000000028
 21
-32.401999999999987
 31
0.0
  0
LINE
  5
210
100
AcDbEntity
  8
0
  6
PHANTOM
 62
             200
100
AcDbLine
 10
5.2000000000000028
 20
-30.401999999999987
 30
0.0
 11
2.2000000000000028
 21
-30.401999999999987
 31
0.0
  0
LINE
  5
211
100
AcDbEntity
  8
0
  6
PHANTOM
 62
             200
100
AcDbLine
 10
2.2000000000000028
 20
-32.401999999999987
 30
0.0
 11
2.2000000000000028
 21
-30.401999999999987
 31
0.0
  0
LINE
  5
212
100
AcDbEntity
  8
0
  6
PHANTOM
 62
             200
100
AcDbLine
 10
5.2000000000000028
 20
-32.401999999999987
 30
0.0
 11
5.2000000000000028
 21
-30.401999999999987
 31
0.0
  0
ARC
  5
213
100
AcDbEntity
  8
0
  6
CONTINUOUS
 62
               4
100
AcDbCircle
 10
8.1999893188266952
 20
-43.901989318826708
 30
0.0
 40
0.5000106812873828
100
AcDbArc
 50
270.00122394615283
 51
359.99877605384501
  0
ARC
  5
214
100
AcDbEntity
  8
0
  6
CONTINUOUS
 62
               4
100
AcDbCircle
 10
7.969999084445746
 20
-43.901999084445748
 30
0.0
 40
0.5000009155550945
100
AcDbArc
 50
270.00010491459648
 51
359.99989508540216
  0
LINE
  5
215
100
AcDbEntity
  8
0
  6
CONTINUOUS
 62
               4
100
AcDbLine
 10
8.2000000000000028
 20
-44.402000000000015
 30
0.0
 11
6.4499999999999886
 21
-44.402000000000015
 31
0.0
  0
LINE
  5
216
100
AcDbEntity
  8
0
  6
CONTINUOUS
 62
               4
100
AcDbLine
 10
7.9699999999999847
 20
-26.111999999999995
 30
0.0
 11
-0.569999999999979
 21
-26.111999999999995
 31
0.0
  0
ARC
  5
217
100
AcDbEntity
  8
0
  6
CONTINUOUS
 62
               4
100
AcDbCircle
 10
7.9688025755102814
 20
-26.613197424489698
 30
0.0
 40
0.5011988548874781
100
AcDbArc
 50
0.1368866551550224
 51
89.863113344844777
  0
ARC
  5
218
100
AcDbEntity
  8
0
  6
CONTINUOUS
 62
               4
100
AcDbCircle
 10
-0.5688025755102757
 20
-26.613197424489698
 30
0.0
 40
0.5011988548874781
100
AcDbArc
 50
90.136886655154825
 51
179.86311334484458
  0
CIRCLE
  5
219
100
AcDbEntity
  8
0
  6
CONTINUOUS
 62
               7
100
AcDbCircle
 10
0.0
 20
-0.0000000000000071
 30
0.0
 40
1.0
  0
ARC
  5
21A
100
AcDbEntity
  8
0
  6
CONTINUOUS
 62
               7
100
AcDbCircle
 10
0.0
 20
-0.0000000000000071
 30
0.0
 40
1.6499999999999999
100
AcDbArc
 50
269.99999999999937
 51
89.999999999999801
  0
LINE
  5
21B
100
AcDbEntity
  8
0
  6
CONTINUOUS
 62
               7
100
AcDbLine
 10
0.0
 20
1.6499999999999915
 30
0.0
 11
-1.2999999999999972
 21
1.6499999999999915
 31
0.0
  0
LINE
  5
21C
100
AcDbEntity
  8
0
  6
CONTINUOUS
 62
               7
100
AcDbLine
 10
0.0
 20
-1.6500000000000128
 30
0.0
 11
-1.2999999999999972
 21
-1.6500000000000128
 31
0.0
  0
LINE
  5
21D
100
AcDbEntity
  8
0
  6
CENTER
 62
               2
100
AcDbLine
 10
7.5838949302954006
 20
-1.6000000000000014
 30
0.0
 11
3.9224912070590676
 21
-1.6000000000000014
 31
0.0
  0
LINE
  5
21E
100
AcDbEntity
  8
0
  6
CENTER
 62
               2
100
AcDbLine
 10
9.5781662840152251
 20
-9.6000000000000014
 30
0.0
 11
5.2218337159847863
 21
-9.6000000000000014
 31
0.0
  0
LINE
  5
21F
100
AcDbEntity
  8
0
  6
CENTER
 62
               2
100
AcDbLine
 10
7.4000000000000057
 20
-11.778166284015221
 30
0.0
 11
7.4000000000000057
 21
-7.421833715984782
 31
0.0
  0
CIRCLE
  5
220
100
AcDbEntity
  8
0
  6
CONTINUOUS
 62
               7
100
AcDbCircle
 10
7.4000000000000057
 20
-9.6000000000000014
 30
0.0
 40
1.0
  0
LINE
  5
221
100
AcDbEntity
  8
0
  6
CENTER
 62
               2
100
AcDbLine
 10
3.4959790593988203
 20
-8.0000000000000071
 30
0.0
 11
-0.2952400309144281
 21
-8.0000000000000071
 31
0.0
  0
CIRCLE
  5
222
100
AcDbEntity
  8
0
  6
CONTINUOUS
 62
               2
100
AcDbCircle
 10
1.7000000000000028
 20
-8.0000000000000071
 30
0.0
 40
1.5
  0
CIRCLE
  5
223
100
AcDbEntity
  8
0
  6
CONTINUOUS
 62
               7
100
AcDbCircle
 10
1.7000000000000028
 20
-8.0000000000000071
 30
0.0
 40
1.25
  0
LINE
  5
224
100
AcDbEntity
  8
0
  6
CENTER
 62
               2
100
AcDbLine
 10
1.7000000000000028
 20
-9.9088409314013646
 30
0.0
 11
1.7000000000000028
 21
-6.1176218410881305
 31
0.0
  0
ARC
  5
225
100
AcDbEntity
  8
0
  6
CONTINUOUS
 62
               7
100
AcDbCircle
 10
7.4000000000000057
 20
-9.6000000000000014
 30
0.0
 40
1.6499999999999999
100
AcDbArc
 50
89.999999999999815
 51
269.99999999999937
  0
LINE
  5
226
100
AcDbEntity
  8
0
  6
CONTINUOUS
 62
               7
100
AcDbLine
 10
7.4000000000000057
 20
-7.9500000000000099
 30
0.0
 11
8.7000000000000028
 21
-7.9500000000000099
 31
0.0
  0
LINE
  5
227
100
AcDbEntity
  8
0
  6
CONTINUOUS
 62
               7
100
AcDbLine
 10
7.4000000000000057
 20
-11.250000000000007
 30
0.0
 11
8.7000000000000028
 21
-11.250000000000007
 31
0.0
  0
LINE
  5
228
100
AcDbEntity
  8
0
  6
CENTER
 62
               2
100
AcDbLine
 10
0.0
 20
-2.1781662840152194
 30
0.0
 11
0.0
 21
2.1781662840152194
 31
0.0
  0
LINE
  5
229
100
AcDbEntity
  8
0
  6
CENTER
 62
               2
100
AcDbLine
 10
5.7000000000000028
 20
-3.8060236083780339
 30
0.0
 11
5.7000000000000028
 21
0.5170115669600506
 31
0.0
  0
CIRCLE
  5
22A
100
AcDbEntity
  8
0
  6
CONTINUOUS
 62
               7
100
AcDbCircle
 10
5.7000000000000028
 20
-1.6000000000000014
 30
0.0
 40
1.25
  0
CIRCLE
  5
22B
100
AcDbEntity
  8
0
  6
CONTINUOUS
 62
               2
100
AcDbCircle
 10
5.7000000000000028
 20
-1.6000000000000014
 30
0.0
 40
1.5
  0
LINE
  5
22C
100
AcDbEntity
  8
0
  6
CONTINUOUS
 62
               7
100
AcDbLine
 10
8.7000000000000028
 20
-13.899999999999999
 30
0.0
 11
8.7000000000000028
 21
4.2999999999999972
 31
0.0
  0
LINE
  5
22D
100
AcDbEntity
  8
0
  6
CONTINUOUS
 62
               7
100
AcDbLine
 10
-1.2999999999999972
 20
-13.899999999999999
 30
0.0
 11
-1.2999999999999972
 21
4.2999999999999972
 31
0.0
  0
LINE
  5
22E
100
AcDbEntity
  8
0
  6
CONTINUOUS
 62
               4
100
AcDbLine
 10
-0.7999999999999972
 20
34.802000000000014
 30
0.0
 11
0.9500000000000028
 21
34.802000000000014
 31
0.0
  0
ARC
  5
22F
100
AcDbEntity
  8
0
  6
CONTINUOUS
 62
               4
100
AcDbCircle
 10
-0.5699990844457403
 20
34.301999084445747
 30
0.0
 40
0.5000009155550945
100
AcDbArc
 50
90.000104914596918
 51
179.99989508540253
  0
ARC
  5
230
100
AcDbEntity
  8
0
  6
CONTINUOUS
 62
               4
100
AcDbCircle
 10
-0.7999893188266896
 20
34.301989318826706
 30
0.0
 40
0.5000106812873828
100
AcDbArc
 50
90.001223946153175
 51
179.9987760538454
  0
LINE
  5
231
100
AcDbEntity
  8
0
  6
PHANTOM
 62
             200
100
AcDbLine
 10
2.2000000000000028
 20
22.801999999999985
 30
0.0
 11
2.2000000000000028
 21
20.801999999999985
 31
0.0
  0
LINE
  5
232
100
AcDbEntity
  8
0
  6
PHANTOM
 62
             200
100
AcDbLine
 10
5.2000000000000028
 20
22.801999999999985
 30
0.0
 11
5.2000000000000028
 21
20.801999999999985
 31
0.0
  0
LINE
  5
233
100
AcDbEntity
  8
0
  6
PHANTOM
 62
             200
100
AcDbLine
 10
2.2000000000000028
 20
20.801999999999985
 30
0.0
 11
5.2000000000000028
 21
20.801999999999985
 31
0.0
  0
LINE
  5
234
100
AcDbEntity
  8
0
  6
PHANTOM
 62
             200
100
AcDbLine
 10
2.2000000000000028
 20
22.801999999999985
 30
0.0
 11
5.2000000000000028
 21
22.801999999999985
 31
0.0
  0
LINE
  5
235
100
AcDbEntity
  8
0
  6
CONTINUOUS
 62
               4
100
AcDbLine
 10
1.5000000000000142
 20
33.351999999999997
 30
0.0
 11
3.3999999999999915
 21
33.351999999999997
 31
0.0
  0
LINE
  5
236
100
AcDbEntity
  8
0
  6
CONTINUOUS
 62
               4
100
AcDbLine
 10
1.5000000000000142
 20
33.552000000000014
 30
0.0
 11
3.3999999999999915
 21
33.552000000000014
 31
0.0
  0
LINE
  5
237
100
AcDbEntity
  8
0
  6
CONTINUOUS
 62
               4
100
AcDbLine
 10
2.9500000000000028
 20
31.451999999999991
 30
0.0
 11
2.9500000000000028
 21
31.152000000000008
 31
0.0
  0
LINE
  5
238
100
AcDbEntity
  8
0
  6
CONTINUOUS
 62
               4
100
AcDbLine
 10
3.3999999999999915
 20
33.552000000000014
 30
0.0
 11
3.3999999999999915
 21
31.451999999999991
 31
0.0
  0
LINE
  5
239
100
AcDbEntity
  8
0
  6
CONTINUOUS
 62
               4
100
AcDbLine
 10
0.8500000000000085
 20
34.802000000000014
 30
0.0
 11
0.8500000000000085
 21
33.302000000000014
 31
0.0
  0
LINE
  5
23A
100
AcDbEntity
  8
0
  6
CONTINUOUS
 62
               4
100
AcDbLine
 10
0.9500000000000028
 20
33.862000000000016
 30
0.0
 11
1.2799999999999869
 21
34.201999999999991
 31
0.0
  0
LINE
  5
23B
100
AcDbEntity
  8
0
  6
CONTINUOUS
 62
               4
100
AcDbLine
 10
-0.1499999999999915
 20
33.302000000000014
 30
0.0
 11
0.8500000000000085
 21
33.302000000000014
 31
0.0
  0
LINE
  5
23C
100
AcDbEntity
  8
0
  6
CONTINUOUS
 62
               4
100
AcDbLine
 10
-0.1499999999999915
 20
33.302000000000014
 30
0.0
 11
-0.1499999999999915
 21
31.302000000000014
 31
0.0
  0
LINE
  5
23D
100
AcDbEntity
  8
0
  6
CONTINUOUS
 62
               4
100
AcDbLine
 10
-0.0499999999999972
 20
31.402000000000008
 30
0.0
 11
-0.0499999999999972
 21
33.201999999999991
 31
0.0
  0
LINE
  5
23E
100
AcDbEntity
  8
0
  6
CONTINUOUS
 62
               4
100
AcDbLine
 10
-0.0499999999999972
 20
33.201999999999991
 30
0.0
 11
0.9500000000000028
 21
33.201999999999991
 31
0.0
  0
LINE
  5
23F
100
AcDbEntity
  8
0
  6
CONTINUOUS
 62
               4
100
AcDbLine
 10
0.9500000000000028
 20
31.402000000000008
 30
0.0
 11
0.9500000000000028
 21
29.902000000000008
 31
0.0
  0
LINE
  5
240
100
AcDbEntity
  8
0
  6
CONTINUOUS
 62
               4
100
AcDbLine
 10
1.9500000000000028
 20
31.451999999999991
 30
0.0
 11
1.9500000000000028
 21
31.152000000000008
 31
0.0
  0
LINE
  5
241
100
AcDbEntity
  8
0
  6
CONTINUOUS
 62
               4
100
AcDbLine
 10
0.8500000000000085
 20
31.302000000000014
 30
0.0
 11
0.8500000000000085
 21
29.802000000000014
 31
0.0
  0
CIRCLE
  5
242
100
AcDbEntity
  8
0
  6
CONTINUOUS
 62
               4
100
AcDbCircle
 10
2.4500000000000028
 20
32.401984741210946
 30
0.0
 40
0.8499675393104553
  0
LINE
  5
243
100
AcDbEntity
  8
0
  6
CONTINUOUS
 62
               4
100
AcDbLine
 10
-0.1499999999999915
 20
31.302000000000014
 30
0.0
 11
0.8500000000000085
 21
31.302000000000014
 31
0.0
  0
LINE
  5
244
100
AcDbEntity
  8
0
  6
CONTINUOUS
 62
               4
100
AcDbLine
 10
1.5000000000000142
 20
33.552000000000014
 30
0.0
 11
1.5000000000000142
 21
31.451999999999991
 31
0.0
  0
LINE
  5
245
100
AcDbEntity
  8
0
  6
CONTINUOUS
 62
               4
100
AcDbLine
 10
-0.0499999999999972
 20
31.402000000000008
 30
0.0
 11
0.9500000000000028
 21
31.402000000000008
 31
0.0
  0
LINE
  5
246
100
AcDbEntity
  8
0
  6
CONTINUOUS
 62
               4
100
AcDbLine
 10
1.9500000000000028
 20
31.152000000000008
 30
0.0
 11
2.9500000000000028
 21
31.152000000000008
 31
0.0
  0
LINE
  5
247
100
AcDbEntity
  8
0
  6
CONTINUOUS
 62
               4
100
AcDbLine
 10
1.5000000000000142
 20
31.451999999999991
 30
0.0
 11
3.3999999999999915
 21
31.451999999999991
 31
0.0
  0
LINE
  5
248
100
AcDbEntity
  8
0
  6
CONTINUOUS
 62
               4
100
AcDbLine
 10
0.9500000000000028
 20
36.902000000000008
 30
0.0
 11
0.9500000000000028
 21
33.201999999999991
 31
0.0
  0
LINE
  5
249
100
AcDbEntity
  8
0
  6
CONTINUOUS
 62
               4
100
AcDbLine
 10
0.9500000000000028
 20
36.902000000000008
 30
0.0
 11
6.4500000000000028
 21
36.902000000000008
 31
0.0
  0
LINE
  5
24A
100
AcDbEntity
  8
0
  6
CONTINUOUS
 62
               4
100
AcDbLine
 10
0.9500000000000028
 20
35.902000000000008
 30
0.0
 11
6.4500000000000028
 21
35.902000000000008
 31
0.0
  0
CIRCLE
  5
24B
100
AcDbEntity
  8
0
  6
CONTINUOUS
 62
               4
100
AcDbCircle
 10
4.9500000000000028
 20
32.401984741210946
 30
0.0
 40
0.8499675393104553
  0
LINE
  5
24C
100
AcDbEntity
  8
0
  6
CONTINUOUS
 62
               4
100
AcDbLine
 10
6.5499999999999972
 20
31.302000000000014
 30
0.0
 11
7.5499999999999972
 21
31.302000000000014
 31
0.0
  0
LINE
  5
24D
100
AcDbEntity
  8
0
  6
CONTINUOUS
 62
               4
100
AcDbLine
 10
6.5499999999999972
 20
33.302000000000014
 30
0.0
 11
7.5499999999999972
 21
33.302000000000014
 31
0.0
  0
LINE
  5
24E
100
AcDbEntity
  8
0
  6
CONTINUOUS
 62
               4
100
AcDbLine
 10
4.0000000000000142
 20
33.552000000000014
 30
0.0
 11
5.8999999999999915
 21
33.552000000000014
 31
0.0
  0
LINE
  5
24F
100
AcDbEntity
  8
0
  6
CONTINUOUS
 62
               4
100
AcDbLine
 10
4.0000000000000142
 20
31.451999999999991
 30
0.0
 11
5.8999999999999915
 21
31.451999999999991
 31
0.0
  0
LINE
  5
250
100
AcDbEntity
  8
0
  6
CONTINUOUS
 62
               4
100
AcDbLine
 10
4.0000000000000142
 20
33.351999999999997
 30
0.0
 11
5.8999999999999915
 21
33.351999999999997
 31
0.0
  0
LINE
  5
251
100
AcDbEntity
  8
0
  6
CONTINUOUS
 62
               4
100
AcDbLine
 10
6.4500000000000028
 20
33.201999999999991
 30
0.0
 11
7.4500000000000028
 21
33.201999999999991
 31
0.0
  0
LINE
  5
252
100
AcDbEntity
  8
0
  6
CONTINUOUS
 62
               4
100
AcDbLine
 10
6.4500000000000028
 20
31.402000000000008
 30
0.0
 11
7.4500000000000028
 21
31.402000000000008
 31
0.0
  0
LINE
  5
253
100
AcDbEntity
  8
0
  6
CONTINUOUS
 62
               4
100
AcDbLine
 10
4.4500000000000028
 20
31.152000000000008
 30
0.0
 11
5.4500000000000028
 21
31.152000000000008
 31
0.0
  0
LINE
  5
254
100
AcDbEntity
  8
0
  6
CONTINUOUS
 62
               4
100
AcDbLine
 10
6.4500000000000028
 20
31.402000000000008
 30
0.0
 11
6.4500000000000028
 21
29.902000000000008
 31
0.0
  0
LINE
  5
255
100
AcDbEntity
  8
0
  6
CONTINUOUS
 62
               4
100
AcDbLine
 10
5.4500000000000028
 20
31.451999999999991
 30
0.0
 11
5.4500000000000028
 21
31.152000000000008
 31
0.0
  0
LINE
  5
256
100
AcDbEntity
  8
0
  6
CONTINUOUS
 62
               4
100
AcDbLine
 10
6.4099999999999824
 20
33.902000000000008
 30
0.0
 11
6.1099999999999994
 21
34.201999999999991
 31
0.0
  0
LINE
  5
257
100
AcDbEntity
  8
0
  6
CONTINUOUS
 62
               4
100
AcDbLine
 10
5.8999999999999915
 20
33.552000000000014
 30
0.0
 11
5.8999999999999915
 21
31.451999999999991
 31
0.0
  0
LINE
  5
258
100
AcDbEntity
  8
0
  6
CONTINUOUS
 62
               4
100
AcDbLine
 10
6.5499999999999972
 20
34.802000000000014
 30
0.0
 11
6.5499999999999972
 21
33.302000000000014
 31
0.0
  0
LINE
  5
259
100
AcDbEntity
  8
0
  6
CONTINUOUS
 62
               4
100
AcDbLine
 10
6.5499999999999972
 20
31.302000000000014
 30
0.0
 11
6.5499999999999972
 21
29.802000000000014
 31
0.0
  0
LINE
  5
25A
100
AcDbEntity
  8
0
  6
CONTINUOUS
 62
               4
100
AcDbLine
 10
7.5499999999999972
 20
33.302000000000014
 30
0.0
 11
7.5499999999999972
 21
31.302000000000014
 31
0.0
  0
LINE
  5
25B
100
AcDbEntity
  8
0
  6
CONTINUOUS
 62
               4
100
AcDbLine
 10
7.4500000000000028
 20
31.402000000000008
 30
0.0
 11
7.4500000000000028
 21
33.201999999999991
 31
0.0
  0
ARC
  5
25C
100
AcDbEntity
  8
0
  6
CONTINUOUS
 62
               4
100
AcDbCircle
 10
7.969999084445746
 20
34.301999084445747
 30
0.0
 40
0.5000009155550945
100
AcDbArc
 50
0.0001049145970977
 51
89.999895085402713
  0
LINE
  5
25D
100
AcDbEntity
  8
0
  6
CONTINUOUS
 62
               4
100
AcDbLine
 10
4.4500000000000028
 20
31.451999999999991
 30
0.0
 11
4.4500000000000028
 21
31.152000000000008
 31
0.0
  0
LINE
  5
25E
100
AcDbEntity
  8
0
  6
CONTINUOUS
 62
               4
100
AcDbLine
 10
4.0000000000000142
 20
33.552000000000014
 30
0.0
 11
4.0000000000000142
 21
31.451999999999991
 31
0.0
  0
LINE
  5
25F
100
AcDbEntity
  8
0
  6
CONTINUOUS
 62
               4
100
AcDbLine
 10
6.4500000000000028
 20
34.802000000000014
 30
0.0
 11
8.2000000000000028
 21
34.802000000000014
 31
0.0
  0
ARC
  5
260
100
AcDbEntity
  8
0
  6
CONTINUOUS
 62
               4
100
AcDbCircle
 10
8.2000045775226482
 20
34.302004577522631
 30
0.0
 40
0.4999954224983215
100
AcDbArc
 50
359.99947544974214
 51
90.000524550256856
  0
LINE
  5
261
100
AcDbEntity
  8
0
  6
CONTINUOUS
 62
               4
100
AcDbLine
 10
0.9500000000000028
 20
29.902000000000008
 30
0.0
 11
6.4500000000000028
 21
29.902000000000008
 31
0.0
  0
LINE
  5
262
100
AcDbEntity
  8
0
  6
CONTINUOUS
 62
               4
100
AcDbLine
 10
0.9500000000000028
 20
34.902000000000008
 30
0.0
 11
6.4500000000000028
 21
34.902000000000008
 31
0.0
  0
LINE
  5
263
100
AcDbEntity
  8
0
  6
CONTINUOUS
 62
               4
100
AcDbLine
 10
0.980000000000004
 20
33.902000000000008
 30
0.0
 11
6.4099999999999824
 21
33.902000000000008
 31
0.0
  0
LINE
  5
264
100
AcDbEntity
  8
0
  6
CONTINUOUS
 62
               4
100
AcDbLine
 10
1.2799999999999869
 20
34.201999999999991
 30
0.0
 11
6.1099999999999994
 21
34.201999999999991
 31
0.0
  0
LINE
  5
265
100
AcDbEntity
  8
0
  6
CONTINUOUS
 62
               4
100
AcDbLine
 10
0.8500000000000085
 20
29.802000000000014
 30
0.0
 11
6.5499999999999972
 21
29.802000000000014
 31
0.0
  0
LINE
  5
266
100
AcDbEntity
  8
0
  6
CONTINUOUS
 62
               4
100
AcDbLine
 10
6.4500000000000028
 20
36.902000000000008
 30
0.0
 11
6.4500000000000028
 21
33.201999999999991
 31
0.0
  0
ARC
  5
267
100
AcDbEntity
  8
0
  6
CONTINUOUS
 62
               4
100
AcDbCircle
 10
6.1029119947629766
 20
37.201088005237033
 30
0.0
 40
0.5989129830170392
100
AcDbArc
 50
89.895914524772735
 51
180.10408547522667
  0
ARC
  5
268
100
AcDbEntity
  8
0
  6
CONTINUOUS
 62
               4
100
AcDbCircle
 10
7.9040951466582356
 20
37.200095146658178
 30
0.0
 40
0.5999048608870732
100
AcDbArc
 50
359.99091272245295
 51
90.009087277546172
  0
LINE
  5
269
100
AcDbEntity
  8
0
  6
CONTINUOUS
 62
               4
100
AcDbLine
 10
8.7000000000000028
 20
37.20000000000001
 30
0.0
 11
5.5000000000000142
 21
37.20000000000001
 31
0.0
  0
ARC
  5
26A
100
AcDbEntity
  8
0
  6
CONTINUOUS
 62
               4
100
AcDbCircle
 10
-0.7999999999999972
 20
37.20000000000001
 30
0.0
 40
0.5
100
AcDbArc
 50
89.999999999999815
 51
179.99999999999963
  0
LINE
  5
26B
100
AcDbEntity
  8
0
  6
CONTINUOUS
 62
               4
100
AcDbLine
 10
5.5000000000000142
 20
37.70000000000001
 30
0.0
 11
5.5000000000000142
 21
36.902000000000008
 31
0.0
  0
LINE
  5
26C
100
AcDbEntity
  8
0
  6
CONTINUOUS
 62
               4
100
AcDbLine
 10
5.5000000000000142
 20
37.70000000000001
 30
0.0
 11
-0.7999999999999972
 21
37.70000000000001
 31
0.0
  0
LINE
  5
26D
100
AcDbEntity
  8
0
  6
CONTINUOUS
 62
               4
100
AcDbLine
 10
8.7000000000000028
 20
36.20000000000001
 30
0.0
 11
6.4500000000000028
 21
36.20000000000001
 31
0.0
  0
LINE
  5
26E
100
AcDbEntity
  8
0
  6
CONTINUOUS
 62
               4
100
AcDbLine
 10
8.7000000000000028
 20
37.800000000000033
 30
0.0
 11
-1.2999999999999972
 21
37.800000000000033
 31
0.0
  0
LINE
  5
26F
100
AcDbEntity
  8
0
  6
CONTINUOUS
 62
               4
100
AcDbLine
 10
8.7000000000000028
 20
37.800000000000033
 30
0.0
 11
8.7000000000000028
 21
15.300000000000004
 31
0.0
  0
LINE
  5
270
100
AcDbEntity
  8
0
  6
CONTINUOUS
 62
               4
100
AcDbLine
 10
-1.2999999999999972
 20
37.800000000000033
 30
0.0
 11
-1.2999999999999972
 21
15.300000000000004
 31
0.0
  0
LINE
  5
271
100
AcDbEntity
  8
0
  6
CONTINUOUS
 62
               4
100
AcDbLine
 10
8.4699999999999847
 20
34.302000000000014
 30
0.0
 11
8.4699999999999847
 21
18.00299132835368
 31
0.0
  0
LINE
  5
272
100
AcDbEntity
  8
0
  6
CONTINUOUS
 62
               4
100
AcDbLine
 10
-1.069999999999979
 20
34.302000000000014
 30
0.0
 11
-1.069999999999979
 21
18.00299132835368
 31
0.0
  0
LINE
  5
273
100
AcDbEntity
  8
0
  6
CONTINUOUS
 62
               7
100
AcDbLine
 10
8.7000000000000028
 20
4.2999999999999972
 30
0.0
 11
-1.2999999999999972
 21
4.2999999999999972
 31
0.0
  0
CIRCLE
  5
274
100
AcDbEntity
  8
0
  6
CONTINUOUS
 62
               7
100
AcDbCircle
 10
3.7000000000000028
 20
13.000000000000021
 30
0.0
 40
0.75
  0
CIRCLE
  5
275
100
AcDbEntity
  8
0
  6
CONTINUOUS
 62
               7
100
AcDbCircle
 10
3.7000000000000028
 20
13.000000000000021
 30
0.0
 40
1.1000000000000001
  0
CIRCLE
  5
276
100
AcDbEntity
  8
0
  6
CONTINUOUS
 62
               7
100
AcDbCircle
 10
3.7000000000000028
 20
13.000000000000021
 30
0.0
 40
1.1500000000000001
  0
CIRCLE
  5
277
100
AcDbEntity
  8
0
  6
CONTINUOUS
 62
               7
100
AcDbCircle
 10
3.7000000000000028
 20
13.000000000000021
 30
0.0
 40
1.3000000000000012
  0
LINE
  5
278
100
AcDbEntity
  8
0
  6
CENTER
 62
               2
100
AcDbLine
 10
5.3999999999999915
 20
13.000000000000021
 30
0.0
 11
2.0000000000000142
 21
13.000000000000021
 31
0.0
  0
ARC
  5
279
100
AcDbEntity
  8
0
  6
CONTINUOUS
 62
               7
100
AcDbCircle
 10
3.7000000000000028
 20
11.300000000000004
 30
0.0
 40
2.0
100
AcDbArc
 50
179.99999999999963
 51
0.0
  0
LINE
  5
27A
100
AcDbEntity
  8
0
  6
CONTINUOUS
 62
               7
100
AcDbLine
 10
5.7000000000000028
 20
11.300000000000004
 30
0.0
 11
5.7000000000000028
 21
15.300000000000004
 31
0.0
  0
LINE
  5
27B
100
AcDbEntity
  8
0
  6
CONTINUOUS
 62
               7
100
AcDbLine
 10
1.7000000000000028
 20
11.300000000000004
 30
0.0
 11
1.7000000000000028
 21
15.300000000000004
 31
0.0
  0
LINE
  5
27C
100
AcDbEntity
  8
0
  6
CONTINUOUS
 62
               7
100
AcDbLine
 10
8.7000000000000028
 20
4.2999999999999972
 30
0.0
 11
8.7000000000000028
 21
15.300000000000004
 31
0.0
  0
LINE
  5
27D
100
AcDbEntity
  8
0
  6
CONTINUOUS
 62
               7
100
AcDbLine
 10
-1.2999999999999972
 20
4.2999999999999972
 30
0.0
 11
-1.2999999999999972
 21
15.300000000000004
 31
0.0
  0
LINE
  5
27E
100
AcDbEntity
  8
0
  6
CONTINUOUS
 62
               4
100
AcDbLine
 10
8.7000000000000028
 20
15.300000000000004
 30
0.0
 11
-1.2999999999999972
 21
15.300000000000004
 31
0.0
  0
LINE
  5
27F
100
AcDbEntity
  8
0
  6
CENTER
 62
               2
100
AcDbLine
 10
5.0300000000000011
 20
12.999001430615174
 30
0.0
 11
2.3599999999999994
 21
12.999001430615174
 31
0.0
  0
LINE
  5
280
100
AcDbEntity
  8
0
  6
CONTINUOUS
 62
               4
100
AcDbLine
 10
-0.5700000127608291
 20
17.50299132835368
 30
0.0
 11
7.970000008696843
 21
17.50299132835368
 31
0.0
  0
ARC
  5
281
100
AcDbEntity
  8
0
  6
CONTINUOUS
 62
               4
100
AcDbCircle
 10
7.9699999999999847
 20
18.00299132835368
 30
0.0
 40
0.5
100
AcDbArc
 50
270.00000000000023
 51
0.0
  0
ARC
  5
282
100
AcDbEntity
  8
0
  6
CONTINUOUS
 62
               4
100
AcDbCircle
 10
-0.569999999999979
 20
18.00299132835368
 30
0.0
 40
0.5
100
AcDbArc
 50
179.99999999999963
 51
269.99999999999937
  0
LINE
  5
283
100
AcDbEntity
  8
0
  6
CONTINUOUS
 62
               7
100
AcDbLine
 10
6.7999999999999972
 20
15.300000000000004
 30
0.0
 11
6.7999999999999972
 21
11.300000000000004
 31
0.0
  0
LINE
  5
284
100
AcDbEntity
  8
0
  6
CONTINUOUS
 62
               7
100
AcDbLine
 10
0.6000000000000085
 20
15.300000000000004
 30
0.0
 11
0.6000000000000085
 21
11.300000000000004
 31
0.0
  0
ARC
  5
285
100
AcDbEntity
  8
0
  6
CONTINUOUS
 62
               7
100
AcDbCircle
 10
3.7000000000000028
 20
11.300000000000004
 30
0.0
 40
3.0999999999999943
100
AcDbArc
 50
179.99999999999963
 51
0.0
  0
ARC
  5
286
100
AcDbEntity
  8
0
  6
CONTINUOUS
 62
               7
100
AcDbCircle
 10
3.7000000000000028
 20
-20.899999999999991
 30
0.0
 40
3.0999999999999801
100
AcDbArc
 50
0.0
 51
179.99999999999963
  0
LINE
  5
287
100
AcDbEntity
  8
0
  6
CONTINUOUS
 62
               7
100
AcDbLine
 10
0.5999999999999943
 20
-20.899999999999991
 30
0.0
 11
0.5999999999999943
 21
-24.899999999999991
 31
0.0
  0
LINE
  5
288
100
AcDbEntity
  8
0
  6
CONTINUOUS
 62
               7
100
AcDbLine
 10
6.7999999999999829
 20
-20.899999999999991
 30
0.0
 11
6.7999999999999829
 21
-24.899999999999991
 31
0.0
  0
LINE
  5
289
100
AcDbEntity
  8
0
  6
CENTER
 62
               2
100
AcDbLine
 10
2.1781662840152194
 20
0.0
 30
0.0
 11
-2.1781662840152194
 21
0.0
 31
0.0
  0
ENDBLK
  5
28A
100
AcDbEntity
  8
0
100
AcDbBlockEnd
  0
BLOCK
  5
28B
100
AcDbEntity
  8
0
100
AcDbBlockBegin
  2
EA10F6-5
 70
               0
 10
0.0
 20
0.0
 30
0.0
  3
EA10F6-5
  1

  0
ARC
  5
28C
100
AcDbEntity
  8
0
  6
CONTINUOUS
 62
               4
100
AcDbCircle
 10
2.6010881942723572
 20
37.201088005236663
 30
0.0
 40
0.5989129830170392
100
AcDbArc
 50
359.89591452477299
 51
90.104085475226924
  0
LINE
  5
28D
100
AcDbEntity
  8
0
  6
CONTINUOUS
 62
               4
100
AcDbLine
 10
3.7000001890352721
 20
37.199999999999655
 30
0.0
 11
3.7000001890352721
 21
37.799999999999677
 31
0.0
  0
LINE
  5
28E
100
AcDbEntity
  8
0
  6
CONTINUOUS
 62
               7
100
AcDbLine
 10
0.0
 20
-24.899999999999942
 30
0.0
 11
0.0
 21
15.299999999999933
 31
0.0
  0
LINE
  5
28F
100
AcDbEntity
  8
0
  6
CONTINUOUS
 62
               7
100
AcDbLine
 10
14.000000000000043
 20
-24.899999999999928
 30
0.0
 11
14.000000000000043
 21
15.299999999999919
 31
0.0
  0
LINE
  5
290
100
AcDbEntity
  8
0
  6
CENTER
 62
               2
100
AcDbLine
 10
6.9999999864818818
 20
-48.302001430615199
 30
0.0
 11
6.9999999864818818
 21
38.693998569384839
 31
0.0
  0
LINE
  5
291
100
AcDbEntity
  8
0
  6
CONTINUOUS
 62
               7
100
AcDbLine
 10
14.000000000000028
 20
-17.804999999999986
 30
0.0
 11
15.100000000000037
 21
-18.899999999999999
 31
0.0
  0
LINE
  5
292
100
AcDbEntity
  8
0
  6
CONTINUOUS
 62
               7
100
AcDbLine
 10
15.547999999999973
 20
-21.499999999999993
 30
0.0
 11
15.548000000000002
 21
-23.700000000000038
 31
0.0
  0
LINE
  5
293
100
AcDbEntity
  8
0
  6
CONTINUOUS
 62
               7
100
AcDbLine
 10
15.548000000000002
 20
-23.700000000000038
 30
0.0
 11
15.100000000000023
 21
-23.700000000000024
 31
0.0
  0
LINE
  5
294
100
AcDbEntity
  8
0
  6
CONTINUOUS
 62
               7
100
AcDbLine
 10
15.547999999999973
 20
-21.499999999999993
 30
0.0
 11
15.100000000000037
 21
-21.499999999999993
 31
0.0
  0
LINE
  5
295
100
AcDbEntity
  8
0
  6
CONTINUOUS
 62
               7
100
AcDbLine
 10
15.100000000000037
 20
-18.899999999999999
 30
0.0
 11
15.100000000000037
 21
-24.899999999999928
 31
0.0
  0
LINE
  5
296
100
AcDbEntity
  8
0
  6
CONTINUOUS
 62
               7
100
AcDbLine
 10
13.998610293169079
 20
-25.405000108343295
 30
0.0
 11
13.998571768438424
 21
-24.905000109827476
 31
0.0
  0
LINE
  5
297
100
AcDbEntity
  8
0
  6
CONTINUOUS
 62
               4
100
AcDbLine
 10
37.495959582533075
 20
-41.2545454452003
 30
0.0
 11
37.495959582533047
 21
-42.555555545466994
 31
0.0
  0
ARC
  5
298
100
AcDbEntity
  8
0
  6
CONTINUOUS
 62
               4
100
AcDbCircle
 10
0.799904947350953
 20
-46.800095146648339
 30
0.0
 40
0.599904800896587
100
AcDbArc
 50
236.24741787039247
 51
270.00908727754478
  0
ARC
  5
299
100
AcDbEntity
  8
0
  6
CONTINUOUS
 62
               4
100
AcDbCircle
 10
13.201087919127914
 20
-46.801088005128143
 30
0.0
 40
0.598912923125741
100
AcDbArc
 50
269.89591452477129
 51
0.1040854752260523
  0
LINE
  5
29A
100
AcDbEntity
  8
0
  6
CONTINUOUS
 62
               4
100
AcDbLine
 10
11.300000003999614
 20
-47.399999999999856
 30
0.0
 11
11.300000003999642
 21
-46.799999999999834
 31
0.0
  0
LINE
  5
29B
100
AcDbEntity
  8
0
  6
CONTINUOUS
 62
               4
100
AcDbLine
 10
11.300000003999642
 20
-46.799999999999834
 30
0.0
 11
13.999999999999673
 21
-46.799999999999891
 31
0.0
  0
ARC
  5
29C
100
AcDbEntity
  8
0
  6
CONTINUOUS
 62
               4
100
AcDbCircle
 10
13.499999999999702
 20
-46.799999999999891
 30
0.0
 40
0.5
100
AcDbArc
 50
273.91958589964941
 51
359.99999999999818
  0
LINE
  5
29D
100
AcDbEntity
  8
0
  6
CONTINUOUS
 62
               4
100
AcDbLine
 10
0.8000000939996284
 20
-47.399999999999686
 30
0.0
 11
13.199999913999633
 21
-47.399999999999913
 31
0.0
  0
LINE
  5
29E
100
AcDbEntity
  8
0
  6
CONTINUOUS
 62
               4
100
AcDbLine
 10
13.999999999999673
 20
-46.799999999999891
 30
0.0
 11
14.000000000000043
 21
-24.899999999999913
 31
0.0
  0
ARC
  5
29F
100
AcDbEntity
  8
0
  6
CONTINUOUS
 62
               4
100
AcDbCircle
 10
0.5000000079996454
 20
-46.799999999999635
 30
0.0
 40
0.5
100
AcDbArc
 50
179.99999999999858
 51
269.99999999999835
  0
LINE
  5
2A0
100
AcDbEntity
  8
0
  6
CONTINUOUS
 62
               4
100
AcDbLine
 10
0.5000000079996454
 20
-47.299999999999692
 30
0.0
 11
2.0000000039996308
 21
-47.299999999999692
 31
0.0
  0
LINE
  5
2A1
100
AcDbEntity
  8
0
  6
CONTINUOUS
 62
               4
100
AcDbLine
 10
2.0000000039996024
 20
-47.399999999999686
 30
0.0
 11
2.0000000039996593
 21
-45.799999999999635
 31
0.0
  0
LINE
  5
2A2
100
AcDbEntity
  8
0
  6
CONTINUOUS
 62
               4
100
AcDbLine
 10
2.0000000039996593
 20
-45.799999999999635
 30
0.0
 11
13.999999999999673
 21
-45.799999999999862
 31
0.0
  0
LINE
  5
2A3
100
AcDbEntity
  8
0
  6
CONTINUOUS
 62
               4
100
AcDbLine
 10
0.0000000080000717
 20
-24.899999999999658
 30
0.0
 11
0.0000000079996738
 21
-46.799999999999635
 31
0.0
  0
LINE
  5
2A4
100
AcDbEntity
  8
0
  6
CONTINUOUS
 62
             200
100
AcDbLine
 10
33.670707059466409
 20
-43.404040393466936
 30
0.0
 11
35.403030290799805
 21
-40.406060597200273
 31
0.0
  0
ARC
  5
2A5
100
AcDbEntity
  8
0
  6
CONTINUOUS
 62
               4
100
AcDbCircle
 10
22.400834039354081
 20
-43.906894639354412
 30
0.0
 40
0.403865208170398
100
AcDbArc
 50
90.118324735512417
 51
179.88167526448353
  0
ARC
  5
2A6
100
AcDbEntity
  8
0
  6
CONTINUOUS
 62
               4
100
AcDbCircle
 10
22.399895926378761
 20
-43.905327231604581
 30
0.0
 40
0.4029269013737999
100
AcDbArc
 50
180.10428358574771
 51
259.90822844260225
  0
ARC
  5
2A7
100
AcDbEntity
  8
0
  6
CONTINUOUS
 62
               4
100
AcDbCircle
 10
20.999912514136909
 20
-44.005034325092673
 30
0.0
 40
0.4950149226876426
100
AcDbArc
 50
269.19169587541967
 51
306.87687525883342
  0
ARC
  5
2A8
100
AcDbEntity
  8
0
  6
CONTINUOUS
 62
               4
100
AcDbCircle
 10
21.500332840921047
 20
-43.904373238388068
 30
0.0
 40
0.4966660273328702
100
AcDbArc
 50
269.37896036356449
 51
0.6210396364351734
  0
ARC
  5
2A9
100
AcDbEntity
  8
0
  6
CONTINUOUS
 62
               4
100
AcDbCircle
 10
21.497257369556749
 20
-27.552522460539244
 30
0.0
 40
0.4997133381008656
100
AcDbArc
 50
0.1154955796418579
 51
65.173784690189237
  0
ARC
  5
2AA
100
AcDbEntity
  8
0
  6
CONTINUOUS
 62
               4
100
AcDbCircle
 10
16.879104119821235
 20
-25.403911629213972
 30
0.0
 40
0.5039443697152496
100
AcDbArc
 50
64.385072923992283
 51
89.346882463214783
  0
LINE
  5
2AB
100
AcDbEntity
  8
0
  6
CONTINUOUS
 62
               4
100
AcDbLine
 10
16.884848483200003
 20
-24.89999999999997
 30
0.0
 11
16.884848483199661
 21
-44.401010089866666
 31
0.0
  0
LINE
  5
2AC
100
AcDbEntity
  8
0
  6
CONTINUOUS
 62
               4
100
AcDbLine
 10
28.996969688399773
 20
-39.40202019373347
 30
0.0
 11
29.993939384799788
 21
-39.40202019373347
 31
0.0
  0
LINE
  5
2AD
100
AcDbEntity
  8
0
  6
CONTINUOUS
 62
               4
100
AcDbLine
 10
21.996969692399816
 20
-39.402020193733357
 30
0.0
 11
23.997979792266435
 21
-39.402020193733357
 31
0.0
  0
LINE
  5
2AE
100
AcDbEntity
  8
0
  6
CONTINUOUS
 62
               4
100
AcDbLine
 10
29.993939384799759
 20
-40.999999990800227
 30
0.0
 11
21.996969692399787
 21
-40.999999990800085
 31
0.0
  0
LINE
  5
2AF
100
AcDbEntity
  8
0
  6
CONTINUOUS
 62
               4
100
AcDbLine
 10
29.993939384799731
 20
-42.803030292800223
 30
0.0
 11
21.996969692399759
 21
-42.803030292800109
 31
0.0
  0
LINE
  5
2B0
100
AcDbEntity
  8
0
  6
CONTINUOUS
 62
               4
100
AcDbLine
 10
29.993939384799702
 20
-43.503030292400204
 30
0.0
 11
22.399999995199764
 21
-43.503030292400062
 31
0.0
  0
LINE
  5
2B1
100
AcDbEntity
  8
0
  6
CONTINUOUS
 62
               4
100
AcDbLine
 10
29.696969687999726
 20
-43.799999989200181
 30
0.0
 11
23.792929287333024
 21
-43.799999989200067
 31
0.0
  0
LINE
  5
2B2
100
AcDbEntity
  8
0
  6
CONTINUOUS
 62
               4
100
AcDbLine
 10
29.993939384799674
 20
-45.405050493333498
 30
0.0
 11
28.58686867853298
 21
-45.405050493333498
 31
0.0
  0
LINE
  5
2B3
100
AcDbEntity
  8
0
  6
CONTINUOUS
 62
               4
100
AcDbLine
 10
29.993939384799646
 20
-46.40202018973357
 30
0.0
 11
28.494949486666357
 21
-46.40202018973357
 31
0.0
  0
LINE
  5
2B4
100
AcDbEntity
  8
0
  6
CONTINUOUS
 62
               4
100
AcDbLine
 10
33.812121200799751
 20
-42.555555545466909
 30
0.0
 11
29.993939384799731
 21
-42.555555545466852
 31
0.0
  0
LINE
  5
2B5
100
AcDbEntity
  8
0
  6
CONTINUOUS
 62
             200
100
AcDbLine
 10
33.324242413199713
 20
-43.404040393466879
 30
0.0
 11
35.056565644533109
 21
-40.398989890133656
 31
0.0
  0
LINE
  5
2B6
100
AcDbEntity
  8
0
  6
CONTINUOUS
 62
               4
100
AcDbLine
 10
34.561616149866396
 20
-41.254545445200243
 30
0.0
 11
29.993939384799759
 21
-41.254545445200129
 31
0.0
  0
LINE
  5
2B7
100
AcDbEntity
  8
0
  6
CONTINUOUS
 62
               4
100
AcDbLine
 10
15.293939393199665
 20
-44.401010089866666
 30
0.0
 11
15.293939393199665
 21
-44.499999988799935
 31
0.0
  0
LINE
  5
2B8
100
AcDbEntity
  8
0
  6
CONTINUOUS
 62
               4
100
AcDbLine
 10
23.389898984533048
 20
-45.504040392266823
 30
0.0
 11
14.29696969679965
 21
-45.504040392266653
 31
0.0
  0
LINE
  5
2B9
100
AcDbEntity
  8
0
  6
CONTINUOUS
 62
               4
100
AcDbLine
 10
23.495959590533047
 20
-43.503030292400091
 30
0.0
 11
23.792929287333024
 21
-43.799999989200067
 31
0.0
  0
LINE
  5
2BA
100
AcDbEntity
  8
0
  6
CONTINUOUS
 62
               4
100
AcDbLine
 10
23.997979792266435
 20
-39.402020193733357
 30
0.0
 11
23.997979792266406
 21
-40.003030294400126
 31
0.0
  0
LINE
  5
2BB
100
AcDbEntity
  8
0
  6
CONTINUOUS
 62
               4
100
AcDbLine
 10
28.996969688399773
 20
-40.003030294400183
 30
0.0
 11
23.997979792266406
 21
-40.003030294400126
 31
0.0
  0
LINE
  5
2BC
100
AcDbEntity
  8
0
  6
CONTINUOUS
 62
               4
100
AcDbLine
 10
28.996969688399773
 20
-39.40202019373347
 30
0.0
 11
28.996969688399773
 21
-40.003030294400183
 31
0.0
  0
LINE
  5
2BD
100
AcDbEntity
  8
0
  6
CONTINUOUS
 62
               4
100
AcDbLine
 10
29.993939384799702
 20
-43.503030292400204
 30
0.0
 11
29.696969687999726
 21
-43.799999989200181
 31
0.0
  0
LINE
  5
2BE
100
AcDbEntity
  8
0
  6
CONTINUOUS
 62
               4
100
AcDbLine
 10
20.992929288933041
 20
-44.499999988800049
 30
0.0
 11
15.293939393199665
 21
-44.499999988799935
 31
0.0
  0
LINE
  5
2BF
100
AcDbEntity
  8
0
  6
CONTINUOUS
 62
               4
100
AcDbLine
 10
22.329292924533078
 20
-44.302020190933341
 30
0.0
 11
28.671717163333014
 21
-45.419191907466846
 31
0.0
  0
LINE
  5
2C0
100
AcDbEntity
  8
0
  6
CONTINUOUS
 62
               4
100
AcDbLine
 10
29.993939384799674
 20
-45.405050493333498
 30
0.0
 11
29.993939384799646
 21
-46.40202018973357
 31
0.0
  0
LINE
  5
2C1
100
AcDbEntity
  8
0
  6
CONTINUOUS
 62
               4
100
AcDbLine
 10
23.389898984533048
 20
-45.504040392266823
 30
0.0
 11
28.494949486666357
 21
-46.40202018973357
 31
0.0
  0
LINE
  5
2C2
100
AcDbEntity
  8
0
  6
CONTINUOUS
 62
               4
100
AcDbLine
 10
29.993939384799788
 20
-39.40202019373347
 30
0.0
 11
29.993939384799702
 21
-43.503030292400204
 31
0.0
  0
LINE
  5
2C3
100
AcDbEntity
  8
0
  6
CONTINUOUS
 62
               4
100
AcDbLine
 10
16.997979796266733
 20
-24.89999999999997
 30
0.0
 11
21.707070702666684
 21
-27.098989897733382
 31
0.0
  0
LINE
  5
2C4
100
AcDbEntity
  8
0
  6
CONTINUOUS
 62
               4
100
AcDbLine
 10
21.99696969239973
 20
-43.898989888133393
 30
0.0
 11
21.996969692400043
 21
-27.551515150000135
 31
0.0
  0
LINE
  5
2C5
100
AcDbEntity
  8
0
  6
CONTINUOUS
 62
               4
100
AcDbLine
 10
13.999999999999702
 20
-44.40101008986661
 30
0.0
 11
21.494949490666372
 21
-44.40101008986678
 31
0.0
  0
LINE
  5
2C6
100
AcDbEntity
  8
0
  6
CONTINUOUS
 62
               4
100
AcDbLine
 10
0.0000000080000717
 20
-24.899999999999658
 30
0.0
 11
16.884848483200003
 21
-24.89999999999997
 31
0.0
  0
LINE
  5
2C7
100
AcDbEntity
  8
0
  6
CONTINUOUS
 62
               4
100
AcDbLine
 10
37.495959582533075
 20
-41.2545454452003
 30
0.0
 11
34.908080796133092
 21
-41.254545445200243
 31
0.0
  0
LINE
  5
2C8
100
AcDbEntity
  8
0
  6
CONTINUOUS
 62
               4
100
AcDbLine
 10
37.495959582533047
 20
-42.555555545466994
 30
0.0
 11
34.158585847066448
 21
-42.555555545466937
 31
0.0
  0
CIRCLE
  5
2C9
100
AcDbEntity
  8
0
  6
CONTINUOUS
 62
               7
100
AcDbCircle
 10
2.8999999864818875
 20
-8.0000000000000213
 30
0.0
 40
1.075
  0
CIRCLE
  5
2CA
100
AcDbEntity
  8
0
  6
CONTINUOUS
 62
               7
100
AcDbCircle
 10
2.8999999864818875
 20
-1.6000001002713518
 30
0.0
 40
1.075
  0
LINE
  5
2CB
100
AcDbEntity
  8
0
  6
CENTER
 62
               2
100
AcDbLine
 10
4.5580738695787346
 20
-7.9995622165198128
 30
0.0
 11
1.2989993842763141
 21
-7.9995622165198128
 31
0.0
  0
LINE
  5
2CC
100
AcDbEntity
  8
0
  6
CENTER
 62
               2
100
AcDbLine
 10
2.8999999864818875
 20
1.0056776575735498
 30
0.0
 11
2.8999999864818875
 21
-10.438647484203379
 31
0.0
  0
LINE
  5
2CD
100
AcDbEntity
  8
0
  6
CENTER
 62
               2
100
AcDbLine
 10
4.5580738695787346
 20
-1.6000000000000156
 30
0.0
 11
1.2989993842763141
 21
-1.6000000000000156
 31
0.0
  0
LINE
  5
2CE
100
AcDbEntity
  8
0
  6
CONTINUOUS
 62
               7
100
AcDbLine
 10
-0.00000002543905
 20
-13.899999999999999
 30
0.0
 11
13.99999997456095
 21
-13.899999999999999
 31
0.0
  0
LINE
  5
2CF
100
AcDbEntity
  8
0
  6
CONTINUOUS
 62
               4
100
AcDbLine
 10
37.495959582533047
 20
32.955555545466986
 30
0.0
 11
34.158585847066448
 21
32.955555545466929
 31
0.0
  0
LINE
  5
2D0
100
AcDbEntity
  8
0
  6
CONTINUOUS
 62
               4
100
AcDbLine
 10
37.495959582533075
 20
31.654545445200291
 30
0.0
 11
34.908080796133092
 21
31.654545445200235
 31
0.0
  0
LINE
  5
2D1
100
AcDbEntity
  8
0
  6
CONTINUOUS
 62
               4
100
AcDbLine
 10
0.0000000080000717
 20
15.299999999999649
 30
0.0
 11
16.884848483200003
 21
15.299999999999962
 31
0.0
  0
LINE
  5
2D2
100
AcDbEntity
  8
0
  6
CONTINUOUS
 62
               4
100
AcDbLine
 10
13.999999999999702
 20
34.801010089866601
 30
0.0
 11
21.494949490666372
 21
34.801010089866772
 31
0.0
  0
LINE
  5
2D3
100
AcDbEntity
  8
0
  6
CONTINUOUS
 62
               4
100
AcDbLine
 10
21.99696969239973
 20
34.298989888133384
 30
0.0
 11
21.996969692400043
 21
17.951515150000127
 31
0.0
  0
LINE
  5
2D4
100
AcDbEntity
  8
0
  6
CONTINUOUS
 62
               4
100
AcDbLine
 10
16.997979796266733
 20
15.299999999999962
 30
0.0
 11
21.707070702666684
 21
17.498989897733374
 31
0.0
  0
LINE
  5
2D5
100
AcDbEntity
  8
0
  6
CONTINUOUS
 62
               4
100
AcDbLine
 10
29.993939384799788
 20
29.802020193733462
 30
0.0
 11
29.993939384799702
 21
33.903030292400196
 31
0.0
  0
LINE
  5
2D6
100
AcDbEntity
  8
0
  6
CONTINUOUS
 62
               4
100
AcDbLine
 10
23.389898984533048
 20
35.904040392266815
 30
0.0
 11
28.494949486666357
 21
36.802020189733561
 31
0.0
  0
LINE
  5
2D7
100
AcDbEntity
  8
0
  6
CONTINUOUS
 62
               4
100
AcDbLine
 10
29.993939384799674
 20
35.805050493333489
 30
0.0
 11
29.993939384799646
 21
36.802020189733561
 31
0.0
  0
LINE
  5
2D8
100
AcDbEntity
  8
0
  6
CONTINUOUS
 62
               4
100
AcDbLine
 10
22.329292924533078
 20
34.702020190933332
 30
0.0
 11
28.671717163333014
 21
35.819191907466838
 31
0.0
  0
LINE
  5
2D9
100
AcDbEntity
  8
0
  6
CONTINUOUS
 62
               4
100
AcDbLine
 10
20.992929288933041
 20
34.89999998880004
 30
0.0
 11
15.293939393199665
 21
34.899999988799927
 31
0.0
  0
LINE
  5
2DA
100
AcDbEntity
  8
0
  6
CONTINUOUS
 62
               4
100
AcDbLine
 10
29.993939384799702
 20
33.903030292400196
 30
0.0
 11
29.696969687999726
 21
34.199999989200172
 31
0.0
  0
LINE
  5
2DB
100
AcDbEntity
  8
0
  6
CONTINUOUS
 62
               4
100
AcDbLine
 10
28.996969688399773
 20
29.802020193733462
 30
0.0
 11
28.996969688399773
 21
30.403030294400175
 31
0.0
  0
LINE
  5
2DC
100
AcDbEntity
  8
0
  6
CONTINUOUS
 62
               4
100
AcDbLine
 10
28.996969688399773
 20
30.403030294400175
 30
0.0
 11
23.997979792266406
 21
30.403030294400118
 31
0.0
  0
LINE
  5
2DD
100
AcDbEntity
  8
0
  6
CONTINUOUS
 62
               4
100
AcDbLine
 10
23.997979792266435
 20
29.802020193733348
 30
0.0
 11
23.997979792266406
 21
30.403030294400118
 31
0.0
  0
LINE
  5
2DE
100
AcDbEntity
  8
0
  6
CONTINUOUS
 62
               4
100
AcDbLine
 10
23.495959590533047
 20
33.903030292400082
 30
0.0
 11
23.792929287333024
 21
34.199999989200059
 31
0.0
  0
LINE
  5
2DF
100
AcDbEntity
  8
0
  6
CONTINUOUS
 62
               4
100
AcDbLine
 10
23.389898984533048
 20
35.904040392266815
 30
0.0
 11
14.29696969679965
 21
35.904040392266644
 31
0.0
  0
LINE
  5
2E0
100
AcDbEntity
  8
0
  6
CONTINUOUS
 62
               4
100
AcDbLine
 10
15.293939393199665
 20
34.801010089866658
 30
0.0
 11
15.293939393199665
 21
34.899999988799927
 31
0.0
  0
LINE
  5
2E1
100
AcDbEntity
  8
0
  6
CONTINUOUS
 62
               4
100
AcDbLine
 10
34.561616149866396
 20
31.654545445200235
 30
0.0
 11
29.993939384799759
 21
31.654545445200121
 31
0.0
  0
LINE
  5
2E2
100
AcDbEntity
  8
0
  6
CONTINUOUS
 62
             200
100
AcDbLine
 10
33.324242413199713
 20
33.80404039346687
 30
0.0
 11
35.056565644533109
 21
30.798989890133647
 31
0.0
  0
LINE
  5
2E3
100
AcDbEntity
  8
0
  6
CONTINUOUS
 62
               4
100
AcDbLine
 10
33.812121200799751
 20
32.9555555454669
 30
0.0
 11
29.993939384799731
 21
32.955555545466844
 31
0.0
  0
LINE
  5
2E4
100
AcDbEntity
  8
0
  6
CONTINUOUS
 62
               4
100
AcDbLine
 10
29.993939384799646
 20
36.802020189733561
 30
0.0
 11
28.494949486666357
 21
36.802020189733561
 31
0.0
  0
LINE
  5
2E5
100
AcDbEntity
  8
0
  6
CONTINUOUS
 62
               4
100
AcDbLine
 10
29.993939384799674
 20
35.805050493333489
 30
0.0
 11
28.58686867853298
 21
35.805050493333489
 31
0.0
  0
LINE
  5
2E6
100
AcDbEntity
  8
0
  6
CONTINUOUS
 62
               4
100
AcDbLine
 10
29.696969687999726
 20
34.199999989200172
 30
0.0
 11
23.792929287333024
 21
34.199999989200059
 31
0.0
  0
LINE
  5
2E7
100
AcDbEntity
  8
0
  6
CONTINUOUS
 62
               4
100
AcDbLine
 10
29.993939384799702
 20
33.903030292400196
 30
0.0
 11
22.399999995199764
 21
33.903030292400054
 31
0.0
  0
LINE
  5
2E8
100
AcDbEntity
  8
0
  6
CONTINUOUS
 62
               4
100
AcDbLine
 10
29.993939384799731
 20
33.203030292800214
 30
0.0
 11
21.996969692399759
 21
33.203030292800101
 31
0.0
  0
LINE
  5
2E9
100
AcDbEntity
  8
0
  6
CONTINUOUS
 62
               4
100
AcDbLine
 10
29.993939384799759
 20
31.399999990800218
 30
0.0
 11
21.996969692399787
 21
31.399999990800076
 31
0.0
  0
LINE
  5
2EA
100
AcDbEntity
  8
0
  6
CONTINUOUS
 62
               4
100
AcDbLine
 10
21.996969692399816
 20
29.802020193733348
 30
0.0
 11
23.997979792266435
 21
29.802020193733348
 31
0.0
  0
LINE
  5
2EB
100
AcDbEntity
  8
0
  6
CONTINUOUS
 62
               4
100
AcDbLine
 10
28.996969688399773
 20
29.802020193733462
 30
0.0
 11
29.993939384799788
 21
29.802020193733462
 31
0.0
  0
LINE
  5
2EC
100
AcDbEntity
  8
0
  6
CONTINUOUS
 62
               4
100
AcDbLine
 10
16.884848483200003
 20
15.299999999999962
 30
0.0
 11
16.884848483199661
 21
34.801010089866658
 31
0.0
  0
ARC
  5
2ED
100
AcDbEntity
  8
0
  6
CONTINUOUS
 62
               4
100
AcDbCircle
 10
16.879104119821235
 20
15.803911629213964
 30
0.0
 40
0.5039443697152496
100
AcDbArc
 50
270.65311753678441
 51
295.61492707600689
  0
ARC
  5
2EE
100
AcDbEntity
  8
0
  6
CONTINUOUS
 62
               4
100
AcDbCircle
 10
21.497257369556749
 20
17.952522460539235
 30
0.0
 40
0.4997133381008656
100
AcDbArc
 50
294.82621530980992
 51
359.88450442035736
  0
ARC
  5
2EF
100
AcDbEntity
  8
0
  6
CONTINUOUS
 62
               4
100
AcDbCircle
 10
21.500332840921047
 20
34.30437323838806
 30
0.0
 40
0.4966660273328702
100
AcDbArc
 50
359.37896036356483
 51
90.621039636434716
  0
ARC
  5
2F0
100
AcDbEntity
  8
0
  6
CONTINUOUS
 62
               4
100
AcDbCircle
 10
14.299431291717113
 20
35.604584129418591
 30
0.0
 40
0.2994663800970315
100
AcDbArc
 50
90.47097302846538
 51
180.87710076750685
  0
ARC
  5
2F1
100
AcDbEntity
  8
0
  6
CONTINUOUS
 62
               4
100
AcDbCircle
 10
20.999912514136909
 20
34.405034325092664
 30
0.0
 40
0.4950149226876426
100
AcDbArc
 50
53.123124741165753
 51
90.808304124579536
  0
ARC
  5
2F2
100
AcDbEntity
  8
0
  6
CONTINUOUS
 62
               4
100
AcDbCircle
 10
22.399895926378761
 20
34.305327231604572
 30
0.0
 40
0.4029269013737999
100
AcDbArc
 50
100.09177155739695
 51
179.8957164142515
  0
ARC
  5
2F3
100
AcDbEntity
  8
0
  6
CONTINUOUS
 62
               4
100
AcDbCircle
 10
22.400834039354081
 20
34.306894639354404
 30
0.0
 40
0.403865208170398
100
AcDbArc
 50
180.11832473551567
 51
269.88167526448677
  0
LINE
  5
2F4
100
AcDbEntity
  8
0
  6
CONTINUOUS
 62
             200
100
AcDbLine
 10
33.670707059466409
 20
33.804040393466927
 30
0.0
 11
35.403030290799805
 21
30.806060597200265
 31
0.0
  0
LINE
  5
2F5
100
AcDbEntity
  8
0
  6
CONTINUOUS
 62
               4
100
AcDbLine
 10
0.0000000080000717
 20
15.299999999999649
 30
0.0
 11
0.0000000079996738
 21
37.199999999999626
 31
0.0
  0
LINE
  5
2F6
100
AcDbEntity
  8
0
  6
CONTINUOUS
 62
               4
100
AcDbLine
 10
11.999999968964097
 20
36.199999999999626
 30
0.0
 11
-0.0000000270359095
 21
36.199999999999854
 31
0.0
  0
LINE
  5
2F7
100
AcDbEntity
  8
0
  6
CONTINUOUS
 62
               4
100
AcDbLine
 10
11.999999968964154
 20
37.799999999999677
 30
0.0
 11
11.999999968964097
 21
36.199999999999626
 31
0.0
  0
LINE
  5
2F8
100
AcDbEntity
  8
0
  6
CONTINUOUS
 62
               4
100
AcDbLine
 10
13.499999964964111
 20
37.699999999999683
 30
0.0
 11
11.999999968964126
 21
37.699999999999683
 31
0.0
  0
ARC
  5
2F9
100
AcDbEntity
  8
0
  6
CONTINUOUS
 62
               4
100
AcDbCircle
 10
13.499999964964111
 20
37.199999999999626
 30
0.0
 40
0.5
100
AcDbArc
 50
359.99999999999898
 51
89.999999999998778
  0
LINE
  5
2FA
100
AcDbEntity
  8
0
  6
CONTINUOUS
 62
               4
100
AcDbLine
 10
13.999999999999673
 20
37.199999999999882
 30
0.0
 11
14.000000000000043
 21
15.299999999999905
 31
0.0
  0
LINE
  5
2FB
100
AcDbEntity
  8
0
  6
CONTINUOUS
 62
               4
100
AcDbLine
 10
13.199999878964128
 20
37.799999999999677
 30
0.0
 11
0.8000000589641303
 21
37.799999999999905
 31
0.0
  0
ARC
  5
2FC
100
AcDbEntity
  8
0
  6
CONTINUOUS
 62
               4
100
AcDbCircle
 10
0.4999999729640621
 20
37.199999999999882
 30
0.0
 40
0.5
100
AcDbArc
 50
93.919585899649775
 51
179.99999999999858
  0
LINE
  5
2FD
100
AcDbEntity
  8
0
  6
CONTINUOUS
 62
               4
100
AcDbLine
 10
3.7000001890352721
 20
37.199999999999811
 30
0.0
 11
-0.0000000270359095
 21
37.199999999999882
 31
0.0
  0
ARC
  5
2FE
100
AcDbEntity
  8
0
  6
CONTINUOUS
 62
               4
100
AcDbCircle
 10
0.7989120538358492
 20
37.201088005128135
 30
0.0
 40
0.598912923125741
100
AcDbArc
 50
89.895914524771712
 51
180.10408547522565
  0
ARC
  5
2FF
100
AcDbEntity
  8
0
  6
CONTINUOUS
 62
               4
100
AcDbCircle
 10
13.200095025612804
 20
37.20009514664833
 30
0.0
 40
0.599904800896587
100
AcDbArc
 50
56.247417870392866
 51
90.009087277545149
  0
LINE
  5
300
100
AcDbEntity
  8
0
  6
CONTINUOUS
 62
               4
100
AcDbLine
 10
37.495959582533075
 20
31.654545445200291
 30
0.0
 11
37.495959582533047
 21
32.955555545466986
 31
0.0
  0
LINE
  5
301
100
AcDbEntity
  8
0
  6
CONTINUOUS
 62
               7
100
AcDbLine
 10
12.999999986481882
 20
-1.5990014306152105
 30
0.0
 11
13.999999986481882
 21
-1.5990014306152105
 31
0.0
  0
LINE
  5
302
100
AcDbEntity
  8
0
  6
CONTINUOUS
 62
               7
100
AcDbLine
 10
12.999999986481882
 20
1.6009985693848066
 30
0.0
 11
13.999999986481882
 21
1.6009985693848066
 31
0.0
  0
LINE
  5
303
100
AcDbEntity
  8
0
  6
CONTINUOUS
 62
               7
100
AcDbLine
 10
13.998610293169079
 20
15.805000108343286
 30
0.0
 11
13.998571768438424
 21
15.305000109827468
 31
0.0
  0
LINE
  5
304
100
AcDbEntity
  8
0
  6
CONTINUOUS
 62
               7
100
AcDbLine
 10
-0.0000000000000142
 20
4.2999999999999901
 30
0.0
 11
13.999999986481882
 21
4.3000000000000043
 31
0.0
  0
LINE
  5
305
100
AcDbEntity
  8
0
  6
CONTINUOUS
 62
               7
100
AcDbLine
 10
15.100000000000037
 20
9.2999999999999901
 30
0.0
 11
15.100000000000037
 21
15.299999999999919
 31
0.0
  0
LINE
  5
306
100
AcDbEntity
  8
0
  6
CONTINUOUS
 62
               7
100
AcDbLine
 10
15.547999999999973
 20
11.899999999999984
 30
0.0
 11
15.100000000000037
 21
11.899999999999984
 31
0.0
  0
LINE
  5
307
100
AcDbEntity
  8
0
  6
CONTINUOUS
 62
               7
100
AcDbLine
 10
15.548000000000002
 20
14.10000000000003
 30
0.0
 11
15.100000000000023
 21
14.100000000000016
 31
0.0
  0
LINE
  5
308
100
AcDbEntity
  8
0
  6
CONTINUOUS
 62
               7
100
AcDbLine
 10
15.547999999999973
 20
11.899999999999984
 30
0.0
 11
15.548000000000002
 21
14.10000000000003
 31
0.0
  0
LINE
  5
309
100
AcDbEntity
  8
0
  6
CONTINUOUS
 62
               7
100
AcDbLine
 10
14.000000000000028
 20
8.204999999999977
 30
0.0
 11
15.100000000000037
 21
9.2999999999999901
 31
0.0
  0
LINE
  5
30A
100
AcDbEntity
  8
0
  6
CONTINUOUS
 62
               7
100
AcDbLine
 10
12.999999986481882
 20
1.6009985693848066
 30
0.0
 11
12.999999986481882
 21
-1.5990014306152105
 31
0.0
  0
LINE
  5
30B
100
AcDbEntity
  8
0
  6
CENTER
 62
               2
100
AcDbLine
 10
0.8758465617809605
 20
-11.199999999999989
 30
0.0
 11
-13.405931081008063
 21
-11.199999999999989
 31
0.0
  0
LINE
  5
30C
100
AcDbEntity
  8
0
  6
CENTER
 62
               2
100
AcDbLine
 10
0.8758465617809605
 20
1.6000000000000014
 30
0.0
 11
-13.405931081008063
 21
1.6000000000000014
 31
0.0
  0
LINE
  5
30D
100
AcDbEntity
  8
0
  6
DASHED
 62
             200
100
AcDbLine
 10
-0.0000000135181182
 20
-14.199999999999989
 30
0.0
 11
-11.500000013518118
 21
-14.199999999999989
 31
0.0
  0
LINE
  5
30E
100
AcDbEntity
  8
0
  6
DASHED
 62
             200
100
AcDbLine
 10
-0.0000000135181182
 20
-8.1999999999999886
 30
0.0
 11
-11.500000013518118
 21
-8.1999999999999886
 31
0.0
  0
LINE
  5
30F
100
AcDbEntity
  8
0
  6
DASHED
 62
             200
100
AcDbLine
 10
-0.0000000135181182
 20
4.6000000000000014
 30
0.0
 11
-11.500000013518118
 21
4.6000000000000014
 31
0.0
  0
LINE
  5
310
100
AcDbEntity
  8
0
  6
DASHED
 62
             200
100
AcDbLine
 10
-0.0000000135181182
 20
-1.3999999999999986
 30
0.0
 11
-11.500000013518118
 21
-1.3999999999999986
 31
0.0
  0
LINE
  5
311
100
AcDbEntity
  8
0
  6
DASHED
 62
             200
100
AcDbLine
 10
-11.500000013518118
 20
-1.3999999999999986
 30
0.0
 11
-11.500000013518118
 21
4.6000000000000014
 31
0.0
  0
LINE
  5
312
100
AcDbEntity
  8
0
  6
DASHED
 62
             200
100
AcDbLine
 10
-9.5000000135181182
 20
-1.3999999999999986
 30
0.0
 11
-9.5000000135181182
 21
4.6000000000000014
 31
0.0
  0
LINE
  5
313
100
AcDbEntity
  8
0
  6
DASHED
 62
             200
100
AcDbLine
 10
-12.000000013518118
 20
-0.8999999999999986
 30
0.0
 11
-12.000000013518118
 21
4.1000000000000014
 31
0.0
  0
ARC
  5
314
100
AcDbEntity
  8
0
  6
DASHED
 62
             200
100
AcDbCircle
 10
-11.500000013518118
 20
4.1000000000000014
 30
0.0
 40
0.5
100
AcDbArc
 50
89.999999999999815
 51
179.99999999999963
  0
ARC
  5
315
100
AcDbEntity
  8
0
  6
DASHED
 62
             200
100
AcDbCircle
 10
-11.500000013518118
 20
-0.8999999999999986
 30
0.0
 40
0.5
100
AcDbArc
 50
179.99999999999963
 51
269.99999999999937
  0
ARC
  5
316
100
AcDbEntity
  8
0
  6
DASHED
 62
             200
100
AcDbCircle
 10
-11.500000013518118
 20
-13.699999999999989
 30
0.0
 40
0.5
100
AcDbArc
 50
179.99999999999963
 51
269.99999999999937
  0
ARC
  5
317
100
AcDbEntity
  8
0
  6
DASHED
 62
             200
100
AcDbCircle
 10
-11.500000013518118
 20
-8.6999999999999886
 30
0.0
 40
0.5
100
AcDbArc
 50
89.999999999999815
 51
179.99999999999963
  0
LINE
  5
318
100
AcDbEntity
  8
0
  6
DASHED
 62
             200
100
AcDbLine
 10
-12.000000013518118
 20
-13.699999999999989
 30
0.0
 11
-12.000000013518118
 21
-8.6999999999999886
 31
0.0
  0
LINE
  5
319
100
AcDbEntity
  8
0
  6
DASHED
 62
             200
100
AcDbLine
 10
-9.5000000135181182
 20
-14.199999999999989
 30
0.0
 11
-9.5000000135181182
 21
-8.1999999999999886
 31
0.0
  0
LINE
  5
31A
100
AcDbEntity
  8
0
  6
DASHED
 62
             200
100
AcDbLine
 10
-11.500000013518118
 20
-14.199999999999989
 30
0.0
 11
-11.500000013518118
 21
-8.1999999999999886
 31
0.0
  0
LINE
  5
31B
100
AcDbEntity
  8
0
  6
CONTINUOUS
 62
               4
100
AcDbLine
 10
37.495959582533061
 20
32.554233112521096
 30
0.0
 11
40.995959582533118
 21
32.554233112521096
 31
0.0
  0
LINE
  5
31C
100
AcDbEntity
  8
0
  6
CONTINUOUS
 62
               4
100
AcDbLine
 10
40.995959582533118
 20
32.554233112521096
 30
0.0
 11
40.995959582533118
 21
32.054233112521096
 31
0.0
  0
LINE
  5
31D
100
AcDbEntity
  8
0
  6
CONTINUOUS
 62
               4
100
AcDbLine
 10
37.495959582533061
 20
32.054233112521096
 30
0.0
 11
40.995959582533118
 21
32.054233112521096
 31
0.0
  0
LINE
  5
31E
100
AcDbEntity
  8
0
  6
CONTINUOUS
 62
               4
100
AcDbLine
 10
37.495959582533061
 20
-41.655867878146175
 30
0.0
 11
40.995959582533118
 21
-41.655867878146175
 31
0.0
  0
LINE
  5
31F
100
AcDbEntity
  8
0
  6
CONTINUOUS
 62
               4
100
AcDbLine
 10
40.995959582533118
 20
-41.655867878146175
 30
0.0
 11
40.995959582533118
 21
-42.155867878146175
 31
0.0
  0
LINE
  5
320
100
AcDbEntity
  8
0
  6
CONTINUOUS
 62
               4
100
AcDbLine
 10
37.495959582533061
 20
-42.155867878146175
 30
0.0
 11
40.995959582533118
 21
-42.155867878146175
 31
0.0
  0
LINE
  5
321
100
AcDbEntity
  8
0
  6
CENTER
 62
               2
100
AcDbLine
 10
-2.4999999920755585
 20
0.0
 30
0.0
 11
2.5000000079244415
 21
0.0
 31
0.0
  0
LINE
  5
322
100
AcDbEntity
  8
0
  6
CENTER
 62
               2
100
AcDbLine
 10
-2.4999999920755585
 20
-9.6000000000000014
 30
0.0
 11
2.5000000079244415
 21
-9.6000000000000014
 31
0.0
  0
ENDBLK
  5
323
100
AcDbEntity
  8
0
100
AcDbBlockEnd
  0
BLOCK
  5
324
100
AcDbEntity
  8
0
100
AcDbBlockBegin
  2
EA10F6-6
 70
               0
 10
0.0
 20
0.0
 30
0.0
  3
EA10F6-6
  1

  0
LINE
  5
325
100
AcDbEntity
  8
0
  6
CONTINUOUS
 62
               4
100
AcDbLine
 10
-8.7000000000000028
 20
-47.399999999999999
 30
0.0
 11
-8.7000000000000028
 21
-24.899999999999999
 31
0.0
  0
LINE
  5
326
100
AcDbEntity
  8
0
  6
CONTINUOUS
 62
               4
100
AcDbLine
 10
1.2999999999999972
 20
-47.399999999999999
 30
0.0
 11
1.2999999999999972
 21
-24.899999999999999
 31
0.0
  0
LINE
  5
327
100
AcDbEntity
  8
0
  6
CENTER
 62
               2
100
AcDbLine
 10
-3.7000000000000028
 20
-48.297001430615218
 30
0.0
 11
-3.7000000000000028
 21
38.69899856938482
 31
0.0
  0
LINE
  5
328
100
AcDbEntity
  8
0
  6
CONTINUOUS
 62
               4
100
AcDbLine
 10
1.2999999999999972
 20
-24.899999999999999
 30
0.0
 11
-8.7000000000000028
 21
-24.899999999999999
 31
0.0
  0
CIRCLE
  5
329
100
AcDbEntity
  8
0
  6
CONTINUOUS
 62
               7
100
AcDbCircle
 10
-3.6999816894531108
 20
-17.700018310546874
 30
0.0
 40
0.8999999761581421
  0
ARC
  5
32A
100
AcDbEntity
  8
0
  6
CONTINUOUS
 62
               4
100
AcDbCircle
 10
-6.1029119947629482
 20
-46.801088005236998
 30
0.0
 40
0.5989129830170392
100
AcDbArc
 50
269.89591452477231
 51
0.1040854752270701
  0
ARC
  5
32B
100
AcDbEntity
  8
0
  6
CONTINUOUS
 62
               4
100
AcDbCircle
 10
-7.9040951466582072
 20
-46.800095146658172
 30
0.0
 40
0.5999048608870732
100
AcDbArc
 50
179.99091272245337
 51
270.00908727754575
  0
LINE
  5
32C
100
AcDbEntity
  8
0
  6
CONTINUOUS
 62
               4
100
AcDbLine
 10
-8.6999999999999744
 20
-46.800000000000004
 30
0.0
 11
-5.4999999999999858
 21
-46.800000000000004
 31
0.0
  0
ARC
  5
32D
100
AcDbEntity
  8
0
  6
CONTINUOUS
 62
               4
100
AcDbCircle
 10
0.8000000000000114
 20
-46.800000000000004
 30
0.0
 40
0.5
100
AcDbArc
 50
269.99999999999937
 51
0.0
  0
LINE
  5
32E
100
AcDbEntity
  8
0
  6
CONTINUOUS
 62
               4
100
AcDbLine
 10
-5.4999999999999858
 20
-47.300000000000004
 30
0.0
 11
-5.4999999999999858
 21
-45.800000000000004
 31
0.0
  0
LINE
  5
32F
100
AcDbEntity
  8
0
  6
CONTINUOUS
 62
               4
100
AcDbLine
 10
-5.4999999999999858
 20
-47.300000000000004
 30
0.0
 11
0.8000000000000114
 21
-47.300000000000004
 31
0.0
  0
LINE
  5
330
100
AcDbEntity
  8
0
  6
CONTINUOUS
 62
               4
100
AcDbLine
 10
-8.6999999999999744
 20
-45.800000000000004
 30
0.0
 11
-5.4999999999999858
 21
-45.800000000000004
 31
0.0
  0
LINE
  5
331
100
AcDbEntity
  8
0
  6
CONTINUOUS
 62
               4
100
AcDbLine
 10
-8.6999999999999744
 20
-47.399999999999999
 30
0.0
 11
1.3000000000000114
 21
-47.399999999999999
 31
0.0
  0
LINE
  5
332
100
AcDbEntity
  8
0
  6
CENTER
 62
               2
100
AcDbLine
 10
-1.7000000000000028
 20
-17.70000000000001
 30
0.0
 11
-5.7000000000000028
 21
-17.70000000000001
 31
0.0
  0
LINE
  5
333
100
AcDbEntity
  8
0
  6
CENTER
 62
               2
100
AcDbLine
 10
-5.7000000000000028
 20
8.0999999999999872
 30
0.0
 11
-1.7000000000000028
 21
8.0999999999999872
 31
0.0
  0
LINE
  5
334
100
AcDbEntity
  8
0
  6
CENTER
 62
               2
100
AcDbLine
 10
-6.0076604241943556
 20
1.5999999999999872
 30
0.0
 11
-1.39233957580565
 21
1.5999999999999872
 31
0.0
  0
LINE
  5
335
100
AcDbEntity
  8
0
  6
CONTINUOUS
 62
               7
100
AcDbLine
 10
1.2999999999999972
 20
-13.90000000000002
 30
0.0
 11
-8.6999999999999744
 21
-13.90000000000002
 31
0.0
  0
LINE
  5
336
100
AcDbEntity
  8
0
  6
CONTINUOUS
 62
               7
100
AcDbLine
 10
1.2999999999999972
 20
4.3000000000000043
 30
0.0
 11
-8.6999999999999744
 21
4.3000000000000043
 31
0.0
  0
CIRCLE
  5
337
100
AcDbEntity
  8
0
  6
CONTINUOUS
 62
               7
100
AcDbCircle
 10
0.0
 20
0.0
 30
0.0
 40
1.0
  0
LINE
  5
338
100
AcDbEntity
  8
0
  6
CENTER
 62
               2
100
AcDbLine
 10
0.0
 20
-1.6582043412881831
 30
0.0
 11
0.0
 21
1.6507458038142815
 31
0.0
  0
LINE
  5
339
100
AcDbEntity
  8
0
  6
CENTER
 62
               2
100
AcDbLine
 10
1.5141706867843681
 20
0.0
 30
0.0
 11
-1.4477988131531703
 21
0.0
 31
0.0
  0
CIRCLE
  5
33A
100
AcDbEntity
  8
0
  6
CONTINUOUS
 62
               7
100
AcDbCircle
 10
-7.4000000000000199
 20
-9.6000000000000085
 30
0.0
 40
1.0
  0
LINE
  5
33B
100
AcDbEntity
  8
0
  6
CENTER
 62
               2
100
AcDbLine
 10
-5.8095838508537412
 20
-9.6000000000000085
 30
0.0
 11
-8.8598351735368936
 21
-9.6000000000000085
 31
0.0
  0
LINE
  5
33C
100
AcDbEntity
  8
0
  6
CENTER
 62
               2
100
AcDbLine
 10
-7.4000000000000199
 20
-11.100461398562274
 30
0.0
 11
-7.4000000000000199
 21
-8.1184246891139225
 31
0.0
  0
CIRCLE
  5
33D
100
AcDbEntity
  8
0
  6
CONTINUOUS
 62
               2
100
AcDbCircle
 10
-3.7000000000000028
 20
-4.8000000000000114
 30
0.0
 40
1.5
  0
CIRCLE
  5
33E
100
AcDbEntity
  8
0
  6
CONTINUOUS
 62
               7
100
AcDbCircle
 10
-3.7000000000000028
 20
-4.8000000000000114
 30
0.0
 40
1.25
  0
CIRCLE
  5
33F
100
AcDbEntity
  8
0
  6
CONTINUOUS
 62
               7
100
AcDbCircle
 10
-3.7000000000000028
 20
1.5999999999999872
 30
0.0
 40
1.25
  0
CIRCLE
  5
340
100
AcDbEntity
  8
0
  6
CONTINUOUS
 62
               7
100
AcDbCircle
 10
-3.7000000000000028
 20
-11.200000000000003
 30
0.0
 40
1.25
  0
CIRCLE
  5
341
100
AcDbEntity
  8
0
  6
CONTINUOUS
 62
               2
100
AcDbCircle
 10
-3.7000000000000028
 20
1.5999999999999872
 30
0.0
 40
1.5
  0
CIRCLE
  5
342
100
AcDbEntity
  8
0
  6
CONTINUOUS
 62
               2
100
AcDbCircle
 10
-3.7000000000000028
 20
-11.200000000000003
 30
0.0
 40
1.5
  0
LINE
  5
343
100
AcDbEntity
  8
0
  6
CENTER
 62
               2
100
AcDbLine
 10
-1.39233957580565
 20
-11.200000000000003
 30
0.0
 11
-6.0076604241943556
 21
-11.200000000000003
 31
0.0
  0
LINE
  5
344
100
AcDbEntity
  8
0
  6
CENTER
 62
               2
100
AcDbLine
 10
-1.39233957580565
 20
-4.8000000000000114
 30
0.0
 11
-6.0076604241943556
 21
-4.8000000000000114
 31
0.0
  0
LINE
  5
345
100
AcDbEntity
  8
0
  6
CONTINUOUS
 62
               4
100
AcDbLine
 10
1.2999999999999829
 20
37.799999999999976
 30
0.0
 11
-8.7000000000000313
 21
37.799999999999976
 31
0.0
  0
LINE
  5
346
100
AcDbEntity
  8
0
  6
CONTINUOUS
 62
               4
100
AcDbLine
 10
1.2999999999999829
 20
36.199999999999982
 30
0.0
 11
-1.9000000000000199
 21
36.199999999999982
 31
0.0
  0
LINE
  5
347
100
AcDbEntity
  8
0
  6
CONTINUOUS
 62
               4
100
AcDbLine
 10
-1.9000000000000199
 20
37.699999999999982
 30
0.0
 11
-8.2000000000000313
 21
37.699999999999982
 31
0.0
  0
LINE
  5
348
100
AcDbEntity
  8
0
  6
CONTINUOUS
 62
               4
100
AcDbLine
 10
-1.9000000000000199
 20
37.699999999999982
 30
0.0
 11
-1.9000000000000199
 21
36.199999999999982
 31
0.0
  0
ARC
  5
349
100
AcDbEntity
  8
0
  6
CONTINUOUS
 62
               4
100
AcDbCircle
 10
-8.2000000000000313
 20
37.199999999999982
 30
0.0
 40
0.5
100
AcDbArc
 50
89.999999999999815
 51
179.99999999999963
  0
LINE
  5
34A
100
AcDbEntity
  8
0
  6
CONTINUOUS
 62
               4
100
AcDbLine
 10
1.2999999999999829
 20
37.199999999999982
 30
0.0
 11
-1.9000000000000199
 21
37.199999999999982
 31
0.0
  0
ARC
  5
34B
100
AcDbEntity
  8
0
  6
CONTINUOUS
 62
               4
100
AcDbCircle
 10
0.5040951466582158
 20
37.20009514665815
 30
0.0
 40
0.5999048608870732
100
AcDbArc
 50
359.99091272245295
 51
90.009087277546172
  0
ARC
  5
34C
100
AcDbEntity
  8
0
  6
CONTINUOUS
 62
               4
100
AcDbCircle
 10
-1.2970880052370433
 20
37.201088005236976
 30
0.0
 40
0.5989129830170392
100
AcDbArc
 50
89.895914524772735
 51
180.10408547522667
  0
CIRCLE
  5
34D
100
AcDbEntity
  8
0
  6
CONTINUOUS
 62
               7
100
AcDbCircle
 10
-3.7000183105468949
 20
8.1000183105468508
 30
0.0
 40
0.8999999761581421
  0
LINE
  5
34E
100
AcDbEntity
  8
0
  6
CONTINUOUS
 62
               4
100
AcDbLine
 10
-8.7000000000000028
 20
15.299999999999976
 30
0.0
 11
1.2999999999999972
 21
15.299999999999976
 31
0.0
  0
LINE
  5
34F
100
AcDbEntity
  8
0
  6
CONTINUOUS
 62
               4
100
AcDbLine
 10
1.2999999999999972
 20
15.299999999999976
 30
0.0
 11
1.2999999999999972
 21
37.799999999999976
 31
0.0
  0
LINE
  5
350
100
AcDbEntity
  8
0
  6
CONTINUOUS
 62
               4
100
AcDbLine
 10
-8.7000000000000028
 20
15.299999999999976
 30
0.0
 11
-8.7000000000000028
 21
37.799999999999976
 31
0.0
  0
LINE
  5
351
100
AcDbEntity
  8
0
  6
CONTINUOUS
 62
               7
100
AcDbLine
 10
-8.7000000000000028
 20
-24.899999999999999
 30
0.0
 11
-8.7000000000000028
 21
15.299999999999976
 31
0.0
  0
LINE
  5
352
100
AcDbEntity
  8
0
  6
CONTINUOUS
 62
               7
100
AcDbLine
 10
1.2999999999999972
 20
-24.899999999999999
 30
0.0
 11
1.2999999999999972
 21
15.299999999999976
 31
0.0
  0
ENDBLK
  5
353
100
AcDbEntity
  8
0
100
AcDbBlockEnd
  0
BLOCK
  5
354
100
AcDbEntity
  8
0
100
AcDbBlockBegin
  2
EA10F6-7
 70
               0
 10
0.0
 20
0.0
 30
0.0
  3
EA10F6-7
  1

  0
LINE
  5
355
100
AcDbEntity
  8
0
  6
CENTER
 62
               2
100
AcDbLine
 10
2.3700000000000045
 20
-22.599001430615203
 30
0.0
 11
5.0400000000000063
 21
-22.599001430615203
 31
0.0
  0
LINE
  5
356
100
AcDbEntity
  8
0
  6
CONTINUOUS
 62
               7
100
AcDbLine
 10
8.7000000000000028
 20
-13.900000000000034
 30
0.0
 11
8.7000000000000028
 21
-24.900000000000034
 31
0.0
  0
LINE
  5
357
100
AcDbEntity
  8
0
  6
CONTINUOUS
 62
               7
100
AcDbLine
 10
-1.2999999999999972
 20
-13.900000000000034
 30
0.0
 11
-1.2999999999999972
 21
-24.900000000000034
 31
0.0
  0
LINE
  5
358
100
AcDbEntity
  8
0
  6
CONTINUOUS
 62
               7
100
AcDbLine
 10
5.7000000000000028
 20
-20.900000000000034
 30
0.0
 11
5.7000000000000028
 21
-24.900000000000034
 31
0.0
  0
LINE
  5
359
100
AcDbEntity
  8
0
  6
CONTINUOUS
 62
               7
100
AcDbLine
 10
1.7000000000000028
 20
-20.900000000000034
 30
0.0
 11
1.7000000000000028
 21
-24.900000000000034
 31
0.0
  0
ARC
  5
35A
100
AcDbEntity
  8
0
  6
CONTINUOUS
 62
               7
100
AcDbCircle
 10
3.7000000000000028
 20
-20.900000000000034
 30
0.0
 40
2.0
100
AcDbArc
 50
0.0
 51
179.99999999999963
  0
LINE
  5
35B
100
AcDbEntity
  8
0
  6
CENTER
 62
               2
100
AcDbLine
 10
2.0000000000000142
 20
-22.600000000000023
 30
0.0
 11
5.3999999999999915
 21
-22.600000000000023
 31
0.0
  0
CIRCLE
  5
35C
100
AcDbEntity
  8
0
  6
CONTINUOUS
 62
               7
100
AcDbCircle
 10
3.7000000000000028
 20
-22.600000000000023
 30
0.0
 40
1.3000000000000012
  0
CIRCLE
  5
35D
100
AcDbEntity
  8
0
  6
CONTINUOUS
 62
               7
100
AcDbCircle
 10
3.7000000000000028
 20
-22.600000000000023
 30
0.0
 40
1.1500000000000001
  0
CIRCLE
  5
35E
100
AcDbEntity
  8
0
  6
CONTINUOUS
 62
               7
100
AcDbCircle
 10
3.7000000000000028
 20
-22.600000000000023
 30
0.0
 40
1.1000000000000001
  0
CIRCLE
  5
35F
100
AcDbEntity
  8
0
  6
CONTINUOUS
 62
               7
100
AcDbCircle
 10
3.7000000000000028
 20
-22.600000000000023
 30
0.0
 40
0.75
  0
LINE
  5
360
100
AcDbEntity
  8
0
  6
CONTINUOUS
 62
               7
100
AcDbLine
 10
-1.2999999999999972
 20
-13.900000000000034
 30
0.0
 11
8.7000000000000028
 21
-13.900000000000034
 31
0.0
  0
CIRCLE
  5
361
100
AcDbEntity
  8
0
  6
CONTINUOUS
 62
               7
100
AcDbCircle
 10
0.0
 20
0.0
 30
0.0
 40
1.0
  0
ARC
  5
362
100
AcDbEntity
  8
0
  6
CONTINUOUS
 62
               7
100
AcDbCircle
 10
0.0
 20
0.0
 30
0.0
 40
1.6499999999999999
100
AcDbArc
 50
269.99999999999937
 51
89.999999999999801
  0
LINE
  5
363
100
AcDbEntity
  8
0
  6
CONTINUOUS
 62
               7
100
AcDbLine
 10
0.0
 20
1.6499999999999773
 30
0.0
 11
-1.2999999999999972
 21
1.6499999999999773
 31
0.0
  0
LINE
  5
364
100
AcDbEntity
  8
0
  6
CONTINUOUS
 62
               7
100
AcDbLine
 10
0.0
 20
-1.6500000000000341
 30
0.0
 11
-1.2999999999999972
 21
-1.6500000000000341
 31
0.0
  0
LINE
  5
365
100
AcDbEntity
  8
0
  6
CENTER
 62
               2
100
AcDbLine
 10
7.5838949302954006
 20
-1.6000000000000227
 30
0.0
 11
3.9224912070590676
 21
-1.6000000000000227
 31
0.0
  0
LINE
  5
366
100
AcDbEntity
  8
0
  6
CENTER
 62
               2
100
AcDbLine
 10
9.5781662840152251
 20
-9.6000000000000227
 30
0.0
 11
5.2218337159847863
 21
-9.6000000000000227
 31
0.0
  0
LINE
  5
367
100
AcDbEntity
  8
0
  6
CENTER
 62
               2
100
AcDbLine
 10
7.4000000000000057
 20
-11.778166284015242
 30
0.0
 11
7.4000000000000057
 21
-7.4218337159848033
 31
0.0
  0
CIRCLE
  5
368
100
AcDbEntity
  8
0
  6
CONTINUOUS
 62
               7
100
AcDbCircle
 10
7.4000000000000057
 20
-9.6000000000000227
 30
0.0
 40
1.0
  0
LINE
  5
369
100
AcDbEntity
  8
0
  6
CENTER
 62
               2
100
AcDbLine
 10
3.4959790593988203
 20
-8.0
 30
0.0
 11
-0.2952400309144281
 21
-8.0
 31
0.0
  0
CIRCLE
  5
36A
100
AcDbEntity
  8
0
  6
CONTINUOUS
 62
               2
100
AcDbCircle
 10
1.7000000000000028
 20
-8.0
 30
0.0
 40
1.5
  0
CIRCLE
  5
36B
100
AcDbEntity
  8
0
  6
CONTINUOUS
 62
               7
100
AcDbCircle
 10
1.7000000000000028
 20
-8.0
 30
0.0
 40
1.25
  0
LINE
  5
36C
100
AcDbEntity
  8
0
  6
CENTER
 62
               2
100
AcDbLine
 10
1.7000000000000028
 20
-9.9088409314013575
 30
0.0
 11
1.7000000000000028
 21
-6.1176218410881233
 31
0.0
  0
ARC
  5
36D
100
AcDbEntity
  8
0
  6
CONTINUOUS
 62
               7
100
AcDbCircle
 10
7.4000000000000057
 20
-9.6000000000000227
 30
0.0
 40
1.6499999999999999
100
AcDbArc
 50
89.999999999999815
 51
269.99999999999937
  0
LINE
  5
36E
100
AcDbEntity
  8
0
  6
CONTINUOUS
 62
               7
100
AcDbLine
 10
7.4000000000000057
 20
-7.9500000000000455
 30
0.0
 11
8.7000000000000028
 21
-7.9500000000000455
 31
0.0
  0
LINE
  5
36F
100
AcDbEntity
  8
0
  6
CONTINUOUS
 62
               7
100
AcDbLine
 10
7.4000000000000057
 20
-11.25
 30
0.0
 11
8.7000000000000028
 21
-11.25
 31
0.0
  0
LINE
  5
370
100
AcDbEntity
  8
0
  6
CENTER
 62
               2
100
AcDbLine
 10
0.0
 20
-2.1781662840152194
 30
0.0
 11
0.0
 21
2.1781662840152194
 31
0.0
  0
LINE
  5
371
100
AcDbEntity
  8
0
  6
CENTER
 62
               2
100
AcDbLine
 10
5.7000000000000028
 20
-3.806023608378041
 30
0.0
 11
5.7000000000000028
 21
0.5170115669600364
 31
0.0
  0
CIRCLE
  5
372
100
AcDbEntity
  8
0
  6
CONTINUOUS
 62
               7
100
AcDbCircle
 10
5.7000000000000028
 20
-1.6000000000000227
 30
0.0
 40
1.25
  0
CIRCLE
  5
373
100
AcDbEntity
  8
0
  6
CONTINUOUS
 62
               2
100
AcDbCircle
 10
5.7000000000000028
 20
-1.6000000000000227
 30
0.0
 40
1.5
  0
LINE
  5
374
100
AcDbEntity
  8
0
  6
CONTINUOUS
 62
               7
100
AcDbLine
 10
8.7000000000000028
 20
-13.900000000000034
 30
0.0
 11
8.7000000000000028
 21
4.2999999999999545
 31
0.0
  0
LINE
  5
375
100
AcDbEntity
  8
0
  6
CONTINUOUS
 62
               7
100
AcDbLine
 10
-1.2999999999999972
 20
-13.900000000000034
 30
0.0
 11
-1.2999999999999972
 21
4.2999999999999545
 31
0.0
  0
LINE
  5
376
100
AcDbEntity
  8
0
  6
CONTINUOUS
 62
               7
100
AcDbLine
 10
8.7000000000000028
 20
4.2999999999999545
 30
0.0
 11
-1.2999999999999972
 21
4.2999999999999545
 31
0.0
  0
CIRCLE
  5
377
100
AcDbEntity
  8
0
  6
CONTINUOUS
 62
               7
100
AcDbCircle
 10
3.7000000000000028
 20
13.0
 30
0.0
 40
0.75
  0
CIRCLE
  5
378
100
AcDbEntity
  8
0
  6
CONTINUOUS
 62
               7
100
AcDbCircle
 10
3.7000000000000028
 20
13.0
 30
0.0
 40
1.1000000000000001
  0
CIRCLE
  5
379
100
AcDbEntity
  8
0
  6
CONTINUOUS
 62
               7
100
AcDbCircle
 10
3.7000000000000028
 20
13.0
 30
0.0
 40
1.1500000000000001
  0
CIRCLE
  5
37A
100
AcDbEntity
  8
0
  6
CONTINUOUS
 62
               7
100
AcDbCircle
 10
3.7000000000000028
 20
13.0
 30
0.0
 40
1.3000000000000012
  0
LINE
  5
37B
100
AcDbEntity
  8
0
  6
CENTER
 62
               2
100
AcDbLine
 10
5.3999999999999915
 20
13.0
 30
0.0
 11
2.0000000000000142
 21
13.0
 31
0.0
  0
ARC
  5
37C
100
AcDbEntity
  8
0
  6
CONTINUOUS
 62
               7
100
AcDbCircle
 10
3.7000000000000028
 20
11.300000000000011
 30
0.0
 40
2.0
100
AcDbArc
 50
179.99999999999963
 51
0.0
  0
LINE
  5
37D
100
AcDbEntity
  8
0
  6
CONTINUOUS
 62
               7
100
AcDbLine
 10
5.7000000000000028
 20
11.300000000000011
 30
0.0
 11
5.7000000000000028
 21
15.300000000000011
 31
0.0
  0
LINE
  5
37E
100
AcDbEntity
  8
0
  6
CONTINUOUS
 62
               7
100
AcDbLine
 10
1.7000000000000028
 20
11.300000000000011
 30
0.0
 11
1.7000000000000028
 21
15.300000000000011
 31
0.0
  0
LINE
  5
37F
100
AcDbEntity
  8
0
  6
CONTINUOUS
 62
               7
100
AcDbLine
 10
8.7000000000000028
 20
4.2999999999999545
 30
0.0
 11
8.7000000000000028
 21
15.300000000000011
 31
0.0
  0
LINE
  5
380
100
AcDbEntity
  8
0
  6
CONTINUOUS
 62
               7
100
AcDbLine
 10
-1.2999999999999972
 20
4.2999999999999545
 30
0.0
 11
-1.2999999999999972
 21
15.300000000000011
 31
0.0
  0
LINE
  5
381
100
AcDbEntity
  8
0
  6
CENTER
 62
               2
100
AcDbLine
 10
5.0300000000000011
 20
12.999001430615181
 30
0.0
 11
2.3599999999999994
 21
12.999001430615181
 31
0.0
  0
LINE
  5
382
100
AcDbEntity
  8
0
  6
CONTINUOUS
 62
               7
100
AcDbLine
 10
6.7999999999999972
 20
15.300000000000011
 30
0.0
 11
6.7999999999999972
 21
11.300000000000011
 31
0.0
  0
LINE
  5
383
100
AcDbEntity
  8
0
  6
CONTINUOUS
 62
               7
100
AcDbLine
 10
0.6000000000000085
 20
15.300000000000011
 30
0.0
 11
0.6000000000000085
 21
11.300000000000011
 31
0.0
  0
ARC
  5
384
100
AcDbEntity
  8
0
  6
CONTINUOUS
 62
               7
100
AcDbCircle
 10
3.7000000000000028
 20
11.300000000000011
 30
0.0
 40
3.0999999999999943
100
AcDbArc
 50
179.99999999999963
 51
0.0
  0
ARC
  5
385
100
AcDbEntity
  8
0
  6
CONTINUOUS
 62
               7
100
AcDbCircle
 10
3.7000000000000028
 20
-20.900000000000034
 30
0.0
 40
3.0999999999999801
100
AcDbArc
 50
0.0
 51
179.99999999999963
  0
LINE
  5
386
100
AcDbEntity
  8
0
  6
CONTINUOUS
 62
               7
100
AcDbLine
 10
0.5999999999999943
 20
-20.900000000000034
 30
0.0
 11
0.5999999999999943
 21
-24.900000000000034
 31
0.0
  0
LINE
  5
387
100
AcDbEntity
  8
0
  6
CONTINUOUS
 62
               7
100
AcDbLine
 10
6.7999999999999829
 20
-20.900000000000034
 30
0.0
 11
6.7999999999999829
 21
-24.900000000000034
 31
0.0
  0
LINE
  5
388
100
AcDbEntity
  8
0
  6
CENTER
 62
               2
100
AcDbLine
 10
2.1781662840152194
 20
0.0
 30
0.0
 11
-2.1781662840152194
 21
0.0
 31
0.0
  0
LINE
  5
389
100
AcDbEntity
  8
0
  6
CONTINUOUS
 62
               4
100
AcDbLine
 10
7.7620000000000005
 20
16.377999995734115
 30
0.0
 11
-0.3620000000000232
 21
16.377999995734115
 31
0.0
  0
LINE
  5
38A
100
AcDbEntity
  8
0
  6
CONTINUOUS
 62
               4
100
AcDbLine
 10
8.1999999999999886
 20
33.800000000000011
 30
0.0
 11
-0.8000000000000114
 21
33.800000000000011
 31
0.0
  0
LINE
  5
38B
100
AcDbEntity
  8
0
  6
CONTINUOUS
 62
               4
100
AcDbLine
 10
8.6999999999999886
 20
36.200000000000003
 30
0.0
 11
5.4999999999999432
 21
36.200000000000003
 31
0.0
  0
LINE
  5
38C
100
AcDbEntity
  8
0
  6
CONTINUOUS
 62
               4
100
AcDbLine
 10
8.6999999999999886
 20
37.800000000000026
 30
0.0
 11
-1.3000000000000114
 21
37.800000000000026
 31
0.0
  0
LINE
  5
38D
100
AcDbEntity
  8
0
  6
CONTINUOUS
 62
               4
100
AcDbLine
 10
8.6999999999999886
 20
37.200000000000003
 30
0.0
 11
5.4999999999999432
 21
37.200000000000003
 31
0.0
  0
LINE
  5
38E
100
AcDbEntity
  8
0
  6
CONTINUOUS
 62
               4
100
AcDbLine
 10
-1.3000000000000114
 20
15.300000000000011
 30
0.0
 11
8.6999999999999886
 21
15.300000000000011
 31
0.0
  0
ARC
  5
38F
100
AcDbEntity
  8
0
  6
CONTINUOUS
 62
               4
100
AcDbCircle
 10
-0.7997029757938776
 20
15.800297024206145
 30
0.0
 40
0.5002971123771115
100
AcDbArc
 50
180.03401625554557
 51
269.96598374445358
  0
LINE
  5
390
100
AcDbEntity
  8
0
  6
PHANTOM
 62
             200
100
AcDbLine
 10
2.199981689453125
 20
22.799999995730559
 30
0.0
 11
2.199981689453125
 21
20.799999995730559
 31
0.0
  0
LINE
  5
391
100
AcDbEntity
  8
0
  6
PHANTOM
 62
             200
100
AcDbLine
 10
5.199981689453125
 20
22.799999995730559
 30
0.0
 11
5.199981689453125
 21
20.799999995730559
 31
0.0
  0
LINE
  5
392
100
AcDbEntity
  8
0
  6
PHANTOM
 62
             200
100
AcDbLine
 10
2.199981689453125
 20
20.799999995730559
 30
0.0
 11
5.199981689453125
 21
20.799999995730559
 31
0.0
  0
LINE
  5
393
100
AcDbEntity
  8
0
  6
PHANTOM
 62
             200
100
AcDbLine
 10
2.199981689453125
 20
22.799999995730559
 30
0.0
 11
5.199981689453125
 21
22.799999995730559
 31
0.0
  0
LINE
  5
394
100
AcDbEntity
  8
0
  6
CONTINUOUS
 62
               4
100
AcDbLine
 10
5.4999999999999432
 20
37.700000000000003
 30
0.0
 11
-0.8000000000000114
 21
37.700000000000003
 31
0.0
  0
LINE
  5
395
100
AcDbEntity
  8
0
  6
CONTINUOUS
 62
               4
100
AcDbLine
 10
5.4999999999999432
 20
37.700000000000003
 30
0.0
 11
5.4999999999999432
 21
36.200000000000003
 31
0.0
  0
ARC
  5
396
100
AcDbEntity
  8
0
  6
CONTINUOUS
 62
               4
100
AcDbCircle
 10
-0.8000000000000114
 20
37.200000000000003
 30
0.0
 40
0.5
100
AcDbArc
 50
89.999999999999815
 51
179.99999999999963
  0
CIRCLE
  5
397
100
AcDbEntity
  8
0
  6
CONTINUOUS
 62
               4
100
AcDbCircle
 10
4.9505938720703284
 20
30.300000000000011
 30
0.0
 40
0.25
  0
CIRCLE
  5
398
100
AcDbEntity
  8
0
  6
CONTINUOUS
 62
               4
100
AcDbCircle
 10
2.4505938720703284
 20
30.300000000000011
 30
0.0
 40
0.25
  0
LINE
  5
399
100
AcDbEntity
  8
0
  6
CONTINUOUS
 62
               4
100
AcDbLine
 10
-0.8620000000000232
 20
33.300000000000011
 30
0.0
 11
-0.8620000000000232
 21
16.877999995734115
 31
0.0
  0
ARC
  5
39A
100
AcDbEntity
  8
0
  6
CONTINUOUS
 62
               4
100
AcDbCircle
 10
-0.3619820553420823
 20
33.29998205534207
 30
0.0
 40
0.5000179449799356
100
AcDbArc
 50
90.002056232531103
 51
179.99794376746806
  0
ARC
  5
39B
100
AcDbEntity
  8
0
  6
CONTINUOUS
 62
               4
100
AcDbCircle
 10
-0.7997029757938776
 20
33.299702975793878
 30
0.0
 40
0.5002971123771114
100
AcDbArc
 50
90.034016255545609
 51
179.96598374445358
  0
ARC
  5
39C
100
AcDbEntity
  8
0
  6
CONTINUOUS
 62
               4
100
AcDbCircle
 10
-0.362213560790849
 20
16.877786434943289
 30
0.0
 40
0.4997864848369056
100
AcDbArc
 50
179.97551728042748
 51
270.02448271957149
  0
ARC
  5
39D
100
AcDbEntity
  8
0
  6
CONTINUOUS
 62
               4
100
AcDbCircle
 10
4.9499999999999886
 20
30.300000000000011
 30
0.0
 40
2.0000000881710065
100
AcDbArc
 50
269.99999999999937
 51
89.999999999999801
  0
ARC
  5
39E
100
AcDbEntity
  8
0
  6
CONTINUOUS
 62
               4
100
AcDbCircle
 10
2.4499999999999886
 20
30.300000000000011
 30
0.0
 40
2.0000000881710065
100
AcDbArc
 50
89.999999999999815
 51
269.99999999999937
  0
LINE
  5
39F
100
AcDbEntity
  8
0
  6
CONTINUOUS
 62
               4
100
AcDbLine
 10
4.9499999999999886
 20
32.300000000000011
 30
0.0
 11
2.4499999999999886
 21
32.300000000000011
 31
0.0
  0
LINE
  5
3A0
100
AcDbEntity
  8
0
  6
CONTINUOUS
 62
               4
100
AcDbLine
 10
4.9499999999999886
 20
28.300000000000011
 30
0.0
 11
2.4499999999999886
 21
28.300000000000011
 31
0.0
  0
CIRCLE
  5
3A1
100
AcDbEntity
  8
0
  6
CONTINUOUS
 62
               4
100
AcDbCircle
 10
4.9505938720703284
 20
30.300000000000011
 30
0.0
 40
0.7250000000000001
  0
CIRCLE
  5
3A2
100
AcDbEntity
  8
0
  6
CONTINUOUS
 62
               4
100
AcDbCircle
 10
2.4505938720703284
 20
30.300000000000011
 30
0.0
 40
0.7250000000000001
  0
ARC
  5
3A3
100
AcDbEntity
  8
0
  6
CONTINUOUS
 62
               4
100
AcDbCircle
 10
6.1029119947629056
 20
37.201088005237025
 30
0.0
 40
0.5989129830170392
100
AcDbArc
 50
89.895914524772735
 51
180.10408547522667
  0
LINE
  5
3A4
100
AcDbEntity
  8
0
  6
CONTINUOUS
 62
               4
100
AcDbLine
 10
-1.3000000000000114
 20
37.800000000000026
 30
0.0
 11
-1.3000000000000114
 21
15.300000000000011
 31
0.0
  0
ARC
  5
3A5
100
AcDbEntity
  8
0
  6
CONTINUOUS
 62
               4
100
AcDbCircle
 10
8.2002968478641947
 20
15.799703152135805
 30
0.0
 40
0.4997032403068001
100
AcDbArc
 50
269.96596353714654
 51
0.0340364628527164
  0
LINE
  5
3A6
100
AcDbEntity
  8
0
  6
CONTINUOUS
 62
               4
100
AcDbLine
 10
8.2620000000000005
 20
33.300000000000011
 30
0.0
 11
8.2620000000000005
 21
16.877999995734115
 31
0.0
  0
ARC
  5
3A7
100
AcDbEntity
  8
0
  6
CONTINUOUS
 62
               4
100
AcDbCircle
 10
8.2002968478641947
 20
33.300296847864217
 30
0.0
 40
0.4997032403068001
100
AcDbArc
 50
359.96596353714654
 51
90.034036462852711
  0
ARC
  5
3A8
100
AcDbEntity
  8
0
  6
CONTINUOUS
 62
               4
100
AcDbCircle
 10
7.762575596042268
 20
33.300575596042279
 30
0.0
 40
0.499424735650256
100
AcDbArc
 50
359.93396556302804
 51
90.066034436970796
  0
ARC
  5
3A9
100
AcDbEntity
  8
0
  6
CONTINUOUS
 62
               4
100
AcDbCircle
 10
7.762807376533658
 20
16.8771926192004
 30
0.0
 40
0.4991932763770037
100
AcDbArc
 50
269.90733190886618
 51
0.0926680911333844
  0
ARC
  5
3AA
100
AcDbEntity
  8
0
  6
CONTINUOUS
 62
               4
100
AcDbCircle
 10
7.9040951466581646
 20
37.200095146658199
 30
0.0
 40
0.5999048608870732
100
AcDbArc
 50
359.99091272245295
 51
90.009087277546172
  0
LINE
  5
3AB
100
AcDbEntity
  8
0
  6
CONTINUOUS
 62
               4
100
AcDbLine
 10
8.6999999999999886
 20
37.800000000000026
 30
0.0
 11
8.6999999999999886
 21
15.300000000000011
 31
0.0
  0
LINE
  5
3AC
100
AcDbEntity
  8
0
  6
CONTINUOUS
 62
               4
100
AcDbLine
 10
-0.3620000000000232
 20
-25.977999995734137
 30
0.0
 11
7.7620000000000005
 21
-25.977999995734137
 31
0.0
  0
LINE
  5
3AD
100
AcDbEntity
  8
0
  6
CONTINUOUS
 62
               4
100
AcDbLine
 10
-0.8000000000000114
 20
-43.400000000000034
 30
0.0
 11
8.1999999999999886
 21
-43.400000000000034
 31
0.0
  0
LINE
  5
3AE
100
AcDbEntity
  8
0
  6
CONTINUOUS
 62
               4
100
AcDbLine
 10
-1.3000000000000114
 20
-45.800000000000011
 30
0.0
 11
1.9000000000000341
 21
-45.800000000000011
 31
0.0
  0
LINE
  5
3AF
100
AcDbEntity
  8
0
  6
CONTINUOUS
 62
               4
100
AcDbLine
 10
-1.3000000000000114
 20
-47.400000000000034
 30
0.0
 11
8.6999999999999886
 21
-47.400000000000034
 31
0.0
  0
LINE
  5
3B0
100
AcDbEntity
  8
0
  6
CONTINUOUS
 62
               4
100
AcDbLine
 10
-1.3000000000000114
 20
-46.800000000000011
 30
0.0
 11
1.9000000000000341
 21
-46.800000000000011
 31
0.0
  0
LINE
  5
3B1
100
AcDbEntity
  8
0
  6
CONTINUOUS
 62
               4
100
AcDbLine
 10
8.6999999999999886
 20
-24.900000000000034
 30
0.0
 11
-1.3000000000000114
 21
-24.900000000000034
 31
0.0
  0
ARC
  5
3B2
100
AcDbEntity
  8
0
  6
CONTINUOUS
 62
               4
100
AcDbCircle
 10
8.1997029757938549
 20
-25.400297024206111
 30
0.0
 40
0.5002971123771115
100
AcDbArc
 50
0.034016255545966
 51
89.965983744453979
  0
LINE
  5
3B3
100
AcDbEntity
  8
0
  6
PHANTOM
 62
             200
100
AcDbLine
 10
5.2000183105468523
 20
-32.399999995730525
 30
0.0
 11
5.2000183105468523
 21
-30.399999995730525
 31
0.0
  0
LINE
  5
3B4
100
AcDbEntity
  8
0
  6
PHANTOM
 62
             200
100
AcDbLine
 10
2.2000183105468523
 20
-32.399999995730525
 30
0.0
 11
2.2000183105468523
 21
-30.399999995730525
 31
0.0
  0
LINE
  5
3B5
100
AcDbEntity
  8
0
  6
PHANTOM
 62
             200
100
AcDbLine
 10
5.2000183105468523
 20
-30.399999995730525
 30
0.0
 11
2.2000183105468523
 21
-30.399999995730525
 31
0.0
  0
LINE
  5
3B6
100
AcDbEntity
  8
0
  6
PHANTOM
 62
             200
100
AcDbLine
 10
5.2000183105468523
 20
-32.399999995730525
 30
0.0
 11
2.2000183105468523
 21
-32.399999995730525
 31
0.0
  0
LINE
  5
3B7
100
AcDbEntity
  8
0
  6
CONTINUOUS
 62
               4
100
AcDbLine
 10
1.9000000000000341
 20
-47.300000000000011
 30
0.0
 11
8.1999999999999886
 21
-47.300000000000011
 31
0.0
  0
LINE
  5
3B8
100
AcDbEntity
  8
0
  6
CONTINUOUS
 62
               4
100
AcDbLine
 10
1.9000000000000341
 20
-47.300000000000011
 30
0.0
 11
1.9000000000000341
 21
-45.800000000000011
 31
0.0
  0
ARC
  5
3B9
100
AcDbEntity
  8
0
  6
CONTINUOUS
 62
               4
100
AcDbCircle
 10
8.1999999999999886
 20
-46.800000000000011
 30
0.0
 40
0.5
100
AcDbArc
 50
269.99999999999937
 51
0.0
  0
CIRCLE
  5
3BA
100
AcDbEntity
  8
0
  6
CONTINUOUS
 62
               4
100
AcDbCircle
 10
2.4494061279296488
 20
-39.900000000000034
 30
0.0
 40
0.25
  0
CIRCLE
  5
3BB
100
AcDbEntity
  8
0
  6
CONTINUOUS
 62
               4
100
AcDbCircle
 10
4.9494061279296488
 20
-39.900000000000034
 30
0.0
 40
0.25
  0
LINE
  5
3BC
100
AcDbEntity
  8
0
  6
CONTINUOUS
 62
               4
100
AcDbLine
 10
8.2620000000000005
 20
-42.900000000000034
 30
0.0
 11
8.2620000000000005
 21
-26.477999995734137
 31
0.0
  0
ARC
  5
3BD
100
AcDbEntity
  8
0
  6
CONTINUOUS
 62
               4
100
AcDbCircle
 10
7.7619820553420595
 20
-42.899982055342093
 30
0.0
 40
0.5000179449799356
100
AcDbArc
 50
270.00205623253072
 51
359.99794376746769
  0
ARC
  5
3BE
100
AcDbEntity
  8
0
  6
CONTINUOUS
 62
               4
100
AcDbCircle
 10
8.1997029757938549
 20
-42.8997029757939
 30
0.0
 40
0.5002971123771114
100
AcDbArc
 50
270.03401625554523
 51
359.96598374445318
  0
ARC
  5
3BF
100
AcDbEntity
  8
0
  6
CONTINUOUS
 62
               4
100
AcDbCircle
 10
7.7622135607908263
 20
-26.477786434943312
 30
0.0
 40
0.4997864848369056
100
AcDbArc
 50
359.97551728042708
 51
90.024482719571907
  0
ARC
  5
3C0
100
AcDbEntity
  8
0
  6
CONTINUOUS
 62
               4
100
AcDbCircle
 10
2.4499999999999886
 20
-39.900000000000034
 30
0.0
 40
2.0000000881710065
100
AcDbArc
 50
89.999999999999815
 51
269.99999999999937
  0
ARC
  5
3C1
100
AcDbEntity
  8
0
  6
CONTINUOUS
 62
               4
100
AcDbCircle
 10
4.9499999999999886
 20
-39.900000000000034
 30
0.0
 40
2.0000000881710065
100
AcDbArc
 50
269.99999999999937
 51
89.999999999999801
  0
LINE
  5
3C2
100
AcDbEntity
  8
0
  6
CONTINUOUS
 62
               4
100
AcDbLine
 10
2.4499999999999886
 20
-41.900000000000034
 30
0.0
 11
4.9499999999999886
 21
-41.900000000000034
 31
0.0
  0
LINE
  5
3C3
100
AcDbEntity
  8
0
  6
CONTINUOUS
 62
               4
100
AcDbLine
 10
2.4499999999999886
 20
-37.900000000000034
 30
0.0
 11
4.9499999999999886
 21
-37.900000000000034
 31
0.0
  0
CIRCLE
  5
3C4
100
AcDbEntity
  8
0
  6
CONTINUOUS
 62
               4
100
AcDbCircle
 10
2.4494061279296488
 20
-39.900000000000034
 30
0.0
 40
0.7250000000000001
  0
CIRCLE
  5
3C5
100
AcDbEntity
  8
0
  6
CONTINUOUS
 62
               4
100
AcDbCircle
 10
4.9494061279296488
 20
-39.900000000000034
 30
0.0
 40
0.7250000000000001
  0
ARC
  5
3C6
100
AcDbEntity
  8
0
  6
CONTINUOUS
 62
               4
100
AcDbCircle
 10
1.2970880052370717
 20
-46.801088005237034
 30
0.0
 40
0.5989129830170392
100
AcDbArc
 50
269.89591452477231
 51
0.1040854752270701
  0
LINE
  5
3C7
100
AcDbEntity
  8
0
  6
CONTINUOUS
 62
               4
100
AcDbLine
 10
8.6999999999999886
 20
-47.400000000000034
 30
0.0
 11
8.6999999999999886
 21
-24.900000000000034
 31
0.0
  0
ARC
  5
3C8
100
AcDbEntity
  8
0
  6
CONTINUOUS
 62
               4
100
AcDbCircle
 10
-0.8002968478642174
 20
-25.399703152135828
 30
0.0
 40
0.4997032403068001
100
AcDbArc
 50
89.965963537146934
 51
180.03403646285233
  0
LINE
  5
3C9
100
AcDbEntity
  8
0
  6
CONTINUOUS
 62
               4
100
AcDbLine
 10
-0.8620000000000232
 20
-42.900000000000034
 30
0.0
 11
-0.8620000000000232
 21
-26.477999995734137
 31
0.0
  0
ARC
  5
3CA
100
AcDbEntity
  8
0
  6
CONTINUOUS
 62
               4
100
AcDbCircle
 10
-0.8002968478642174
 20
-42.900296847864183
 30
0.0
 40
0.4997032403068001
100
AcDbArc
 50
179.96596353714693
 51
270.03403646285233
  0
ARC
  5
3CB
100
AcDbEntity
  8
0
  6
CONTINUOUS
 62
               4
100
AcDbCircle
 10
-0.3625755960422907
 20
-42.900575596042302
 30
0.0
 40
0.499424735650256
100
AcDbArc
 50
179.93396556302844
 51
270.06603443697037
  0
ARC
  5
3CC
100
AcDbEntity
  8
0
  6
CONTINUOUS
 62
               4
100
AcDbCircle
 10
-0.3628073765336808
 20
-26.477192619200423
 30
0.0
 40
0.4991932763770037
100
AcDbArc
 50
89.907331908866567
 51
180.09266809113299
  0
ARC
  5
3CD
100
AcDbEntity
  8
0
  6
CONTINUOUS
 62
               4
100
AcDbCircle
 10
-0.5040951466581873
 20
-46.80009514665818
 30
0.0
 40
0.5999048608870732
100
AcDbArc
 50
179.99091272245337
 51
270.00908727754575
  0
LINE
  5
3CE
100
AcDbEntity
  8
0
  6
CONTINUOUS
 62
               4
100
AcDbLine
 10
-1.3000000000000114
 20
-47.400000000000034
 30
0.0
 11
-1.3000000000000114
 21
-24.900000000000034
 31
0.0
  0
LINE
  5
3CF
100
AcDbEntity
  8
0
  6
CENTER
 62
               2
100
AcDbLine
 10
3.6999999999999886
 20
39.165053939201798
 30
0.0
 11
3.6999999999999886
 21
-48.765053939201778
 31
0.0
  0
ENDBLK
  5
3D0
100
AcDbEntity
  8
0
100
AcDbBlockEnd
  0
BLOCK
  5
3D1
100
AcDbEntity
  8
0
100
AcDbBlockBegin
  2
EA10F6-8
 70
               0
 10
0.0
 20
0.0
 30
0.0
  3
EA10F6-8
  1

  0
LINE
  5
3D2
100
AcDbEntity
  8
0
  6
CONTINUOUS
 62
               7
100
AcDbLine
 10
0.0
 20
-24.899999999999977
 30
0.0
 11
0.0
 21
15.299999999999898
 31
0.0
  0
LINE
  5
3D3
100
AcDbEntity
  8
0
  6
CONTINUOUS
 62
               7
100
AcDbLine
 10
14.000000000000043
 20
-24.89999999999992
 30
0.0
 11
14.000000000000043
 21
15.299999999999898
 31
0.0
  0
LINE
  5
3D4
100
AcDbEntity
  8
0
  6
CONTINUOUS
 62
               7
100
AcDbLine
 10
14.000000000000028
 20
-17.805000000000007
 30
0.0
 11
15.100000000000037
 21
-18.900000000000034
 31
0.0
  0
LINE
  5
3D5
100
AcDbEntity
  8
0
  6
CONTINUOUS
 62
               7
100
AcDbLine
 10
15.547999999999973
 20
-21.5
 30
0.0
 11
15.548000000000002
 21
-23.700000000000045
 31
0.0
  0
LINE
  5
3D6
100
AcDbEntity
  8
0
  6
CONTINUOUS
 62
               7
100
AcDbLine
 10
15.548000000000002
 20
-23.700000000000045
 30
0.0
 11
15.100000000000023
 21
-23.700000000000045
 31
0.0
  0
LINE
  5
3D7
100
AcDbEntity
  8
0
  6
CONTINUOUS
 62
               7
100
AcDbLine
 10
15.547999999999973
 20
-21.5
 30
0.0
 11
15.100000000000037
 21
-21.5
 31
0.0
  0
LINE
  5
3D8
100
AcDbEntity
  8
0
  6
CONTINUOUS
 62
               7
100
AcDbLine
 10
15.100000000000037
 20
-18.900000000000034
 30
0.0
 11
15.100000000000037
 21
-24.89999999999992
 31
0.0
  0
CIRCLE
  5
3D9
100
AcDbEntity
  8
0
  6
CONTINUOUS
 62
               7
100
AcDbCircle
 10
2.8999999864818875
 20
-8.0000000000000568
 30
0.0
 40
1.075
  0
CIRCLE
  5
3DA
100
AcDbEntity
  8
0
  6
CONTINUOUS
 62
               7
100
AcDbCircle
 10
2.8999999864818875
 20
-1.6000001002713589
 30
0.0
 40
1.075
  0
LINE
  5
3DB
100
AcDbEntity
  8
0
  6
CENTER
 62
               2
100
AcDbLine
 10
4.5580738695787346
 20
-7.9995622165198483
 30
0.0
 11
1.2989993842763141
 21
-7.9995622165198483
 31
0.0
  0
LINE
  5
3DC
100
AcDbEntity
  8
0
  6
CENTER
 62
               2
100
AcDbLine
 10
2.8999999864818875
 20
1.0056776575735284
 30
0.0
 11
2.8999999864818875
 21
-10.438647484203386
 31
0.0
  0
LINE
  5
3DD
100
AcDbEntity
  8
0
  6
CENTER
 62
               2
100
AcDbLine
 10
4.5580738695787346
 20
-1.6000000000000227
 30
0.0
 11
1.2989993842763141
 21
-1.6000000000000227
 31
0.0
  0
LINE
  5
3DE
100
AcDbEntity
  8
0
  6
CONTINUOUS
 62
               7
100
AcDbLine
 10
-0.00000002543905
 20
-13.900000000000034
 30
0.0
 11
13.99999997456095
 21
-13.900000000000034
 31
0.0
  0
LINE
  5
3DF
100
AcDbEntity
  8
0
  6
CONTINUOUS
 62
               7
100
AcDbLine
 10
12.999999986481882
 20
-1.5990014306152034
 30
0.0
 11
13.999999986481882
 21
-1.5990014306152034
 31
0.0
  0
LINE
  5
3E0
100
AcDbEntity
  8
0
  6
CONTINUOUS
 62
               7
100
AcDbLine
 10
12.999999986481882
 20
1.6009985693847852
 30
0.0
 11
13.999999986481882
 21
1.6009985693847852
 31
0.0
  0
LINE
  5
3E1
100
AcDbEntity
  8
0
  6
CONTINUOUS
 62
               7
100
AcDbLine
 10
-0.0000000000000142
 20
4.2999999999999545
 30
0.0
 11
13.999999986481882
 21
4.3000000000000114
 31
0.0
  0
LINE
  5
3E2
100
AcDbEntity
  8
0
  6
CONTINUOUS
 62
               7
100
AcDbLine
 10
15.100000000000037
 20
9.2999999999999545
 30
0.0
 11
15.100000000000037
 21
15.299999999999898
 31
0.0
  0
LINE
  5
3E3
100
AcDbEntity
  8
0
  6
CONTINUOUS
 62
               7
100
AcDbLine
 10
15.547999999999973
 20
11.899999999999977
 30
0.0
 11
15.100000000000037
 21
11.899999999999977
 31
0.0
  0
LINE
  5
3E4
100
AcDbEntity
  8
0
  6
CONTINUOUS
 62
               7
100
AcDbLine
 10
15.548000000000002
 20
14.100000000000023
 30
0.0
 11
15.100000000000023
 21
14.100000000000023
 31
0.0
  0
LINE
  5
3E5
100
AcDbEntity
  8
0
  6
CONTINUOUS
 62
               7
100
AcDbLine
 10
15.547999999999973
 20
11.899999999999977
 30
0.0
 11
15.548000000000002
 21
14.100000000000023
 31
0.0
  0
LINE
  5
3E6
100
AcDbEntity
  8
0
  6
CONTINUOUS
 62
               7
100
AcDbLine
 10
14.000000000000028
 20
8.2049999999999841
 30
0.0
 11
15.100000000000037
 21
9.2999999999999545
 31
0.0
  0
LINE
  5
3E7
100
AcDbEntity
  8
0
  6
CONTINUOUS
 62
               7
100
AcDbLine
 10
12.999999986481882
 20
1.6009985693847852
 30
0.0
 11
12.999999986481882
 21
-1.5990014306152034
 31
0.0
  0
LINE
  5
3E8
100
AcDbEntity
  8
0
  6
CENTER
 62
               2
100
AcDbLine
 10
0.8758465617809605
 20
-11.199999999999989
 30
0.0
 11
-13.405931081008063
 21
-11.199999999999989
 31
0.0
  0
LINE
  5
3E9
100
AcDbEntity
  8
0
  6
CENTER
 62
               2
100
AcDbLine
 10
0.8758465617809605
 20
1.5999999999999659
 30
0.0
 11
-13.405931081008063
 21
1.5999999999999659
 31
0.0
  0
LINE
  5
3EA
100
AcDbEntity
  8
0
  6
DASHED
 62
             200
100
AcDbLine
 10
-0.0000000135181182
 20
-14.199999999999989
 30
0.0
 11
-11.500000013518118
 21
-14.199999999999989
 31
0.0
  0
LINE
  5
3EB
100
AcDbEntity
  8
0
  6
DASHED
 62
             200
100
AcDbLine
 10
-0.0000000135181182
 20
-8.1999999999999886
 30
0.0
 11
-11.500000013518118
 21
-8.1999999999999886
 31
0.0
  0
LINE
  5
3EC
100
AcDbEntity
  8
0
  6
DASHED
 62
             200
100
AcDbLine
 10
-0.0000000135181182
 20
4.5999999999999659
 30
0.0
 11
-11.500000013518118
 21
4.5999999999999659
 31
0.0
  0
LINE
  5
3ED
100
AcDbEntity
  8
0
  6
DASHED
 62
             200
100
AcDbLine
 10
-0.0000000135181182
 20
-1.4000000000000341
 30
0.0
 11
-11.500000013518118
 21
-1.4000000000000341
 31
0.0
  0
LINE
  5
3EE
100
AcDbEntity
  8
0
  6
DASHED
 62
             200
100
AcDbLine
 10
-11.500000013518118
 20
-1.4000000000000341
 30
0.0
 11
-11.500000013518118
 21
4.5999999999999659
 31
0.0
  0
LINE
  5
3EF
100
AcDbEntity
  8
0
  6
DASHED
 62
             200
100
AcDbLine
 10
-9.5000000135181182
 20
-1.4000000000000341
 30
0.0
 11
-9.5000000135181182
 21
4.5999999999999659
 31
0.0
  0
LINE
  5
3F0
100
AcDbEntity
  8
0
  6
DASHED
 62
             200
100
AcDbLine
 10
-12.000000013518118
 20
-0.9000000000000341
 30
0.0
 11
-12.000000013518118
 21
4.0999999999999659
 31
0.0
  0
ARC
  5
3F1
100
AcDbEntity
  8
0
  6
DASHED
 62
             200
100
AcDbCircle
 10
-11.500000013518118
 20
4.0999999999999659
 30
0.0
 40
0.5
100
AcDbArc
 50
89.999999999999815
 51
179.99999999999963
  0
ARC
  5
3F2
100
AcDbEntity
  8
0
  6
DASHED
 62
             200
100
AcDbCircle
 10
-11.500000013518118
 20
-0.9000000000000341
 30
0.0
 40
0.5
100
AcDbArc
 50
179.99999999999963
 51
269.99999999999937
  0
ARC
  5
3F3
100
AcDbEntity
  8
0
  6
DASHED
 62
             200
100
AcDbCircle
 10
-11.500000013518118
 20
-13.699999999999989
 30
0.0
 40
0.5
100
AcDbArc
 50
179.99999999999963
 51
269.99999999999937
  0
ARC
  5
3F4
100
AcDbEntity
  8
0
  6
DASHED
 62
             200
100
AcDbCircle
 10
-11.500000013518118
 20
-8.6999999999999886
 30
0.0
 40
0.5
100
AcDbArc
 50
89.999999999999815
 51
179.99999999999963
  0
LINE
  5
3F5
100
AcDbEntity
  8
0
  6
DASHED
 62
             200
100
AcDbLine
 10
-12.000000013518118
 20
-13.699999999999989
 30
0.0
 11
-12.000000013518118
 21
-8.6999999999999886
 31
0.0
  0
LINE
  5
3F6
100
AcDbEntity
  8
0
  6
DASHED
 62
             200
100
AcDbLine
 10
-9.5000000135181182
 20
-14.199999999999989
 30
0.0
 11
-9.5000000135181182
 21
-8.1999999999999886
 31
0.0
  0
LINE
  5
3F7
100
AcDbEntity
  8
0
  6
DASHED
 62
             200
100
AcDbLine
 10
-11.500000013518118
 20
-14.199999999999989
 30
0.0
 11
-11.500000013518118
 21
-8.1999999999999886
 31
0.0
  0
LINE
  5
3F8
100
AcDbEntity
  8
0
  6
CENTER
 62
               2
100
AcDbLine
 10
-2.4999999920755585
 20
0.0
 30
0.0
 11
2.5000000079244415
 21
0.0
 31
0.0
  0
LINE
  5
3F9
100
AcDbEntity
  8
0
  6
CENTER
 62
               2
100
AcDbLine
 10
-2.4999999920755585
 20
-9.6000000000000227
 30
0.0
 11
2.5000000079244415
 21
-9.6000000000000227
 31
0.0
  0
LINE
  5
3FA
100
AcDbEntity
  8
0
  6
CONTINUOUS
 62
               4
100
AcDbLine
 10
13.99999998648191
 20
-24.899999999999977
 30
0.0
 11
13.99999998648191
 21
-46.79999999493225
 31
0.0
  0
LINE
  5
3FB
100
AcDbEntity
  8
0
  6
CONTINUOUS
 62
               4
100
AcDbLine
 10
-0.0000000135180898
 20
-46.799999999999955
 30
0.0
 11
-0.0000000135180898
 21
-24.899999999999977
 31
0.0
  0
LINE
  5
3FC
100
AcDbEntity
  8
0
  6
CONTINUOUS
 62
               4
100
AcDbLine
 10
17.000002803008684
 20
-24.899999999999977
 30
0.0
 11
17.000002803008684
 21
-43.397999999999968
 31
0.0
  0
LINE
  5
3FD
100
AcDbEntity
  8
0
  6
CONTINUOUS
 62
               4
100
AcDbLine
 10
17.000002803008684
 20
-24.899999999999977
 30
0.0
 11
19.312002803008696
 21
-25.977999999999952
 31
0.0
  0
LINE
  5
3FE
100
AcDbEntity
  8
0
  6
CONTINUOUS
 62
               4
100
AcDbLine
 10
26.296903925686266
 20
-40.147182617187411
 30
0.0
 11
29.796903925686294
 21
-40.147182617187411
 31
0.0
  0
LINE
  5
3FF
100
AcDbEntity
  8
0
  6
CONTINUOUS
 62
               4
100
AcDbLine
 10
26.296903925686266
 20
-39.647182617187411
 30
0.0
 11
29.796903925686294
 21
-39.647182617187411
 31
0.0
  0
ARC
  5
400
100
AcDbEntity
  8
0
  6
CONTINUOUS
 62
               4
100
AcDbCircle
 10
20.300002803008695
 20
-41.897999999999968
 30
0.0
 40
0.5
100
AcDbArc
 50
269.99999999999937
 51
0.0
  0
ARC
  5
401
100
AcDbEntity
  8
0
  6
CONTINUOUS
 62
               4
100
AcDbCircle
 10
20.300002803008695
 20
-37.897999999999968
 30
0.0
 40
0.5
100
AcDbArc
 50
0.0
 51
89.999999999999815
  0
LINE
  5
402
100
AcDbEntity
  8
0
  6
CONTINUOUS
 62
               4
100
AcDbLine
 10
19.600002803008707
 20
-42.397999999999968
 30
0.0
 11
20.300002803008695
 21
-42.397999999999968
 31
0.0
  0
LINE
  5
403
100
AcDbEntity
  8
0
  6
CONTINUOUS
 62
               4
100
AcDbLine
 10
20.800002803008695
 20
-37.897999999999968
 30
0.0
 11
20.800002803008695
 21
-41.897999999999968
 31
0.0
  0
LINE
  5
404
100
AcDbEntity
  8
0
  6
CONTINUOUS
 62
               4
100
AcDbLine
 10
19.600002803008707
 20
-37.397999999999968
 30
0.0
 11
20.300002803008695
 21
-37.397999999999968
 31
0.0
  0
LINE
  5
405
100
AcDbEntity
  8
0
  6
CONTINUOUS
 62
               4
100
AcDbLine
 10
26.296903925686266
 20
-40.547182617187389
 30
0.0
 11
26.296903925686266
 21
-39.247182617187434
 31
0.0
  0
LINE
  5
406
100
AcDbEntity
  8
0
  6
CONTINUOUS
 62
             200
100
AcDbLine
 10
22.43090392568628
 20
-41.147999999999968
 30
0.0
 11
23.87490392568624
 21
-38.647999999999968
 31
0.0
  0
LINE
  5
407
100
AcDbEntity
  8
0
  6
CONTINUOUS
 62
               4
100
AcDbLine
 10
22.776903925686284
 20
-40.547999999999945
 30
0.0
 11
26.296903925686266
 21
-40.547999999999945
 31
0.0
  0
LINE
  5
408
100
AcDbEntity
  8
0
  6
CONTINUOUS
 62
               4
100
AcDbLine
 10
23.526903925686284
 20
-39.247999999999934
 30
0.0
 11
26.296903925686266
 21
-39.247999999999934
 31
0.0
  0
LINE
  5
409
100
AcDbEntity
  8
0
  6
CONTINUOUS
 62
             200
100
AcDbLine
 10
21.93090392568628
 20
-41.147999999999968
 30
0.0
 11
23.37490392568624
 21
-38.647999999999968
 31
0.0
  0
LINE
  5
40A
100
AcDbEntity
  8
0
  6
CONTINUOUS
 62
               4
100
AcDbLine
 10
19.600002803008707
 20
-42.897999999999968
 30
0.0
 11
19.600002803008707
 21
-42.397999999999968
 31
0.0
  0
ARC
  5
40B
100
AcDbEntity
  8
0
  6
CONTINUOUS
 62
               4
100
AcDbCircle
 10
19.099538358490705
 20
-26.431127224716249
 30
0.0
 40
0.5004652055472239
100
AcDbArc
 50
359.90008023532084
 51
64.878835756795922
  0
ARC
  5
40C
100
AcDbEntity
  8
0
  6
CONTINUOUS
 62
               4
100
AcDbCircle
 10
19.100040327014099
 20
-42.89803752400536
 30
0.0
 40
0.4999624774027422
100
AcDbArc
 50
269.99569974300039
 51
0.0043002569990523
  0
LINE
  5
40D
100
AcDbEntity
  8
0
  6
CONTINUOUS
 62
               4
100
AcDbLine
 10
14.000002803008684
 20
-43.397999999999968
 30
0.0
 11
19.100002803008707
 21
-43.397999999999968
 31
0.0
  0
LINE
  5
40E
100
AcDbEntity
  8
0
  6
CONTINUOUS
 62
               4
100
AcDbLine
 10
20.800002803008695
 20
-39.247999999999934
 30
0.0
 11
23.026903925686284
 21
-39.247999999999934
 31
0.0
  0
LINE
  5
40F
100
AcDbEntity
  8
0
  6
CONTINUOUS
 62
               4
100
AcDbLine
 10
20.800002803008695
 20
-40.547999999999945
 30
0.0
 11
22.276903925686284
 21
-40.547999999999945
 31
0.0
  0
LINE
  5
410
100
AcDbEntity
  8
0
  6
CONTINUOUS
 62
               4
100
AcDbLine
 10
19.600002803008707
 20
-42.397999999999968
 30
0.0
 11
19.600002803008707
 21
-26.43199999999996
 31
0.0
  0
LINE
  5
411
100
AcDbEntity
  8
0
  6
CONTINUOUS
 62
               4
100
AcDbLine
 10
10.299999986481922
 20
-46.800000000000068
 30
0.0
 11
10.299999986481922
 21
-47.399999999999977
 31
0.0
  0
LINE
  5
412
100
AcDbEntity
  8
0
  6
CONTINUOUS
 62
               4
100
AcDbLine
 10
13.317095133140143
 20
-47.399999999999977
 30
0.0
 11
1.9999971699551367
 21
-47.400000000000034
 31
0.0
  0
ARC
  5
413
100
AcDbEntity
  8
0
  6
CONTINUOUS
 62
               4
100
AcDbCircle
 10
11.515911981244884
 20
-46.801088005236977
 30
0.0
 40
0.5989129830170392
100
AcDbArc
 50
179.89591452477254
 51
270.10408547522644
  0
ARC
  5
414
100
AcDbEntity
  8
0
  6
CONTINUOUS
 62
               4
100
AcDbCircle
 10
13.317095133140086
 20
-46.80009514665818
 30
0.0
 40
0.5999048608870732
100
AcDbArc
 50
303.56005066674135
 51
0.0090872775462214
  0
LINE
  5
415
100
AcDbEntity
  8
0
  6
CONTINUOUS
 62
               4
100
AcDbLine
 10
13.999999986481853
 20
-46.800000000000068
 30
0.0
 11
10.299999986481922
 21
-46.800000000000068
 31
0.0
  0
LINE
  5
416
100
AcDbEntity
  8
0
  6
CONTINUOUS
 62
               4
100
AcDbLine
 10
1.9999971699551367
 20
-47.400000000000034
 30
0.0
 11
1.9999971699551367
 21
-45.800000000000068
 31
0.0
  0
LINE
  5
417
100
AcDbEntity
  8
0
  6
CONTINUOUS
 62
               4
100
AcDbLine
 10
13.99999998648191
 20
-45.800000000000068
 30
0.0
 11
1.9999971699551367
 21
-45.800000000000068
 31
0.0
  0
LINE
  5
418
100
AcDbEntity
  8
0
  6
CONTINUOUS
 62
               4
100
AcDbLine
 10
0.4999999864818534
 20
-47.299999999999955
 30
0.0
 11
1.9999999864818534
 21
-47.299999999999955
 31
0.0
  0
ARC
  5
419
100
AcDbEntity
  8
0
  6
CONTINUOUS
 62
               4
100
AcDbCircle
 10
0.4999999864818534
 20
-46.799999999999955
 30
0.0
 40
0.5
100
AcDbArc
 50
179.99999999999963
 51
269.99999999999937
  0
ARC
  5
41A
100
AcDbEntity
  8
0
  6
CONTINUOUS
 62
               4
100
AcDbCircle
 10
13.499999986481853
 20
-46.799999999999955
 30
0.0
 40
0.5
100
AcDbArc
 50
294.73039869686056
 51
0.0
  0
ARC
  5
41B
100
AcDbEntity
  8
0
  6
CONTINUOUS
 62
               4
100
AcDbCircle
 10
13.317095133140086
 20
-46.80009514665818
 30
0.0
 40
0.5999048608870732
100
AcDbArc
 50
269.990912722453
 51
303.56005066674055
  0
LINE
  5
41C
100
AcDbEntity
  8
0
  6
CONTINUOUS
 62
               4
100
AcDbLine
 10
29.796903925686294
 20
-40.147182617187411
 30
0.0
 11
29.796903925686294
 21
-39.647182617187411
 31
0.0
  0
LINE
  5
41D
100
AcDbEntity
  8
0
  6
CONTINUOUS
 62
               4
100
AcDbLine
 10
-0.0000000135180898
 20
-24.899999999999977
 30
0.0
 11
17.000002803008684
 21
-24.899999999999977
 31
0.0
  0
LINE
  5
41E
100
AcDbEntity
  8
0
  6
CONTINUOUS
 62
               4
100
AcDbLine
 10
-0.0000000135181182
 20
15.299999999999898
 30
0.0
 11
17.000002803008655
 21
15.299999999999898
 31
0.0
  0
LINE
  5
41F
100
AcDbEntity
  8
0
  6
CONTINUOUS
 62
               4
100
AcDbLine
 10
29.796903925686266
 20
30.547182617187389
 30
0.0
 11
29.796903925686266
 21
30.047182617187389
 31
0.0
  0
ARC
  5
420
100
AcDbEntity
  8
0
  6
CONTINUOUS
 62
               4
100
AcDbCircle
 10
0.6829048398237063
 20
37.200095146658114
 30
0.0
 40
0.5999048608870732
100
AcDbArc
 50
89.99091272245343
 51
123.56005066674096
  0
ARC
  5
421
100
AcDbEntity
  8
0
  6
CONTINUOUS
 62
               4
100
AcDbCircle
 10
0.4999999864819387
 20
37.199999999999918
 30
0.0
 40
0.5
100
AcDbArc
 50
114.73039869686018
 51
179.99999999999963
  0
ARC
  5
422
100
AcDbEntity
  8
0
  6
CONTINUOUS
 62
               4
100
AcDbCircle
 10
13.499999986481939
 20
37.199999999999918
 30
0.0
 40
0.5
100
AcDbArc
 50
0.0
 51
89.999999999999815
  0
LINE
  5
423
100
AcDbEntity
  8
0
  6
CONTINUOUS
 62
               4
100
AcDbLine
 10
13.499999986481939
 20
37.699999999999918
 30
0.0
 11
11.999999986481939
 21
37.699999999999918
 31
0.0
  0
LINE
  5
424
100
AcDbEntity
  8
0
  6
CONTINUOUS
 62
               4
100
AcDbLine
 10
-0.0000000135181182
 20
36.200000000000003
 30
0.0
 11
12.000002803008655
 21
36.200000000000003
 31
0.0
  0
LINE
  5
425
100
AcDbEntity
  8
0
  6
CONTINUOUS
 62
               4
100
AcDbLine
 10
12.000002803008655
 20
37.799999999999997
 30
0.0
 11
12.000002803008655
 21
36.200000000000003
 31
0.0
  0
LINE
  5
426
100
AcDbEntity
  8
0
  6
CONTINUOUS
 62
               4
100
AcDbLine
 10
-0.0000000135180613
 20
37.200000000000031
 30
0.0
 11
3.6999999864818705
 21
37.200000000000031
 31
0.0
  0
ARC
  5
427
100
AcDbEntity
  8
0
  6
CONTINUOUS
 62
               4
100
AcDbCircle
 10
0.6829048398237063
 20
37.200095146658114
 30
0.0
 40
0.5999048608870732
100
AcDbArc
 50
123.56005066674096
 51
180.00908727754583
  0
ARC
  5
428
100
AcDbEntity
  8
0
  6
CONTINUOUS
 62
               4
100
AcDbCircle
 10
2.4840879917189085
 20
37.20108800523694
 30
0.0
 40
0.5989129830170392
100
AcDbArc
 50
359.89591452477293
 51
90.104085475226867
  0
LINE
  5
429
100
AcDbEntity
  8
0
  6
CONTINUOUS
 62
               4
100
AcDbLine
 10
0.6829048398236495
 20
37.799999999999912
 30
0.0
 11
12.000002803008655
 21
37.799999999999997
 31
0.0
  0
LINE
  5
42A
100
AcDbEntity
  8
0
  6
CONTINUOUS
 62
               4
100
AcDbLine
 10
3.6999999864818705
 20
37.200000000000031
 30
0.0
 11
3.6999999864818705
 21
37.79999999999994
 31
0.0
  0
LINE
  5
42B
100
AcDbEntity
  8
0
  6
CONTINUOUS
 62
               4
100
AcDbLine
 10
19.600002803008678
 20
32.797999999999945
 30
0.0
 11
19.600002803008678
 21
16.83199999999988
 31
0.0
  0
LINE
  5
42C
100
AcDbEntity
  8
0
  6
CONTINUOUS
 62
               4
100
AcDbLine
 10
20.800002803008667
 20
30.947999999999922
 30
0.0
 11
22.276903925686256
 21
30.947999999999922
 31
0.0
  0
LINE
  5
42D
100
AcDbEntity
  8
0
  6
CONTINUOUS
 62
               4
100
AcDbLine
 10
20.800002803008667
 20
29.647999999999911
 30
0.0
 11
23.026903925686256
 21
29.647999999999911
 31
0.0
  0
LINE
  5
42E
100
AcDbEntity
  8
0
  6
CONTINUOUS
 62
               4
100
AcDbLine
 10
14.000002803008655
 20
33.797999999999945
 30
0.0
 11
19.100002803008678
 21
33.797999999999945
 31
0.0
  0
ARC
  5
42F
100
AcDbEntity
  8
0
  6
CONTINUOUS
 62
               4
100
AcDbCircle
 10
19.100040327014071
 20
33.298037524005338
 30
0.0
 40
0.4999624774027422
100
AcDbArc
 50
359.99569974300096
 51
90.004300256998803
  0
ARC
  5
430
100
AcDbEntity
  8
0
  6
CONTINUOUS
 62
               4
100
AcDbCircle
 10
19.099538358490676
 20
16.83112722471617
 30
0.0
 40
0.5004652055472239
100
AcDbArc
 50
295.12116424320402
 51
0.0999197646782735
  0
LINE
  5
431
100
AcDbEntity
  8
0
  6
CONTINUOUS
 62
               4
100
AcDbLine
 10
19.600002803008678
 20
33.297999999999945
 30
0.0
 11
19.600002803008678
 21
32.797999999999945
 31
0.0
  0
LINE
  5
432
100
AcDbEntity
  8
0
  6
CONTINUOUS
 62
             200
100
AcDbLine
 10
21.930903925686252
 20
31.547999999999945
 30
0.0
 11
23.374903925686212
 21
29.047999999999888
 31
0.0
  0
LINE
  5
433
100
AcDbEntity
  8
0
  6
CONTINUOUS
 62
               4
100
AcDbLine
 10
23.526903925686256
 20
29.647999999999911
 30
0.0
 11
26.296903925686237
 21
29.647999999999911
 31
0.0
  0
LINE
  5
434
100
AcDbEntity
  8
0
  6
CONTINUOUS
 62
               4
100
AcDbLine
 10
22.776903925686256
 20
30.947999999999922
 30
0.0
 11
26.296903925686237
 21
30.947999999999922
 31
0.0
  0
LINE
  5
435
100
AcDbEntity
  8
0
  6
CONTINUOUS
 62
             200
100
AcDbLine
 10
22.430903925686252
 20
31.547999999999945
 30
0.0
 11
23.874903925686212
 21
29.047999999999888
 31
0.0
  0
LINE
  5
436
100
AcDbEntity
  8
0
  6
CONTINUOUS
 62
               4
100
AcDbLine
 10
26.296903925686237
 20
30.947182617187366
 30
0.0
 11
26.296903925686237
 21
29.647182617187411
 31
0.0
  0
LINE
  5
437
100
AcDbEntity
  8
0
  6
CONTINUOUS
 62
               4
100
AcDbLine
 10
19.600002803008678
 20
27.797999999999888
 30
0.0
 11
20.300002803008667
 21
27.797999999999888
 31
0.0
  0
LINE
  5
438
100
AcDbEntity
  8
0
  6
CONTINUOUS
 62
               4
100
AcDbLine
 10
20.800002803008667
 20
28.297999999999888
 30
0.0
 11
20.800002803008667
 21
32.297999999999945
 31
0.0
  0
LINE
  5
439
100
AcDbEntity
  8
0
  6
CONTINUOUS
 62
               4
100
AcDbLine
 10
19.600002803008678
 20
32.797999999999945
 30
0.0
 11
20.300002803008667
 21
32.797999999999945
 31
0.0
  0
ARC
  5
43A
100
AcDbEntity
  8
0
  6
CONTINUOUS
 62
               4
100
AcDbCircle
 10
20.300002803008667
 20
28.297999999999888
 30
0.0
 40
0.5
100
AcDbArc
 50
270.00000000000023
 51
0.0
  0
ARC
  5
43B
100
AcDbEntity
  8
0
  6
CONTINUOUS
 62
               4
100
AcDbCircle
 10
20.300002803008667
 20
32.297999999999945
 30
0.0
 40
0.5
100
AcDbArc
 50
0.0
 51
89.999999999999815
  0
LINE
  5
43C
100
AcDbEntity
  8
0
  6
CONTINUOUS
 62
               4
100
AcDbLine
 10
26.296903925686237
 20
30.047182617187389
 30
0.0
 11
29.796903925686266
 21
30.047182617187389
 31
0.0
  0
LINE
  5
43D
100
AcDbEntity
  8
0
  6
CONTINUOUS
 62
               4
100
AcDbLine
 10
26.296903925686237
 20
30.547182617187389
 30
0.0
 11
29.796903925686266
 21
30.547182617187389
 31
0.0
  0
LINE
  5
43E
100
AcDbEntity
  8
0
  6
CONTINUOUS
 62
               4
100
AcDbLine
 10
17.000002803008655
 20
15.299999999999898
 30
0.0
 11
19.312002803008667
 21
16.377999999999929
 31
0.0
  0
LINE
  5
43F
100
AcDbEntity
  8
0
  6
CONTINUOUS
 62
               4
100
AcDbLine
 10
17.000002803008655
 20
15.299999999999898
 30
0.0
 11
17.000002803008655
 21
33.797999999999945
 31
0.0
  0
LINE
  5
440
100
AcDbEntity
  8
0
  6
CONTINUOUS
 62
               4
100
AcDbLine
 10
-0.0000000135181182
 20
37.199999999999918
 30
0.0
 11
-0.0000000135181182
 21
15.299999999999898
 31
0.0
  0
LINE
  5
441
100
AcDbEntity
  8
0
  6
CONTINUOUS
 62
               4
100
AcDbLine
 10
13.999999986481882
 20
15.299999999999898
 30
0.0
 11
13.999999986481882
 21
37.199999994932185
 31
0.0
  0
LINE
  5
442
100
AcDbEntity
  8
0
  6
CENTER
 62
               2
100
AcDbLine
 10
6.9999999864819102
 20
-48.648582746836382
 30
0.0
 11
6.9999999864818818
 21
39.048582746836317
 31
0.0
  0
ENDBLK
  5
443
100
AcDbEntity
  8
0
100
AcDbBlockEnd
  0
BLOCK
  5
444
100
AcDbEntity
  8
0
100
AcDbBlockBegin
  2
EA10F6-9
 70
               0
 10
0.0
 20
0.0
 30
0.0
  3
EA10F6-9
  1

  0
LINE
  5
445
100
AcDbEntity
  8
0
  6
CONTINUOUS
 62
               4
100
AcDbLine
 10
-8.6999999999999744
 20
-47.400000000000034
 30
0.0
 11
-8.6999999999999744
 21
-24.900000000000034
 31
0.0
  0
LINE
  5
446
100
AcDbEntity
  8
0
  6
CONTINUOUS
 62
               4
100
AcDbLine
 10
1.3000000000000114
 20
-47.400000000000034
 30
0.0
 11
1.3000000000000114
 21
-24.900000000000034
 31
0.0
  0
LINE
  5
447
100
AcDbEntity
  8
0
  6
CENTER
 62
               2
100
AcDbLine
 10
-3.6999999999999744
 20
-48.297001430615239
 30
0.0
 11
-3.6999999999999744
 21
38.698998569384813
 31
0.0
  0
LINE
  5
448
100
AcDbEntity
  8
0
  6
CONTINUOUS
 62
               4
100
AcDbLine
 10
1.3000000000000114
 20
-24.900000000000034
 30
0.0
 11
-8.6999999999999744
 21
-24.900000000000034
 31
0.0
  0
CIRCLE
  5
449
100
AcDbEntity
  8
0
  6
CONTINUOUS
 62
               7
100
AcDbCircle
 10
-3.6999816894531108
 20
-17.700018310546909
 30
0.0
 40
0.8999999761581421
  0
ARC
  5
44A
100
AcDbEntity
  8
0
  6
CONTINUOUS
 62
               4
100
AcDbCircle
 10
-6.1029119947629482
 20
-46.801088005237034
 30
0.0
 40
0.5989129830170392
100
AcDbArc
 50
269.89591452477231
 51
0.1040854752270701
  0
ARC
  5
44B
100
AcDbEntity
  8
0
  6
CONTINUOUS
 62
               4
100
AcDbCircle
 10
-7.9040951466582072
 20
-46.80009514665818
 30
0.0
 40
0.5999048608870732
100
AcDbArc
 50
179.99091272245337
 51
270.00908727754575
  0
LINE
  5
44C
100
AcDbEntity
  8
0
  6
CONTINUOUS
 62
               4
100
AcDbLine
 10
-8.6999999999999744
 20
-46.800000000000011
 30
0.0
 11
-5.4999999999999858
 21
-46.800000000000011
 31
0.0
  0
ARC
  5
44D
100
AcDbEntity
  8
0
  6
CONTINUOUS
 62
               4
100
AcDbCircle
 10
0.8000000000000114
 20
-46.800000000000011
 30
0.0
 40
0.5
100
AcDbArc
 50
269.99999999999937
 51
0.0
  0
LINE
  5
44E
100
AcDbEntity
  8
0
  6
CONTINUOUS
 62
               4
100
AcDbLine
 10
-5.4999999999999858
 20
-47.300000000000011
 30
0.0
 11
-5.4999999999999858
 21
-45.800000000000011
 31
0.0
  0
LINE
  5
44F
100
AcDbEntity
  8
0
  6
CONTINUOUS
 62
               4
100
AcDbLine
 10
-5.4999999999999858
 20
-47.300000000000011
 30
0.0
 11
0.8000000000000114
 21
-47.300000000000011
 31
0.0
  0
LINE
  5
450
100
AcDbEntity
  8
0
  6
CONTINUOUS
 62
               4
100
AcDbLine
 10
-8.6999999999999744
 20
-45.800000000000011
 30
0.0
 11
-5.4999999999999858
 21
-45.800000000000011
 31
0.0
  0
LINE
  5
451
100
AcDbEntity
  8
0
  6
CONTINUOUS
 62
               4
100
AcDbLine
 10
-8.6999999999999744
 20
-47.400000000000034
 30
0.0
 11
1.3000000000000114
 21
-47.400000000000034
 31
0.0
  0
LINE
  5
452
100
AcDbEntity
  8
0
  6
CENTER
 62
               2
100
AcDbLine
 10
-1.6999999999999744
 20
-17.700000000000045
 30
0.0
 11
-5.6999999999999744
 21
-17.700000000000045
 31
0.0
  0
LINE
  5
453
100
AcDbEntity
  8
0
  6
CENTER
 62
               2
100
AcDbLine
 10
-5.6999999999999744
 20
8.0999999999999659
 30
0.0
 11
-1.6999999999999744
 21
8.0999999999999659
 31
0.0
  0
LINE
  5
454
100
AcDbEntity
  8
0
  6
CENTER
 62
               2
100
AcDbLine
 10
-6.0076604241943272
 20
1.5999999999999659
 30
0.0
 11
-1.3923395758056216
 21
1.5999999999999659
 31
0.0
  0
LINE
  5
455
100
AcDbEntity
  8
0
  6
CONTINUOUS
 62
               7
100
AcDbLine
 10
1.3000000000000114
 20
-13.900000000000034
 30
0.0
 11
-8.6999999999999744
 21
-13.900000000000034
 31
0.0
  0
LINE
  5
456
100
AcDbEntity
  8
0
  6
CONTINUOUS
 62
               7
100
AcDbLine
 10
1.3000000000000114
 20
4.3000000000000114
 30
0.0
 11
-8.6999999999999744
 21
4.3000000000000114
 31
0.0
  0
CIRCLE
  5
457
100
AcDbEntity
  8
0
  6
CONTINUOUS
 62
               7
100
AcDbCircle
 10
0.0
 20
0.0
 30
0.0
 40
1.0
  0
LINE
  5
458
100
AcDbEntity
  8
0
  6
CENTER
 62
               2
100
AcDbLine
 10
0.0
 20
-1.6582043412881831
 30
0.0
 11
0.0
 21
1.6507458038142886
 31
0.0
  0
LINE
  5
459
100
AcDbEntity
  8
0
  6
CENTER
 62
               2
100
AcDbLine
 10
1.5141706867843823
 20
0.0
 30
0.0
 11
-1.4477988131531419
 21
0.0
 31
0.0
  0
CIRCLE
  5
45A
100
AcDbEntity
  8
0
  6
CONTINUOUS
 62
               7
100
AcDbCircle
 10
-7.4000000000000199
 20
-9.6000000000000227
 30
0.0
 40
1.0
  0
LINE
  5
45B
100
AcDbEntity
  8
0
  6
CENTER
 62
               2
100
AcDbLine
 10
-5.8095838508537412
 20
-9.6000000000000227
 30
0.0
 11
-8.8598351735368936
 21
-9.6000000000000227
 31
0.0
  0
LINE
  5
45C
100
AcDbEntity
  8
0
  6
CENTER
 62
               2
100
AcDbLine
 10
-7.4000000000000199
 20
-11.100461398562288
 30
0.0
 11
-7.4000000000000199
 21
-8.1184246891139651
 31
0.0
  0
CIRCLE
  5
45D
100
AcDbEntity
  8
0
  6
CONTINUOUS
 62
               2
100
AcDbCircle
 10
-3.6999999999999744
 20
-4.8000000000000114
 30
0.0
 40
1.5
  0
CIRCLE
  5
45E
100
AcDbEntity
  8
0
  6
CONTINUOUS
 62
               7
100
AcDbCircle
 10
-3.6999999999999744
 20
-4.8000000000000114
 30
0.0
 40
1.25
  0
CIRCLE
  5
45F
100
AcDbEntity
  8
0
  6
CONTINUOUS
 62
               7
100
AcDbCircle
 10
-3.6999999999999744
 20
1.5999999999999659
 30
0.0
 40
1.25
  0
CIRCLE
  5
460
100
AcDbEntity
  8
0
  6
CONTINUOUS
 62
               7
100
AcDbCircle
 10
-3.6999999999999744
 20
-11.200000000000045
 30
0.0
 40
1.25
  0
CIRCLE
  5
461
100
AcDbEntity
  8
0
  6
CONTINUOUS
 62
               2
100
AcDbCircle
 10
-3.6999999999999744
 20
1.5999999999999659
 30
0.0
 40
1.5
  0
CIRCLE
  5
462
100
AcDbEntity
  8
0
  6
CONTINUOUS
 62
               2
100
AcDbCircle
 10
-3.6999999999999744
 20
-11.200000000000045
 30
0.0
 40
1.5
  0
LINE
  5
463
100
AcDbEntity
  8
0
  6
CENTER
 62
               2
100
AcDbLine
 10
-1.3923395758056216
 20
-11.200000000000045
 30
0.0
 11
-6.0076604241943272
 21
-11.200000000000045
 31
0.0
  0
LINE
  5
464
100
AcDbEntity
  8
0
  6
CENTER
 62
               2
100
AcDbLine
 10
-1.3923395758056216
 20
-4.8000000000000114
 30
0.0
 11
-6.0076604241943272
 21
-4.8000000000000114
 31
0.0
  0
LINE
  5
465
100
AcDbEntity
  8
0
  6
CONTINUOUS
 62
               4
100
AcDbLine
 10
1.3000000000000114
 20
37.799999999999969
 30
0.0
 11
-8.7000000000000313
 21
37.799999999999969
 31
0.0
  0
LINE
  5
466
100
AcDbEntity
  8
0
  6
CONTINUOUS
 62
               4
100
AcDbLine
 10
1.3000000000000114
 20
36.199999999999974
 30
0.0
 11
-1.9000000000000199
 21
36.199999999999974
 31
0.0
  0
LINE
  5
467
100
AcDbEntity
  8
0
  6
CONTINUOUS
 62
               4
100
AcDbLine
 10
-1.9000000000000199
 20
37.699999999999974
 30
0.0
 11
-8.2000000000000313
 21
37.699999999999974
 31
0.0
  0
LINE
  5
468
100
AcDbEntity
  8
0
  6
CONTINUOUS
 62
               4
100
AcDbLine
 10
-1.9000000000000199
 20
37.699999999999974
 30
0.0
 11
-1.9000000000000199
 21
36.199999999999974
 31
0.0
  0
ARC
  5
469
100
AcDbEntity
  8
0
  6
CONTINUOUS
 62
               4
100
AcDbCircle
 10
-8.2000000000000313
 20
37.199999999999974
 30
0.0
 40
0.5
100
AcDbArc
 50
89.999999999999815
 51
179.99999999999963
  0
LINE
  5
46A
100
AcDbEntity
  8
0
  6
CONTINUOUS
 62
               4
100
AcDbLine
 10
1.3000000000000114
 20
37.199999999999974
 30
0.0
 11
-1.9000000000000199
 21
37.199999999999974
 31
0.0
  0
ARC
  5
46B
100
AcDbEntity
  8
0
  6
CONTINUOUS
 62
               4
100
AcDbCircle
 10
0.5040951466582442
 20
37.200095146658143
 30
0.0
 40
0.5999048608870732
100
AcDbArc
 50
359.99091272245295
 51
90.009087277546172
  0
ARC
  5
46C
100
AcDbEntity
  8
0
  6
CONTINUOUS
 62
               4
100
AcDbCircle
 10
-1.2970880052370006
 20
37.201088005236969
 30
0.0
 40
0.5989129830170392
100
AcDbArc
 50
89.895914524772735
 51
180.10408547522667
  0
CIRCLE
  5
46D
100
AcDbEntity
  8
0
  6
CONTINUOUS
 62
               7
100
AcDbCircle
 10
-3.7000183105468949
 20
8.1000183105468295
 30
0.0
 40
0.8999999761581421
  0
LINE
  5
46E
100
AcDbEntity
  8
0
  6
CONTINUOUS
 62
               4
100
AcDbLine
 10
-8.6999999999999744
 20
15.299999999999955
 30
0.0
 11
1.3000000000000114
 21
15.299999999999955
 31
0.0
  0
LINE
  5
46F
100
AcDbEntity
  8
0
  6
CONTINUOUS
 62
               4
100
AcDbLine
 10
1.3000000000000114
 20
15.299999999999955
 30
0.0
 11
1.3000000000000114
 21
37.799999999999969
 31
0.0
  0
LINE
  5
470
100
AcDbEntity
  8
0
  6
CONTINUOUS
 62
               4
100
AcDbLine
 10
-8.6999999999999744
 20
15.299999999999955
 30
0.0
 11
-8.6999999999999744
 21
37.799999999999969
 31
0.0
  0
LINE
  5
471
100
AcDbEntity
  8
0
  6
CONTINUOUS
 62
               7
100
AcDbLine
 10
-8.6999999999999744
 20
-24.900000000000034
 30
0.0
 11
-8.6999999999999744
 21
15.299999999999955
 31
0.0
  0
LINE
  5
472
100
AcDbEntity
  8
0
  6
CONTINUOUS
 62
               7
100
AcDbLine
 10
1.3000000000000114
 20
-24.900000000000034
 30
0.0
 11
1.3000000000000114
 21
15.299999999999955
 31
0.0
  0
ENDBLK
  5
473
100
AcDbEntity
  8
0
100
AcDbBlockEnd
  0
BLOCK
  5
48F
100
AcDbEntity
  8
0
  6
ByBlock
 62
               0
100
AcDbBlockBegin
  2
_OPEN30
 70
               2
 10
0.0
 20
0.0
 30
0.0
  3
_OPEN30
  1

  0
LINE
  5
490
100
AcDbEntity
  8
0
  6
ByBlock
 62
               0
100
AcDbLine
 10
-1.0
 20
0.267949
 30
0.0
 11
0.0
 21
0.0
 31
0.0
  0
LINE
  5
491
100
AcDbEntity
  8
0
  6
ByBlock
 62
               0
100
AcDbLine
 10
0.0
 20
0.0
 30
0.0
 11
-1.0
 21
-0.267949
 31
0.0
  0
LINE
  5
492
100
AcDbEntity
  8
0
  6
ByBlock
 62
               0
100
AcDbLine
 10
0.0
 20
0.0
 30
0.0
 11
-1.0
 21
0.0
 31
0.0
  0
ENDBLK
  5
493
100
AcDbEntity
  8
0
  6
ByBlock
 62
               0
100
AcDbBlockEnd
  0
ENDSEC
  0
SECTION
  2
ENTITIES
  0
INSERT
  5
474
100
AcDbEntity
  8
0
  6
ByBlock
100
AcDbBlockReference
  2
EA10F6-4
 10
-60.312536621093756
 20
77.100000000000236
 30
0.0
  0
INSERT
  5
475
100
AcDbEntity
  8
0
  6
ByBlock
100
AcDbBlockReference
  2
EA10F6-5
 10
-157.41253660757565
 20
77.100000000000236
 30
0.0
  0
INSERT
  5
476
100
AcDbEntity
  8
0
  6
ByBlock
100
AcDbBlockReference
  2
EA10F6-6
 10
-247.71253662109376
 20
77.100000000000435
 30
0.0
  0
INSERT
  5
477
100
AcDbEntity
  8
0
  6
ByBlock
100
AcDbBlockReference
  2
EA10F6-1
 10
221.36239013671874
 20
77.10000000000008
 30
0.0
  0
INSERT
  5
478
100
AcDbEntity
  8
0
  6
ByBlock
100
AcDbBlockReference
  2
EA10F6-2
 10
124.26239015023688
 20
77.10000000000008
 30
0.0
  0
INSERT
  5
479
100
AcDbEntity
  8
0
  6
ByBlock
100
AcDbBlockReference
  2
EA10F6-3
 10
33.962390136718739
 20
77.100000000000279
 30
0.0
  0
INSERT
  5
47A
100
AcDbEntity
  8
0
  6
ByBlock
100
AcDbBlockReference
  2
EA10F6-7
 10
60.52492675781248
 20
-118.58774230665728
 30
0.0
  0
INSERT
  5
47B
100
AcDbEntity
  8
0
  6
ByBlock
100
AcDbBlockReference
  2
EA10F6-8
 10
-36.575073228669396
 20
-118.58774230665728
 30
0.0
  0
INSERT
  5
47C
100
AcDbEntity
  8
0
  6
ByBlock
100
AcDbBlockReference
  2
EA10F6-9
 10
-126.87507324218753
 20
-118.58774230665705
 30
0.0
  0
MTEXT
  5
47D
100
AcDbEntity
  8
0
  6
CONTINUOUS
 62
               7
100
AcDbMText
 10
-268.23092953013872
 20
160.5
 30
0.0
 40
6.3000001907348633
 41
0.0
 71
               4
 72
               1
  1
\W1.113;\A1;MODEL:EA10(L)F6-PL
  0
LINE
  5
47E
100
AcDbEntity
  8
0
  6
CONTINUOUS
 62
               7
100
AcDbLine
 10
-281.25
 20
-195.0
 30
0.0
 11
282.099853515625
 21
-195.0
 31
0.0
  0
LINE
  5
47F
100
AcDbEntity
  8
0
  6
CONTINUOUS
 62
               7
100
AcDbLine
 10
-281.25
 20
195.5
 30
0.0
 11
-281.25
 21
-195.0
 31
0.0
  0
LINE
  5
480
100
AcDbEntity
  8
0
  6
CONTINUOUS
 62
               7
100
AcDbLine
 10
-281.25
 20
195.5
 30
0.0
 11
282.099853515625
 21
195.5
 31
0.0
  0
LINE
  5
481
100
AcDbEntity
  8
0
  6
CONTINUOUS
 62
               7
100
AcDbLine
 10
282.099853515625
 20
195.5
 30
0.0
 11
282.099853515625
 21
-195.0
 31
0.0
  0
LINE
  5
482
100
AcDbEntity
  8
0
  6
CONTINUOUS
 62
               7
100
AcDbLine
 10
162.0999755859375
 20
195.5
 30
0.0
 11
162.0999755859375
 21
175.5
 31
0.0
  0
LINE
  5
483
100
AcDbEntity
  8
0
  6
CONTINUOUS
 62
               7
100
AcDbLine
 10
162.0999755859375
 20
175.5
 30
0.0
 11
282.099853515625
 21
175.5
 31
0.0
  0
MTEXT
  5
484
100
AcDbEntity
  8
0
  6
CONTINUOUS
 62
               7
100
AcDbMText
 10
198.27702406779611
 20
185.5
 30
0.0
 40
6.3000001907348633
 41
0.0
 71
               4
 72
               1
  1
\W1.311;\A1;Ver. 1.0
  0
MTEXT
  5
485
100
AcDbEntity
  8
0
  6
CONTINUOUS
 62
               7
100
AcDbMText
 10
170.28099805280428
 20
-185.0
 30
0.0
 40
9.0
 41
0.0
 71
               4
 72
               1
  1
\W1.121;\A1;KOGANEI CORP.
  0
LINE
  5
486
100
AcDbEntity
  8
0
  6
CONTINUOUS
 62
               7
100
AcDbLine
 10
162.0999755859375
 20
-175.0
 30
0.0
 11
282.099853515625
 21
-175.0
 31
0.0
  0
LINE
  5
487
100
AcDbEntity
  8
0
  6
CONTINUOUS
 62
               7
100
AcDbLine
 10
162.0999755859375
 20
-175.0
 30
0.0
 11
162.0999755859375
 21
-195.0
 31
0.0
  0
LINE
  5
488
100
AcDbEntity
  8
0
  6
CONTINUOUS
 62
               7
100
AcDbLine
 10
-161.25
 20
195.5
 30
0.0
 11
-161.25
 21
175.5
 31
0.0
  0
LINE
  5
489
100
AcDbEntity
  8
0
  6
CONTINUOUS
 62
               7
100
AcDbLine
 10
-281.25
 20
175.5
 30
0.0
 11
-161.25
 21
175.5
 31
0.0
  0
MTEXT
  5
48A
100
AcDbEntity
  8
0
  6
CONTINUOUS
 62
               7
100
AcDbMText
 10
-257.88333446177035
 20
185.5
 30
0.0
 40
6.3000001907348633
 41
0.0
 71
               4
 72
               1
  1
\W1.111;\A1;EA･EB SERIES
  0
LINE
  5
48B
100
AcDbEntity
  8
0
  6
CONTINUOUS
 62
               7
100
AcDbLine
 10
-281.25
 20
-38.799999999999983
 30
0.0
 11
282.099853515625
 21
-38.799999999999983
 31
0.0
  0
LINE
  5
48C
100
AcDbEntity
  8
0
  6
CONTINUOUS
 62
               7
100
AcDbLine
 10
0.4249267578125
 20
-38.799999999999983
 30
0.0
 11
0.4249267578125
 21
195.5
 31
0.0
  0
MTEXT
  5
48D
100
AcDbEntity
  8
0
  6
CONTINUOUS
 62
             200
100
AcDbMText
 10
-69.243413412570973
 20
-118.73149254507587
 30
0.0
 40
4.5
 41
0.0
 71
               4
 72
               1
  1
\A1;-75
  0
LEADER
  5
494
100
AcDbEntity
  8
0
  6
CONTINUOUS
 62
             200
100
AcDbLeader
  3
MXDIMSTYLE
 73
               3
 74
               0
 75
               0
 40
0.0
 76
               3
 10
-48.575073242187514
 20
-116.98774230665731
 30
0.0
 10
-54.97507324218752
 20
-123.38774230665729
 30
0.0
 10
-69.243413412570973
 20
-123.38774230665729
 30
0.0
 77
             200
1001
ACAD
1000
DSTYLE
1002
{
1070
               6
1000
_OPEN30
1070
               7
1000
_OPEN30
1070
              41
1040
2.77
1070
             173
1070
               1
1070
             341
1005
48E
1002
}
  0
MTEXT
  5
495
100
AcDbEntity
  8
0
  6
CONTINUOUS
 62
             200
100
AcDbMText
 10
91.594049966335291
 20
76.956249761581503
 30
0.0
 40
4.5
 41
0.0
 71
               4
 72
               1
  1
\A1;-75
  0
LEADER
  5
496
100
AcDbEntity
  8
0
  6
CONTINUOUS
 62
             200
100
AcDbLeader
  3
MXDIMSTYLE
 73
               3
 74
               0
 75
               0
 40
0.0
 76
               3
 10
112.26239013671875
 20
78.700000000000074
 30
0.0
 10
105.86239013671874
 20
72.300000000000082
 30
0.0
 10
91.594049966335291
 20
72.300000000000082
 30
0.0
 77
             200
1001
ACAD
1000
DSTYLE
1002
{
1070
               6
1000
_OPEN30
1070
               7
1000
_OPEN30
1070
              41
1040
2.77
1070
             173
1070
               1
1070
             341
1005
48E
1002
}
  0
MTEXT
  5
497
100
AcDbEntity
  8
0
  6
CONTINUOUS
 62
             200
100
AcDbMText
 10
-190.08087679147721
 20
76.95624976158166
 30
0.0
 40
4.5
 41
0.0
 71
               4
 72
               1
  1
\A1;-75
  0
LEADER
  5
498
100
AcDbEntity
  8
0
  6
CONTINUOUS
 62
             200
100
AcDbLeader
  3
MXDIMSTYLE
 73
               3
 74
               0
 75
               0
 40
0.0
 76
               3
 10
-169.41253662109375
 20
78.70000000000023
 30
0.0
 10
-175.81253662109376
 20
72.300000000000239
 30
0.0
 10
-190.08087679147721
 20
72.300000000000239
 30
0.0
 77
             200
1001
ACAD
1000
DSTYLE
1002
{
1070
               6
1000
_OPEN30
1070
               7
1000
_OPEN30
1070
              41
1040
2.77
1070
             173
1070
               1
1070
             341
1005
48E
1002
}
  0
MTEXT
  5
499
100
AcDbEntity
  8
0
  6
CONTINUOUS
 62
               7
100
AcDbMText
 10
13.443997227673798
 20
160.5
 30
0.0
 40
6.3000001907348633
 41
0.0
 71
               4
 72
               1
  1
\W1.113;\A1;MODEL:EA10(L)F6-PS
  0
MTEXT
  5
49A
100
AcDbEntity
  8
0
  6
CONTINUOUS
 62
               7
100
AcDbMText
 10
-268.26144588680285
 20
-53.799999999999983
 30
0.0
 40
6.3000001907348633
 41
0.0
 71
               4
 72
               1
  1
\W1.084;\A1;MODEL:EA10F6-GL
  0
ENDSEC
  0
SECTION
  2
OBJECTS
  0
DICTIONARY
  5
19
100
AcDbDictionary
  3
ACAD_GROUP
350
1A
  3
ACAD_MLINESTYLE
350
1B
  0
DICTIONARY
  5
1A
102
{ACAD_REACTORS
330
19
102
}
100
AcDbDictionary
  0
DICTIONARY
  5
1B
102
{ACAD_REACTORS
330
19
102
}
100
AcDbDictionary
  3
STANDARD
350
1C
  0
MLINESTYLE
  5
1C
102
{ACAD_REACTORS
330
1B
102
}
100
AcDbMlineStyle
  2
Standard
 70
               0
  3

 62
               0
 51
90.0
 52
90.0
 71
               2
 49
0.5
 62
             256
  6
ByLayer
 49
-0.5
 62
             256
  6
ByLayer
  0
ENDSEC
  0
EOF
