  0
SECTION
  2
HEADER
  0
ENDSEC
  0
SECTION
  2
TABLES
  0
TABLE
  2
LTYPE
 70
     4
  0
LTYPE
  2
CONTINUOUS
 70
    64
  3
Solid line
 72
    65
 73
     0
 40
0.000000
  0
LTYPE
  2
DASHED
 70
    64
  3
__ __ __ __ __ __ __ __ __ __ __ __ __ __ __
 72
    65
 73
     2
 40
3.500000
 49
2.000000
 49
-1.500000
  0
LTYPE
  2
CENTER
 70
    64
  3
____ _ ____ _ ____ _ ____ _ ____ _ ____ _ ____
 72
    65
 73
     4
 40
17.500000
 49
13.000000
 49
-1.500000
 49
1.500000
 49
-1.500000
  0
LTYPE
  2
PHANTOM
 70
    64
  3
_____ _ _ _____ _ _ _____ _ _ _____ _ _ ____  
 72
    65
 73
     6
 40
15.500000
 49
8.000000
 49
-1.500000
 49
1.500000
 49
-1.500000
 49
1.500000
 49
-1.500000
  0
ENDTAB
  0
TABLE
  2
LAYER
 70
     1
  0
LAYER
  2
0
 70
     0
 62
     7
  6
CONTINUOUS
  0
ENDTAB
  0
TABLE
  2
STYLE
 70
     1
  0
STYLE
  2
STANDARD
 70
     0
 40
0.000000
 41
1.000000
 50
0.000000
 71
     0
 42
0.200000
  3
txt
  4
BIGFONT
  0
ENDTAB
  0
TABLE
  2
VIEW
 70
     0
  0
ENDTAB
  0
ENDSEC
  0
SECTION
  2
BLOCKS
  0
ENDSEC
  0
SECTION
  2
ENTITIES
  0
LINE
  8
0
  6
CONTINUOUS
 62
7
 10
-281.250000
 20
195.500000
 11
282.100006
 21
195.500000
  0
LINE
  8
0
  6
CONTINUOUS
 62
7
 10
-281.250000
 20
195.500000
 11
-281.250000
 21
-195.000000
  0
LINE
  8
0
  6
CONTINUOUS
 62
7
 10
282.100006
 20
195.500000
 11
282.100006
 21
-195.000000
  0
LINE
  8
0
  6
CONTINUOUS
 62
7
 10
-281.250000
 20
-195.000000
 11
282.100006
 21
-195.000000
  0
LINE
  8
0
  6
CONTINUOUS
 62
7
 10
162.100006
 20
-175.000000
 11
162.100006
 21
-195.000000
  0
LINE
  8
0
  6
CONTINUOUS
 62
7
 10
162.100006
 20
-175.000000
 11
282.100006
 21
-175.000000
  0
LINE
  8
0
  6
CONTINUOUS
 62
7
 10
162.100006
 20
175.500000
 11
282.100006
 21
175.500000
  0
LINE
  8
0
  6
CONTINUOUS
 62
7
 10
-281.250000
 20
175.500000
 11
-161.250000
 21
175.500000
  0
LINE
  8
0
  6
CONTINUOUS
 62
7
 10
162.100006
 20
195.500000
 11
162.100006
 21
175.500000
  0
LINE
  8
0
  6
CONTINUOUS
 62
7
 10
-161.250000
 20
195.500000
 11
-161.250000
 21
175.500000
  0
LINE
  8
0
  6
CONTINUOUS
 62
7
 10
-188.000000
 20
-100.000000
 11
-188.000000
 21
-59.000000
  0
LINE
  8
0
  6
CONTINUOUS
 62
7
 10
-92.000000
 20
-100.000000
 11
-92.000000
 21
-59.000000
  0
LINE
  8
0
  6
CONTINUOUS
 62
7
 10
-188.000000
 20
-59.000000
 11
-92.000000
 21
-59.000000
  0
LINE
  8
0
  6
CENTER
 62
2
 10
-190.000000
 20
-79.500000
 11
-90.000000
 21
-79.500000
  0
LINE
  8
0
  6
CONTINUOUS
 62
7
 10
-188.000000
 20
-42.000000
 11
-92.000000
 21
-42.000000
  0
LINE
  8
0
  6
CONTINUOUS
 62
7
 10
-188.000000
 20
-22.000000
 11
-155.000000
 21
-22.000000
  0
LINE
  8
0
  6
CONTINUOUS
 62
7
 10
-188.000000
 20
-22.000000
 11
-188.000000
 21
-42.000000
  0
LINE
  8
0
  6
CONTINUOUS
 62
7
 10
-92.000000
 20
-22.000000
 11
-92.000000
 21
-42.000000
  0
LINE
  8
0
  6
CONTINUOUS
 62
7
 10
-105.000000
 20
-22.000000
 11
-92.000000
 21
-22.000000
  0
LINE
  8
0
  6
CONTINUOUS
 62
7
 10
-92.000000
 20
-29.500000
 11
-188.000000
 21
-29.500000
  0
LINE
  8
0
  6
CONTINUOUS
 62
7
 10
-112.699997
 20
-28.000000
 11
-112.699997
 21
-13.000000
  0
LINE
  8
0
  6
CONTINUOUS
 62
7
 10
-147.300003
 20
-13.000000
 11
-112.699997
 21
-13.000000
  0
LINE
  8
0
  6
CONTINUOUS
 62
7
 10
-155.000000
 20
-28.000000
 11
-105.000000
 21
-28.000000
  0
LINE
  8
0
  6
CONTINUOUS
 62
7
 10
-147.300003
 20
-28.000000
 11
-147.300003
 21
-13.000000
  0
LINE
  8
0
  6
CONTINUOUS
 62
7
 10
-105.000000
 20
-28.000000
 11
-105.000000
 21
-13.700000
  0
LINE
  8
0
  6
CONTINUOUS
 62
7
 10
-112.699997
 20
-13.700000
 11
-105.000000
 21
-13.700000
  0
LINE
  8
0
  6
CONTINUOUS
 62
7
 10
-155.000000
 20
-28.000000
 11
-155.000000
 21
-13.700000
  0
LINE
  8
0
  6
CONTINUOUS
 62
7
 10
-147.300003
 20
-13.700000
 11
-155.000000
 21
-13.700000
  0
LINE
  8
0
  6
CONTINUOUS
 62
7
 10
-188.000000
 20
-100.000000
 11
-92.000000
 21
-100.000000
  0
LINE
  8
0
  6
CENTER
 62
2
 10
-157.000000
 20
-27.959999
 11
-157.000000
 21
-36.040001
  0
LINE
  8
0
  6
CENTER
 62
2
 10
-161.039993
 20
-32.000000
 11
-152.960007
 21
-32.000000
  0
LINE
  8
0
  6
CENTER
 62
2
 10
-123.000000
 20
-27.959999
 11
-123.000000
 21
-36.040001
  0
LINE
  8
0
  6
CENTER
 62
2
 10
-127.040001
 20
-32.000000
 11
-118.959999
 21
-32.000000
  0
LINE
  8
0
  6
CENTER
 62
2
 10
-135.000000
 20
-16.459999
 11
-135.000000
 21
-23.540001
  0
LINE
  8
0
  6
CENTER
 62
2
 10
-138.539993
 20
-20.000000
 11
-131.460007
 21
-20.000000
  0
LINE
  8
0
  6
CENTER
 62
2
 10
-125.000000
 20
-16.459999
 11
-125.000000
 21
-23.540001
  0
LINE
  8
0
  6
CENTER
 62
2
 10
-128.539993
 20
-20.000000
 11
-121.459999
 21
-20.000000
  0
LINE
  8
0
  6
CENTER
 62
2
 10
-172.500000
 20
-58.959999
 11
-172.500000
 21
-70.040001
  0
LINE
  8
0
  6
CENTER
 62
2
 10
-178.039993
 20
-64.500000
 11
-166.960007
 21
-64.500000
  0
LINE
  8
0
  6
CENTER
 62
2
 10
-180.500000
 20
-78.559998
 11
-180.500000
 21
-95.440002
  0
LINE
  8
0
  6
CENTER
 62
2
 10
-188.940002
 20
-87.000000
 11
-172.059998
 21
-87.000000
  0
LINE
  8
0
  6
CENTER
 62
2
 10
-172.500000
 20
-88.959999
 11
-172.500000
 21
-100.040001
  0
LINE
  8
0
  6
CENTER
 62
2
 10
-178.039993
 20
-94.500000
 11
-166.960007
 21
-94.500000
  0
LINE
  8
0
  6
CENTER
 62
2
 10
-107.500000
 20
-88.959999
 11
-107.500000
 21
-100.040001
  0
LINE
  8
0
  6
CENTER
 62
2
 10
-113.040001
 20
-94.500000
 11
-101.959999
 21
-94.500000
  0
LINE
  8
0
  6
CENTER
 62
2
 10
-107.500000
 20
-58.959999
 11
-107.500000
 21
-70.040001
  0
LINE
  8
0
  6
CENTER
 62
2
 10
-113.040001
 20
-64.500000
 11
-101.959999
 21
-64.500000
  0
LINE
  8
0
  6
CENTER
 62
2
 10
-99.500000
 20
-63.560001
 11
-99.500000
 21
-80.440002
  0
LINE
  8
0
  6
CENTER
 62
2
 10
-107.940002
 20
-72.000000
 11
-91.059998
 21
-72.000000
  0
LINE
  8
0
  6
CONTINUOUS
 62
7
 10
-185.500000
 20
-100.500000
 11
-177.500000
 21
-100.500000
  0
LINE
  8
0
  6
CONTINUOUS
 62
7
 10
-185.000000
 20
-103.500000
 11
-178.000000
 21
-103.500000
  0
LINE
  8
0
  6
CENTER
 62
2
 10
-181.500000
 20
-104.598999
 11
-181.500000
 21
-98.385696
  0
LINE
  8
0
  6
CONTINUOUS
 62
7
 10
-185.500000
 20
-100.500000
 11
-185.500000
 21
-100.000000
  0
LINE
  8
0
  6
CONTINUOUS
 62
7
 10
-177.500000
 20
-100.500000
 11
-177.500000
 21
-100.000000
  0
LINE
  8
0
  6
CONTINUOUS
 62
7
 10
-181.500000
 20
-100.500000
 11
-181.500000
 21
-103.500000
  0
LINE
  8
0
  6
CONTINUOUS
 62
7
 10
-158.735992
 20
-15.200000
 11
-155.000000
 21
-15.200000
  0
LINE
  8
0
  6
CONTINUOUS
 62
7
 10
-158.735992
 20
-17.200001
 11
-155.000000
 21
-17.200001
  0
LINE
  8
0
  6
CONTINUOUS
 62
7
 10
-158.735992
 20
-19.200001
 11
-155.000000
 21
-19.200001
  0
LINE
  8
0
  6
CONTINUOUS
 62
7
 10
92.000000
 20
-102.000000
 11
92.000000
 21
-110.000000
  0
LINE
  8
0
  6
CONTINUOUS
 62
7
 10
-178.000000
 20
-100.500000
 11
-178.000000
 21
-103.500000
  0
LINE
  8
0
  6
CONTINUOUS
 62
7
 10
-158.735992
 20
-15.200000
 11
-158.735992
 21
-19.200001
  0
LINE
  8
0
  6
CENTER
 62
2
 10
-190.000000
 20
22.500000
 11
-90.730301
 21
22.500000
  0
LINE
  8
0
  6
CONTINUOUS
 62
7
 10
-188.000000
 20
43.000000
 11
-188.000000
 21
2.000010
  0
LINE
  8
0
  6
CONTINUOUS
 62
7
 10
-92.000000
 20
43.000000
 11
-92.000000
 21
2.000010
  0
LINE
  8
0
  6
CONTINUOUS
 62
7
 10
-188.000000
 20
12.500000
 11
-155.000000
 21
12.500000
  0
LINE
  8
0
  6
CONTINUOUS
 62
7
 10
-188.000000
 20
32.500000
 11
-155.000000
 21
32.500000
  0
LINE
  8
0
  6
CONTINUOUS
 62
7
 10
-105.000000
 20
32.500000
 11
-92.000000
 21
32.500000
  0
LINE
  8
0
  6
CONTINUOUS
 62
7
 10
-105.000000
 20
12.500000
 11
-92.000000
 21
12.500000
  0
LINE
  8
0
  6
CONTINUOUS
 62
7
 10
-188.000000
 20
2.000010
 11
-92.000000
 21
2.000010
  0
LINE
  8
0
  6
CONTINUOUS
 62
7
 10
-147.300003
 20
2.500010
 11
-147.300003
 21
42.500000
  0
LINE
  8
0
  6
CONTINUOUS
 62
7
 10
-112.699997
 20
2.500010
 11
-112.699997
 21
42.500000
  0
LINE
  8
0
  6
CONTINUOUS
 62
7
 10
-105.000000
 20
2.900000
 11
-105.000000
 21
42.099998
  0
LINE
  8
0
  6
CONTINUOUS
 62
7
 10
-112.699997
 20
2.900000
 11
-105.000000
 21
2.900000
  0
LINE
  8
0
  6
CONTINUOUS
 62
7
 10
-147.300003
 20
2.900000
 11
-155.000000
 21
2.900000
  0
LINE
  8
0
  6
CONTINUOUS
 62
7
 10
-188.000000
 20
97.000000
 11
-92.000000
 21
97.000000
  0
LINE
  8
0
  6
CONTINUOUS
 62
7
 10
-188.000000
 20
77.000000
 11
-185.000000
 21
77.000000
  0
LINE
  8
0
  6
CONTINUOUS
 62
7
 10
-188.000000
 20
77.000000
 11
-188.000000
 21
97.000000
  0
LINE
  8
0
  6
CONTINUOUS
 62
7
 10
-92.000000
 20
77.000000
 11
-92.000000
 21
97.000000
  0
LINE
  8
0
  6
CONTINUOUS
 62
7
 10
-95.000000
 20
77.000000
 11
-92.000000
 21
77.000000
  0
LINE
  8
0
  6
CONTINUOUS
 62
7
 10
-92.000000
 20
84.500000
 11
-104.500000
 21
84.500000
  0
LINE
  8
0
  6
CONTINUOUS
 62
7
 10
-112.699997
 20
42.099998
 11
-105.000000
 21
42.099998
  0
LINE
  8
0
  6
CONTINUOUS
 62
7
 10
-147.300003
 20
42.099998
 11
-155.000000
 21
42.099998
  0
LINE
  8
0
  6
CONTINUOUS
 62
7
 10
-112.699997
 20
73.000000
 11
-112.699997
 21
68.000000
  0
LINE
  8
0
  6
CONTINUOUS
 62
7
 10
-147.300003
 20
68.000000
 11
-112.699997
 21
68.000000
  0
LINE
  8
0
  6
CONTINUOUS
 62
7
 10
-155.000000
 20
83.000000
 11
-140.000000
 21
83.000000
  0
LINE
  8
0
  6
CONTINUOUS
 62
7
 10
-147.300003
 20
83.000000
 11
-147.300003
 21
68.000000
  0
LINE
  8
0
  6
CONTINUOUS
 62
7
 10
-155.000000
 20
83.000000
 11
-155.000000
 21
68.699997
  0
LINE
  8
0
  6
CONTINUOUS
 62
7
 10
-147.300003
 20
68.699997
 11
-155.000000
 21
68.699997
  0
LINE
  8
0
  6
CONTINUOUS
 62
7
 10
-105.000000
 20
73.226501
 11
-105.000000
 21
68.699997
  0
LINE
  8
0
  6
CONTINUOUS
 62
7
 10
-112.699997
 20
68.699997
 11
-105.000000
 21
68.699997
  0
LINE
  8
0
  6
CONTINUOUS
 62
7
 10
-147.300003
 20
2.500010
 11
-112.699997
 21
2.500010
  0
LINE
  8
0
  6
CONTINUOUS
 62
7
 10
-147.300003
 20
42.500000
 11
-112.699997
 21
42.500000
  0
LINE
  8
0
  6
CONTINUOUS
 62
7
 10
-95.000000
 20
92.520699
 11
-95.000000
 21
88.479301
  0
LINE
  8
0
  6
CONTINUOUS
 62
7
 10
-102.000000
 20
92.520699
 11
-98.500000
 21
94.541397
  0
LINE
  8
0
  6
CONTINUOUS
 62
7
 10
-98.500000
 20
86.458504
 11
-95.000000
 21
88.479202
  0
LINE
  8
0
  6
CONTINUOUS
 62
7
 10
-102.000000
 20
88.479301
 11
-98.500000
 21
86.458504
  0
LINE
  8
0
  6
CONTINUOUS
 62
7
 10
-96.317001
 20
93.281097
 11
-99.817001
 21
87.218903
  0
LINE
  8
0
  6
CONTINUOUS
 62
7
 10
-97.182999
 20
93.780998
 11
-100.682999
 21
87.718903
  0
LINE
  8
0
  6
CONTINUOUS
 62
7
 10
-98.500000
 20
94.541397
 11
-95.000000
 21
92.520699
  0
LINE
  8
0
  6
CONTINUOUS
 62
7
 10
-102.000000
 20
88.479301
 11
-102.000000
 21
92.520699
  0
LINE
  8
0
  6
CENTER
 62
2
 10
-98.500000
 20
97.040001
 11
-98.500000
 21
83.959999
  0
LINE
  8
0
  6
CENTER
 62
2
 10
-105.040001
 20
90.500000
 11
-91.959999
 21
90.500000
  0
LINE
  8
0
  6
CONTINUOUS
 62
7
 10
-178.000000
 20
92.520699
 11
-178.000000
 21
88.479301
  0
LINE
  8
0
  6
CONTINUOUS
 62
7
 10
-185.000000
 20
92.520699
 11
-181.500000
 21
94.541397
  0
LINE
  8
0
  6
CONTINUOUS
 62
7
 10
-181.500000
 20
86.458504
 11
-178.000000
 21
88.479301
  0
LINE
  8
0
  6
CONTINUOUS
 62
7
 10
-185.000000
 20
88.479301
 11
-181.500000
 21
86.458504
  0
LINE
  8
0
  6
CONTINUOUS
 62
7
 10
-179.317001
 20
93.281097
 11
-182.817001
 21
87.218903
  0
LINE
  8
0
  6
CONTINUOUS
 62
7
 10
-180.182999
 20
93.780998
 11
-183.682999
 21
87.718803
  0
LINE
  8
0
  6
CONTINUOUS
 62
7
 10
-181.500000
 20
94.541496
 11
-178.000000
 21
92.520699
  0
LINE
  8
0
  6
CONTINUOUS
 62
7
 10
-185.000000
 20
88.479301
 11
-185.000000
 21
92.520699
  0
LINE
  8
0
  6
CENTER
 62
2
 10
-181.500000
 20
97.040001
 11
-181.500000
 21
83.959999
  0
LINE
  8
0
  6
CENTER
 62
2
 10
-188.039993
 20
90.500000
 11
-174.960007
 21
90.500000
  0
LINE
  8
0
  6
CENTER
 62
2
 10
-172.500000
 20
44.790001
 11
-172.500000
 21
30.209999
  0
LINE
  8
0
  6
CENTER
 62
2
 10
-179.789993
 20
37.500000
 11
-165.210007
 21
37.500000
  0
LINE
  8
0
  6
CENTER
 62
2
 10
-172.500000
 20
14.790000
 11
-172.500000
 21
0.209991
  0
LINE
  8
0
  6
CENTER
 62
2
 10
-179.789993
 20
7.500010
 11
-165.210007
 21
7.500010
  0
LINE
  8
0
  6
CENTER
 62
2
 10
-142.500000
 20
42.040001
 11
-142.500000
 21
32.959999
  0
LINE
  8
0
  6
CENTER
 62
2
 10
-147.039993
 20
37.500000
 11
-137.960007
 21
37.500000
  0
LINE
  8
0
  6
CENTER
 62
2
 10
-117.500000
 20
42.040001
 11
-117.500000
 21
32.959999
  0
LINE
  8
0
  6
CENTER
 62
2
 10
-122.040001
 20
37.500000
 11
-112.959999
 21
37.500000
  0
LINE
  8
0
  6
CENTER
 62
2
 10
-142.500000
 20
12.040000
 11
-142.500000
 21
2.960000
  0
LINE
  8
0
  6
CENTER
 62
2
 10
-147.039993
 20
7.500010
 11
-137.960007
 21
7.500010
  0
LINE
  8
0
  6
CENTER
 62
2
 10
-117.500000
 20
12.040000
 11
-117.500000
 21
2.960000
  0
LINE
  8
0
  6
CENTER
 62
2
 10
-122.040001
 20
7.500010
 11
-112.959999
 21
7.500010
  0
LINE
  8
0
  6
CENTER
 62
2
 10
-107.500000
 20
14.790000
 11
-107.500000
 21
0.209991
  0
LINE
  8
0
  6
CENTER
 62
2
 10
-114.790001
 20
7.500010
 11
-100.209999
 21
7.500010
  0
LINE
  8
0
  6
CENTER
 62
2
 10
-107.500000
 20
30.209999
 11
-107.500000
 21
44.790001
  0
LINE
  8
0
  6
CENTER
 62
2
 10
-114.790001
 20
37.500000
 11
-100.209999
 21
37.500000
  0
LINE
  8
0
  6
CONTINUOUS
 62
7
 10
-155.000000
 20
2.900000
 11
-155.000000
 21
42.099998
  0
LINE
  8
0
  6
CONTINUOUS
 62
7
 10
-158.414993
 20
24.809401
 11
-155.000000
 21
24.809401
  0
LINE
  8
0
  6
CONTINUOUS
 62
7
 10
-158.414993
 20
23.654699
 11
-155.000000
 21
23.654699
  0
LINE
  8
0
  6
CONTINUOUS
 62
7
 10
-158.414993
 20
21.345301
 11
-155.000000
 21
21.345301
  0
LINE
  8
0
  6
CONTINUOUS
 62
7
 10
-158.414993
 20
20.190599
 11
-155.000000
 21
20.190599
  0
LINE
  8
0
  6
CONTINUOUS
 62
7
 10
-158.735992
 20
74.199997
 11
-155.000000
 21
74.199997
  0
LINE
  8
0
  6
CONTINUOUS
 62
7
 10
-158.735992
 20
72.199997
 11
-155.000000
 21
72.199997
  0
LINE
  8
0
  6
CONTINUOUS
 62
7
 10
-158.735992
 20
70.199997
 11
-155.000000
 21
70.199997
  0
LINE
  8
0
  6
CONTINUOUS
 62
7
 10
-178.000000
 20
43.500000
 11
-178.000000
 21
45.000000
  0
LINE
  8
0
  6
CONTINUOUS
 62
7
 10
-185.500000
 20
43.500000
 11
-177.500000
 21
43.500000
  0
LINE
  8
0
  6
CENTER
 62
2
 10
-181.500000
 20
47.598999
 11
-181.500000
 21
41.385700
  0
LINE
  8
0
  6
CONTINUOUS
 62
7
 10
-185.500000
 20
43.500000
 11
-185.500000
 21
43.000000
  0
LINE
  8
0
  6
CONTINUOUS
 62
7
 10
-177.500000
 20
43.500000
 11
-177.500000
 21
43.000000
  0
LINE
  8
0
  6
CONTINUOUS
 62
7
 10
-181.500000
 20
43.500000
 11
-181.500000
 21
45.000000
  0
LINE
  8
0
  6
CONTINUOUS
 62
7
 10
-98.500000
 20
43.500000
 11
-98.500000
 21
45.000000
  0
LINE
  8
0
  6
CONTINUOUS
 62
7
 10
-102.000000
 20
43.500000
 11
-102.000000
 21
45.000000
  0
LINE
  8
0
  6
CONTINUOUS
 62
7
 10
-94.500000
 20
43.500000
 11
-102.500000
 21
43.500000
  0
LINE
  8
0
  6
CENTER
 62
2
 10
-98.500000
 20
47.598999
 11
-98.500000
 21
41.385700
  0
LINE
  8
0
  6
CONTINUOUS
 62
7
 10
-94.500000
 20
43.500000
 11
-94.500000
 21
43.000000
  0
LINE
  8
0
  6
CONTINUOUS
 62
7
 10
-102.500000
 20
43.500000
 11
-102.500000
 21
43.000000
  0
LINE
  8
0
  6
CONTINUOUS
 62
7
 10
-158.414993
 20
24.809401
 11
-158.414993
 21
20.190599
  0
LINE
  8
0
  6
CONTINUOUS
 62
7
 10
-158.735992
 20
74.199997
 11
-158.735992
 21
70.199997
  0
LINE
  8
0
  6
CONTINUOUS
 62
7
 10
-147.300003
 20
33.000000
 11
-112.699997
 21
33.000000
  0
LINE
  8
0
  6
CONTINUOUS
 62
7
 10
-147.300003
 20
12.000000
 11
-112.699997
 21
12.000000
  0
LINE
  8
0
  6
CONTINUOUS
 62
7
 10
25.500000
 20
-29.500000
 11
36.000000
 21
-29.500000
  0
LINE
  8
0
  6
CONTINUOUS
 62
7
 10
66.500000
 20
-29.500000
 11
56.000000
 21
-29.500000
  0
LINE
  8
0
  6
CONTINUOUS
 62
7
 10
56.000000
 20
-22.000000
 11
56.000000
 21
-23.513399
  0
LINE
  8
0
  6
CONTINUOUS
 62
7
 10
56.000000
 20
-26.486601
 11
56.000000
 21
-29.500000
  0
LINE
  8
0
  6
CONTINUOUS
 62
7
 10
25.500000
 20
-42.000000
 11
66.500000
 21
-42.000000
  0
LINE
  8
0
  6
CONTINUOUS
 62
7
 10
36.000000
 20
-22.000000
 11
56.000000
 21
-22.000000
  0
LINE
  8
0
  6
CENTER
 62
2
 10
46.000000
 20
-11.500000
 11
46.000000
 21
-43.500000
  0
LINE
  8
0
  6
CONTINUOUS
 62
7
 10
54.000000
 20
-25.600000
 11
54.000000
 21
-24.400000
  0
LINE
  8
0
  6
CONTINUOUS
 62
7
 10
53.999901
 20
-24.400000
 11
54.906601
 21
-24.240101
  0
LINE
  8
0
  6
CONTINUOUS
 62
7
 10
54.000000
 20
-25.600000
 11
54.906700
 21
-25.759899
  0
LINE
  8
0
  6
CONTINUOUS
 62
7
 10
38.000000
 20
-25.600000
 11
38.000000
 21
-24.400000
  0
LINE
  8
0
  6
CONTINUOUS
 62
7
 10
38.000000
 20
-24.400000
 11
37.093300
 21
-24.240101
  0
LINE
  8
0
  6
CONTINUOUS
 62
7
 10
37.999901
 20
-25.600000
 11
37.093300
 21
-25.759800
  0
LINE
  8
0
  6
CONTINUOUS
 62
7
 10
26.000000
 20
-28.000000
 11
36.000000
 21
-28.000000
  0
LINE
  8
0
  6
CONTINUOUS
 62
7
 10
56.000000
 20
-28.000000
 11
66.000000
 21
-28.000000
  0
LINE
  8
0
  6
CONTINUOUS
 62
7
 10
36.099899
 20
-13.600000
 11
55.900002
 21
-13.600000
  0
LINE
  8
0
  6
CONTINUOUS
 62
7
 10
66.000000
 20
-28.000000
 11
66.000000
 21
-13.000000
  0
LINE
  8
0
  6
CONTINUOUS
 62
7
 10
56.500000
 20
-13.000000
 11
66.000000
 21
-13.000000
  0
LINE
  8
0
  6
CONTINUOUS
 62
7
 10
56.500000
 20
-13.000000
 11
55.900002
 21
-13.600000
  0
LINE
  8
0
  6
CONTINUOUS
 62
7
 10
26.000000
 20
-28.000000
 11
26.000000
 21
-13.000000
  0
LINE
  8
0
  6
CENTER
 62
2
 10
34.959999
 20
-32.000000
 11
57.040001
 21
-32.000000
  0
LINE
  8
0
  6
CONTINUOUS
 62
7
 10
22.000000
 20
-39.541500
 11
22.000000
 21
-31.458599
  0
LINE
  8
0
  6
CONTINUOUS
 62
7
 10
22.000000
 20
-39.541500
 11
25.500000
 21
-39.541500
  0
LINE
  8
0
  6
CONTINUOUS
 62
7
 10
22.000000
 20
-37.562901
 11
25.000000
 21
-37.562901
  0
LINE
  8
0
  6
CENTER
 62
2
 10
20.511700
 20
-35.500000
 11
26.459999
 21
-35.500000
  0
LINE
  8
0
  6
CONTINUOUS
 62
7
 10
22.000000
 20
-33.437199
 11
25.000000
 21
-33.437199
  0
LINE
  8
0
  6
CONTINUOUS
 62
7
 10
22.000000
 20
-31.458599
 11
25.500000
 21
-31.458599
  0
LINE
  8
0
  6
CONTINUOUS
 62
7
 10
25.000000
 20
-39.541500
 11
25.000000
 21
-31.458599
  0
LINE
  8
0
  6
CONTINUOUS
 62
7
 10
48.309399
 20
-17.200001
 11
47.154701
 21
-15.200000
  0
LINE
  8
0
  6
CONTINUOUS
 62
7
 10
44.845299
 20
-19.200001
 11
43.690601
 21
-17.200001
  0
LINE
  8
0
  6
CONTINUOUS
 62
7
 10
44.845299
 20
-19.200001
 11
47.154701
 21
-19.200001
  0
LINE
  8
0
  6
CONTINUOUS
 62
7
 10
44.845299
 20
-15.200000
 11
47.154701
 21
-15.200000
  0
LINE
  8
0
  6
CONTINUOUS
 62
7
 10
47.154598
 20
-19.200001
 11
48.309299
 21
-17.200001
  0
LINE
  8
0
  6
CONTINUOUS
 62
7
 10
43.690498
 20
-17.200001
 11
44.845200
 21
-15.200000
  0
LINE
  8
0
  6
CENTER
 62
2
 10
42.190601
 20
-17.200001
 11
49.809399
 21
-17.200001
  0
LINE
  8
0
  6
CONTINUOUS
 62
7
 10
35.500000
 20
-12.999900
 11
36.099998
 21
-13.600000
  0
LINE
  8
0
  6
CONTINUOUS
 62
7
 10
35.499901
 20
-13.000000
 11
25.999901
 21
-13.000000
  0
LINE
  8
0
  6
CONTINUOUS
 62
7
 10
36.000000
 20
-22.000000
 11
36.000000
 21
-23.513399
  0
LINE
  8
0
  6
CONTINUOUS
 62
7
 10
36.000000
 20
-26.486601
 11
36.000000
 21
-29.500000
  0
LINE
  8
0
  6
CONTINUOUS
 62
7
 10
66.500000
 20
-29.500000
 11
66.500000
 21
-42.000000
  0
LINE
  8
0
  6
CONTINUOUS
 62
7
 10
79.000000
 20
-100.000000
 11
205.000000
 21
-100.000000
  0
LINE
  8
0
  6
CONTINUOUS
 62
7
 10
79.000000
 20
-100.000000
 11
79.000000
 21
-59.000000
  0
LINE
  8
0
  6
CONTINUOUS
 62
7
 10
205.000000
 20
-100.000000
 11
205.000000
 21
-59.000000
  0
LINE
  8
0
  6
CONTINUOUS
 62
7
 10
79.000000
 20
-59.000000
 11
205.000000
 21
-59.000000
  0
LINE
  8
0
  6
CENTER
 62
2
 10
77.000000
 20
-79.500000
 11
207.000000
 21
-79.500000
  0
LINE
  8
0
  6
CENTER
 62
2
 10
77.000000
 20
22.500000
 11
207.000000
 21
22.500000
  0
LINE
  8
0
  6
CONTINUOUS
 62
7
 10
79.000000
 20
43.000000
 11
79.000000
 21
2.000000
  0
LINE
  8
0
  6
CONTINUOUS
 62
7
 10
205.000000
 20
43.000000
 11
205.000000
 21
2.000000
  0
LINE
  8
0
  6
CONTINUOUS
 62
7
 10
130.850006
 20
2.500010
 11
183.149994
 21
2.500010
  0
LINE
  8
0
  6
CONTINUOUS
 62
7
 10
130.850006
 20
42.500000
 11
183.149994
 21
42.500000
  0
LINE
  8
0
  6
CONTINUOUS
 62
7
 10
79.000000
 20
12.500000
 11
123.000000
 21
12.500000
  0
LINE
  8
0
  6
CONTINUOUS
 62
7
 10
79.000000
 20
32.500000
 11
123.000000
 21
32.500000
  0
LINE
  8
0
  6
CONTINUOUS
 62
7
 10
191.000000
 20
32.500000
 11
205.000000
 21
32.500000
  0
LINE
  8
0
  6
CONTINUOUS
 62
7
 10
191.000000
 20
12.500000
 11
205.000000
 21
12.500000
  0
LINE
  8
0
  6
CONTINUOUS
 62
7
 10
79.000000
 20
2.000000
 11
205.000000
 21
2.000000
  0
LINE
  8
0
  6
CONTINUOUS
 62
7
 10
79.000000
 20
43.000000
 11
147.000000
 21
43.000000
  0
LINE
  8
0
  6
CONTINUOUS
 62
7
 10
79.000000
 20
-42.000000
 11
205.000000
 21
-42.000000
  0
LINE
  8
0
  6
CONTINUOUS
 62
7
 10
79.000000
 20
-22.000000
 11
123.000000
 21
-22.000000
  0
LINE
  8
0
  6
CONTINUOUS
 62
7
 10
79.000000
 20
-22.000000
 11
79.000000
 21
-42.000000
  0
LINE
  8
0
  6
CONTINUOUS
 62
7
 10
205.000000
 20
-22.000000
 11
205.000000
 21
-42.000000
  0
LINE
  8
0
  6
CONTINUOUS
 62
7
 10
191.000000
 20
-22.000000
 11
205.000000
 21
-22.000000
  0
LINE
  8
0
  6
CONTINUOUS
 62
7
 10
205.000000
 20
-29.500000
 11
79.000000
 21
-29.500000
  0
LINE
  8
0
  6
CONTINUOUS
 62
7
 10
79.000000
 20
97.000000
 11
205.000000
 21
97.000000
  0
LINE
  8
0
  6
CONTINUOUS
 62
7
 10
79.000000
 20
77.000000
 11
92.000000
 21
77.000000
  0
LINE
  8
0
  6
CONTINUOUS
 62
7
 10
79.000000
 20
77.000000
 11
79.000000
 21
97.000000
  0
LINE
  8
0
  6
CONTINUOUS
 62
7
 10
205.000000
 20
77.000000
 11
205.000000
 21
97.000000
  0
LINE
  8
0
  6
CONTINUOUS
 62
7
 10
192.000000
 20
77.000000
 11
205.000000
 21
77.000000
  0
LINE
  8
0
  6
CONTINUOUS
 62
7
 10
205.000000
 20
84.500000
 11
182.500000
 21
84.500000
  0
LINE
  8
0
  6
CONTINUOUS
 62
7
 10
130.850006
 20
2.500010
 11
130.850006
 21
42.500000
  0
LINE
  8
0
  6
CONTINUOUS
 62
7
 10
183.149994
 20
2.500010
 11
183.149994
 21
42.500000
  0
LINE
  8
0
  6
CONTINUOUS
 62
7
 10
191.000000
 20
2.899990
 11
191.000000
 21
42.099998
  0
LINE
  8
0
  6
CONTINUOUS
 62
7
 10
123.000000
 20
2.899990
 11
123.000000
 21
42.099998
  0
LINE
  8
0
  6
CONTINUOUS
 62
7
 10
183.149994
 20
42.099998
 11
191.000000
 21
42.099998
  0
LINE
  8
0
  6
CONTINUOUS
 62
7
 10
183.149994
 20
2.899990
 11
191.000000
 21
2.899990
  0
LINE
  8
0
  6
CONTINUOUS
 62
7
 10
130.850006
 20
2.899990
 11
123.000000
 21
2.899990
  0
LINE
  8
0
  6
CONTINUOUS
 62
7
 10
130.850006
 20
42.099998
 11
123.000000
 21
42.099998
  0
LINE
  8
0
  6
CONTINUOUS
 62
7
 10
183.149994
 20
-28.000000
 11
183.149994
 21
-13.000000
  0
LINE
  8
0
  6
CONTINUOUS
 62
7
 10
130.850006
 20
-13.000000
 11
183.149994
 21
-13.000000
  0
LINE
  8
0
  6
CONTINUOUS
 62
7
 10
123.000000
 20
-28.000000
 11
191.000000
 21
-28.000000
  0
LINE
  8
0
  6
CONTINUOUS
 62
7
 10
130.850006
 20
-28.000000
 11
130.850006
 21
-13.000000
  0
LINE
  8
0
  6
CONTINUOUS
 62
7
 10
191.000000
 20
-28.000000
 11
191.000000
 21
-13.700000
  0
LINE
  8
0
  6
CONTINUOUS
 62
7
 10
183.149994
 20
-13.700000
 11
191.000000
 21
-13.700000
  0
LINE
  8
0
  6
CONTINUOUS
 62
7
 10
123.000000
 20
-28.000000
 11
123.000000
 21
-13.700000
  0
LINE
  8
0
  6
CONTINUOUS
 62
7
 10
130.850006
 20
-13.700000
 11
123.000000
 21
-13.700000
  0
LINE
  8
0
  6
CONTINUOUS
 62
7
 10
182.500000
 20
83.000000
 11
192.000000
 21
83.000000
  0
LINE
  8
0
  6
CONTINUOUS
 62
7
 10
183.149994
 20
75.000000
 11
183.149994
 21
68.000000
  0
LINE
  8
0
  6
CONTINUOUS
 62
7
 10
130.850006
 20
68.000000
 11
183.149994
 21
68.000000
  0
LINE
  8
0
  6
CONTINUOUS
 62
7
 10
123.000000
 20
83.000000
 11
147.000000
 21
83.000000
  0
LINE
  8
0
  6
CONTINUOUS
 62
7
 10
130.850006
 20
83.000000
 11
130.850006
 21
68.000000
  0
LINE
  8
0
  6
CONTINUOUS
 62
7
 10
123.000000
 20
83.000000
 11
123.000000
 21
68.699997
  0
LINE
  8
0
  6
CONTINUOUS
 62
7
 10
130.850006
 20
68.699997
 11
123.000000
 21
68.699997
  0
LINE
  8
0
  6
CONTINUOUS
 62
7
 10
191.000000
 20
75.000000
 11
191.000000
 21
68.699997
  0
LINE
  8
0
  6
CONTINUOUS
 62
7
 10
183.149994
 20
68.699997
 11
191.000000
 21
68.699997
  0
LINE
  8
0
  6
CENTER
 62
2
 10
94.500000
 20
44.790001
 11
94.500000
 21
30.209999
  0
LINE
  8
0
  6
CENTER
 62
2
 10
87.209999
 20
37.500000
 11
101.790001
 21
37.500000
  0
LINE
  8
0
  6
CENTER
 62
2
 10
94.500000
 20
14.790000
 11
94.500000
 21
0.210007
  0
LINE
  8
0
  6
CENTER
 62
2
 10
87.209999
 20
7.500010
 11
101.790001
 21
7.500010
  0
LINE
  8
0
  6
CENTER
 62
2
 10
137.000000
 20
42.040001
 11
137.000000
 21
32.959999
  0
LINE
  8
0
  6
CENTER
 62
2
 10
132.460007
 20
37.500000
 11
141.539993
 21
37.500000
  0
LINE
  8
0
  6
CENTER
 62
2
 10
137.000000
 20
12.040000
 11
137.000000
 21
2.960000
  0
LINE
  8
0
  6
CENTER
 62
2
 10
132.460007
 20
7.500010
 11
141.539993
 21
7.500010
  0
LINE
  8
0
  6
CENTER
 62
2
 10
157.000000
 20
42.040001
 11
157.000000
 21
32.959999
  0
LINE
  8
0
  6
CENTER
 62
2
 10
152.460007
 20
37.500000
 11
161.539993
 21
37.500000
  0
LINE
  8
0
  6
CENTER
 62
2
 10
157.000000
 20
12.040000
 11
157.000000
 21
2.960000
  0
LINE
  8
0
  6
CENTER
 62
2
 10
152.460007
 20
7.500010
 11
161.539993
 21
7.500010
  0
LINE
  8
0
  6
CENTER
 62
2
 10
177.000000
 20
12.040000
 11
177.000000
 21
2.960000
  0
LINE
  8
0
  6
CENTER
 62
2
 10
172.460007
 20
7.500010
 11
181.539993
 21
7.500010
  0
LINE
  8
0
  6
CENTER
 62
2
 10
177.000000
 20
42.040001
 11
177.000000
 21
32.959999
  0
LINE
  8
0
  6
CENTER
 62
2
 10
172.460007
 20
37.500000
 11
181.539993
 21
37.500000
  0
LINE
  8
0
  6
CENTER
 62
2
 10
189.500000
 20
14.790000
 11
189.500000
 21
0.210007
  0
LINE
  8
0
  6
CENTER
 62
2
 10
182.210007
 20
7.500010
 11
196.789993
 21
7.500010
  0
LINE
  8
0
  6
CENTER
 62
2
 10
119.500000
 20
-27.959999
 11
119.500000
 21
-36.040001
  0
LINE
  8
0
  6
CENTER
 62
2
 10
115.459999
 20
-32.000000
 11
123.540001
 21
-32.000000
  0
LINE
  8
0
  6
CENTER
 62
2
 10
164.500000
 20
-27.959999
 11
164.500000
 21
-36.040001
  0
LINE
  8
0
  6
CENTER
 62
2
 10
160.460007
 20
-32.000000
 11
168.539993
 21
-32.000000
  0
LINE
  8
0
  6
CENTER
 62
2
 10
152.000000
 20
-16.459999
 11
152.000000
 21
-23.540001
  0
LINE
  8
0
  6
CENTER
 62
2
 10
148.460007
 20
-20.000000
 11
155.539993
 21
-20.000000
  0
LINE
  8
0
  6
CENTER
 62
2
 10
162.000000
 20
-16.459999
 11
162.000000
 21
-23.540001
  0
LINE
  8
0
  6
CENTER
 62
2
 10
158.460007
 20
-20.000000
 11
165.539993
 21
-20.000000
  0
LINE
  8
0
  6
CENTER
 62
2
 10
94.500000
 20
-58.959999
 11
94.500000
 21
-70.040001
  0
LINE
  8
0
  6
CENTER
 62
2
 10
88.959999
 20
-64.500000
 11
100.040001
 21
-64.500000
  0
LINE
  8
0
  6
CENTER
 62
2
 10
86.500000
 20
-78.559998
 11
86.500000
 21
-95.440002
  0
LINE
  8
0
  6
CENTER
 62
2
 10
78.059998
 20
-87.000000
 11
94.940002
 21
-87.000000
  0
LINE
  8
0
  6
CENTER
 62
2
 10
94.500000
 20
-88.959999
 11
94.500000
 21
-100.040001
  0
LINE
  8
0
  6
CENTER
 62
2
 10
88.959999
 20
-94.500000
 11
100.040001
 21
-94.500000
  0
LINE
  8
0
  6
CENTER
 62
2
 10
189.500000
 20
-88.959999
 11
189.500000
 21
-100.040001
  0
LINE
  8
0
  6
CENTER
 62
2
 10
183.960007
 20
-94.500000
 11
195.039993
 21
-94.500000
  0
LINE
  8
0
  6
CENTER
 62
2
 10
189.500000
 20
-58.959999
 11
189.500000
 21
-70.040001
  0
LINE
  8
0
  6
CENTER
 62
2
 10
183.960007
 20
-64.500000
 11
195.039993
 21
-64.500000
  0
LINE
  8
0
  6
CENTER
 62
2
 10
197.500000
 20
-63.560001
 11
197.500000
 21
-80.440002
  0
LINE
  8
0
  6
CENTER
 62
2
 10
189.059998
 20
-72.000000
 11
205.940002
 21
-72.000000
  0
LINE
  8
0
  6
CONTINUOUS
 62
7
 10
89.000000
 20
92.520699
 11
89.000000
 21
88.479301
  0
LINE
  8
0
  6
CONTINUOUS
 62
7
 10
82.000000
 20
92.520699
 11
85.500000
 21
94.541397
  0
LINE
  8
0
  6
CONTINUOUS
 62
7
 10
85.500000
 20
86.458504
 11
89.000000
 21
88.479202
  0
LINE
  8
0
  6
CONTINUOUS
 62
7
 10
82.000000
 20
88.479202
 11
85.500000
 21
86.458504
  0
LINE
  8
0
  6
CONTINUOUS
 62
7
 10
87.682999
 20
93.281097
 11
84.182999
 21
87.218903
  0
LINE
  8
0
  6
CONTINUOUS
 62
7
 10
86.817001
 20
93.781097
 11
83.317001
 21
87.718903
  0
LINE
  8
0
  6
CONTINUOUS
 62
7
 10
85.500000
 20
94.541397
 11
88.999901
 21
92.520699
  0
LINE
  8
0
  6
CONTINUOUS
 62
7
 10
82.000000
 20
88.479301
 11
82.000000
 21
92.520699
  0
LINE
  8
0
  6
CENTER
 62
2
 10
85.500000
 20
97.040001
 11
85.500000
 21
83.959999
  0
LINE
  8
0
  6
CENTER
 62
2
 10
78.959999
 20
90.500000
 11
92.040001
 21
90.500000
  0
LINE
  8
0
  6
CENTER
 62
2
 10
189.500000
 20
30.209999
 11
189.500000
 21
44.790001
  0
LINE
  8
0
  6
CENTER
 62
2
 10
182.210007
 20
37.500000
 11
196.789993
 21
37.500000
  0
LINE
  8
0
  6
CONTINUOUS
 62
7
 10
202.000000
 20
92.520699
 11
202.000000
 21
88.479301
  0
LINE
  8
0
  6
CONTINUOUS
 62
7
 10
195.000000
 20
92.520699
 11
198.500000
 21
94.541496
  0
LINE
  8
0
  6
CONTINUOUS
 62
7
 10
198.500000
 20
86.458603
 11
202.000000
 21
88.479301
  0
LINE
  8
0
  6
CONTINUOUS
 62
7
 10
195.000000
 20
88.479202
 11
198.500000
 21
86.458504
  0
LINE
  8
0
  6
CONTINUOUS
 62
7
 10
200.682999
 20
93.281097
 11
197.182999
 21
87.218903
  0
LINE
  8
0
  6
CONTINUOUS
 62
7
 10
199.817001
 20
93.781097
 11
196.317001
 21
87.718903
  0
LINE
  8
0
  6
CONTINUOUS
 62
7
 10
198.500000
 20
94.541397
 11
202.000000
 21
92.520699
  0
LINE
  8
0
  6
CONTINUOUS
 62
7
 10
195.000000
 20
88.479301
 11
195.000000
 21
92.520699
  0
LINE
  8
0
  6
CENTER
 62
2
 10
198.500000
 20
97.040001
 11
198.500000
 21
83.959999
  0
LINE
  8
0
  6
CENTER
 62
2
 10
191.960007
 20
90.500000
 11
205.039993
 21
90.500000
  0
LINE
  8
0
  6
CONTINUOUS
 62
7
 10
119.264000
 20
-15.200000
 11
123.000000
 21
-15.200000
  0
LINE
  8
0
  6
CONTINUOUS
 62
7
 10
119.264000
 20
-17.200001
 11
123.000000
 21
-17.200001
  0
LINE
  8
0
  6
CONTINUOUS
 62
7
 10
119.264000
 20
-19.200001
 11
123.000000
 21
-19.200001
  0
LINE
  8
0
  6
CONTINUOUS
 62
7
 10
119.264000
 20
74.199997
 11
123.000000
 21
74.199997
  0
LINE
  8
0
  6
CONTINUOUS
 62
7
 10
119.264000
 20
72.199997
 11
123.000000
 21
72.199997
  0
LINE
  8
0
  6
CONTINUOUS
 62
7
 10
119.264000
 20
70.199997
 11
123.000000
 21
70.199997
  0
LINE
  8
0
  6
CONTINUOUS
 62
7
 10
119.584999
 20
24.809401
 11
123.000000
 21
24.809401
  0
LINE
  8
0
  6
CONTINUOUS
 62
7
 10
119.584999
 20
23.654699
 11
123.000000
 21
23.654699
  0
LINE
  8
0
  6
CONTINUOUS
 62
7
 10
119.584999
 20
21.345301
 11
123.000000
 21
21.345301
  0
LINE
  8
0
  6
CONTINUOUS
 62
7
 10
119.584999
 20
20.190599
 11
123.000000
 21
20.190599
  0
LINE
  8
0
  6
CONTINUOUS
 62
7
 10
89.000000
 20
-100.500000
 11
89.000000
 21
-103.500000
  0
LINE
  8
0
  6
CONTINUOUS
 62
7
 10
82.000000
 20
-100.500000
 11
82.000000
 21
-103.500000
  0
LINE
  8
0
  6
CONTINUOUS
 62
7
 10
81.500000
 20
-100.500000
 11
89.500000
 21
-100.500000
  0
LINE
  8
0
  6
CONTINUOUS
 62
7
 10
82.000000
 20
-103.500000
 11
89.000000
 21
-103.500000
  0
LINE
  8
0
  6
CENTER
 62
2
 10
85.500000
 20
-104.598999
 11
85.500000
 21
-98.385696
  0
LINE
  8
0
  6
CONTINUOUS
 62
7
 10
81.500000
 20
-100.500000
 11
81.500000
 21
-100.000000
  0
LINE
  8
0
  6
CONTINUOUS
 62
7
 10
89.500000
 20
-100.500000
 11
89.500000
 21
-100.000000
  0
LINE
  8
0
  6
CONTINUOUS
 62
7
 10
85.500000
 20
-100.500000
 11
85.500000
 21
-103.500000
  0
LINE
  8
0
  6
CONTINUOUS
 62
7
 10
195.000000
 20
-100.500000
 11
195.000000
 21
-103.500000
  0
LINE
  8
0
  6
CONTINUOUS
 62
7
 10
202.000000
 20
-100.500000
 11
202.000000
 21
-103.500000
  0
LINE
  8
0
  6
CONTINUOUS
 62
7
 10
202.500000
 20
-100.500000
 11
194.500000
 21
-100.500000
  0
LINE
  8
0
  6
CONTINUOUS
 62
7
 10
202.000000
 20
-103.500000
 11
195.000000
 21
-103.500000
  0
LINE
  8
0
  6
CENTER
 62
2
 10
198.500000
 20
-104.598999
 11
198.500000
 21
-98.385696
  0
LINE
  8
0
  6
CONTINUOUS
 62
7
 10
202.500000
 20
-100.500000
 11
202.500000
 21
-100.000000
  0
LINE
  8
0
  6
CONTINUOUS
 62
7
 10
194.500000
 20
-100.500000
 11
194.500000
 21
-100.000000
  0
LINE
  8
0
  6
CONTINUOUS
 62
7
 10
198.500000
 20
-100.500000
 11
198.500000
 21
-103.500000
  0
LINE
  8
0
  6
CONTINUOUS
 62
7
 10
119.264000
 20
-15.200000
 11
119.264000
 21
-19.200001
  0
LINE
  8
0
  6
CONTINUOUS
 62
7
 10
119.264000
 20
74.199997
 11
119.264000
 21
70.199997
  0
LINE
  8
0
  6
CONTINUOUS
 62
7
 10
82.000000
 20
43.500000
 11
82.000000
 21
46.500000
  0
LINE
  8
0
  6
CONTINUOUS
 62
7
 10
89.000000
 20
43.500000
 11
89.000000
 21
46.500000
  0
LINE
  8
0
  6
CONTINUOUS
 62
7
 10
81.500000
 20
43.500000
 11
89.500000
 21
43.500000
  0
LINE
  8
0
  6
CONTINUOUS
 62
7
 10
82.000000
 20
46.500000
 11
89.000000
 21
46.500000
  0
LINE
  8
0
  6
CENTER
 62
2
 10
85.500000
 20
47.598999
 11
85.500000
 21
41.385700
  0
LINE
  8
0
  6
CONTINUOUS
 62
7
 10
81.500000
 20
43.500000
 11
81.500000
 21
43.000000
  0
LINE
  8
0
  6
CONTINUOUS
 62
7
 10
89.500000
 20
43.500000
 11
89.500000
 21
43.000000
  0
LINE
  8
0
  6
CONTINUOUS
 62
7
 10
85.500000
 20
43.500000
 11
85.500000
 21
46.500000
  0
LINE
  8
0
  6
CONTINUOUS
 62
7
 10
202.000000
 20
43.500000
 11
202.000000
 21
46.500000
  0
LINE
  8
0
  6
CONTINUOUS
 62
7
 10
195.000000
 20
43.500000
 11
195.000000
 21
46.500000
  0
LINE
  8
0
  6
CONTINUOUS
 62
7
 10
202.500000
 20
43.500000
 11
194.500000
 21
43.500000
  0
LINE
  8
0
  6
CONTINUOUS
 62
7
 10
202.000000
 20
46.500000
 11
195.000000
 21
46.500000
  0
LINE
  8
0
  6
CENTER
 62
2
 10
198.500000
 20
47.598999
 11
198.500000
 21
41.385700
  0
LINE
  8
0
  6
CONTINUOUS
 62
7
 10
202.500000
 20
43.500000
 11
202.500000
 21
43.000000
  0
LINE
  8
0
  6
CONTINUOUS
 62
7
 10
194.500000
 20
43.500000
 11
194.500000
 21
43.000000
  0
LINE
  8
0
  6
CONTINUOUS
 62
7
 10
198.500000
 20
43.500000
 11
198.500000
 21
46.500000
  0
LINE
  8
0
  6
CONTINUOUS
 62
7
 10
119.584999
 20
24.809401
 11
119.584999
 21
20.190599
  0
LINE
  8
0
  6
CONTINUOUS
 62
7
 10
130.850006
 20
33.000000
 11
183.149994
 21
33.000000
  0
LINE
  8
0
  6
CONTINUOUS
 62
7
 10
130.850006
 20
12.000000
 11
183.149994
 21
12.000000
  0
LINE
  8
0
  6
CONTINUOUS
 62
7
 10
25.500000
 20
-18.000000
 11
25.500000
 21
-42.000000
  0
LINE
  8
0
  6
CONTINUOUS
 62
7
 10
13.499900
 20
-41.500000
 11
25.500000
 21
-41.500000
  0
LINE
  8
0
  6
CENTER
 62
2
 10
25.799999
 20
-24.000000
 11
13.200000
 21
-24.000000
  0
LINE
  8
0
  6
CENTER
 62
2
 10
19.500000
 20
-30.299999
 11
19.500000
 21
-17.700001
  0
LINE
  8
0
  6
CONTINUOUS
 62
7
 10
19.500000
 20
-18.226500
 11
14.500000
 21
-21.113199
  0
LINE
  8
0
  6
CONTINUOUS
 62
7
 10
24.500000
 20
-26.886700
 11
19.500000
 21
-29.773500
  0
LINE
  8
0
  6
CONTINUOUS
 62
7
 10
24.500000
 20
-26.886700
 11
24.500000
 21
-21.113199
  0
LINE
  8
0
  6
CONTINUOUS
 62
7
 10
19.500000
 20
-29.773399
 11
14.500000
 21
-26.886700
  0
LINE
  8
0
  6
CONTINUOUS
 62
7
 10
24.500000
 20
-21.113300
 11
19.500000
 21
-18.226500
  0
LINE
  8
0
  6
CONTINUOUS
 62
7
 10
14.500000
 20
-26.886700
 11
14.500000
 21
-21.113199
  0
LINE
  8
0
  6
CONTINUOUS
 62
7
 10
13.499900
 20
-18.000000
 11
13.499900
 21
-41.500000
  0
LINE
  8
0
  6
CONTINUOUS
 62
7
 10
13.499900
 20
-18.000000
 11
25.500000
 21
-18.000000
  0
LINE
  8
0
  6
CONTINUOUS
 62
7
 10
19.499901
 20
-21.690599
 11
17.500000
 21
-22.845301
  0
LINE
  8
0
  6
CONTINUOUS
 62
7
 10
21.500000
 20
-25.154699
 11
19.500000
 21
-26.309401
  0
LINE
  8
0
  6
CONTINUOUS
 62
7
 10
17.500000
 20
-25.154699
 11
17.500000
 21
-22.845301
  0
LINE
  8
0
  6
CONTINUOUS
 62
7
 10
21.500000
 20
-25.154699
 11
21.500000
 21
-22.845301
  0
LINE
  8
0
  6
CONTINUOUS
 62
7
 10
19.499901
 20
-26.309401
 11
17.500000
 21
-25.154699
  0
LINE
  8
0
  6
CONTINUOUS
 62
7
 10
21.500000
 20
-22.845200
 11
19.500000
 21
-21.690599
  0
LINE
  8
0
  6
CONTINUOUS
 62
7
 10
13.999900
 20
-14.500000
 11
25.999901
 21
-14.500000
  0
LINE
  8
0
  6
CONTINUOUS
 62
7
 10
13.999900
 20
-18.000000
 11
13.999900
 21
-14.500000
  0
LINE
  8
0
  6
CONTINUOUS
 62
7
 10
92.000000
 20
-110.000000
 11
101.500000
 21
-110.000000
  0
LINE
  8
0
  6
CENTER
 62
2
 10
87.826302
 20
-106.000000
 11
110.653999
 21
-106.000000
  0
LINE
  8
0
  6
CONTINUOUS
 62
7
 10
107.000000
 20
-111.000000
 11
101.500000
 21
-111.000000
  0
LINE
  8
0
  6
CONTINUOUS
 62
7
 10
101.500000
 20
-101.000000
 11
101.500000
 21
-111.000000
  0
LINE
  8
0
  6
CONTINUOUS
 62
7
 10
107.000000
 20
-100.000000
 11
107.000000
 21
-112.000000
  0
LINE
  8
0
  6
CONTINUOUS
 62
7
 10
101.500000
 20
-106.000000
 11
107.000000
 21
-106.000000
  0
LINE
  8
0
  6
CONTINUOUS
 62
2
 10
92.000000
 20
-109.375000
 11
101.500000
 21
-109.375000
  0
LINE
  8
0
  6
CONTINUOUS
 62
7
 10
107.000000
 20
-112.000000
 11
127.000000
 21
-112.000000
  0
LINE
  8
0
  6
CONTINUOUS
 62
7
 10
101.500000
 20
-102.000000
 11
92.000000
 21
-102.000000
  0
LINE
  8
0
  6
CONTINUOUS
 62
2
 10
101.500000
 20
-102.625000
 11
92.000000
 21
-102.625000
  0
LINE
  8
0
  6
CONTINUOUS
 62
7
 10
107.000000
 20
-101.000000
 11
101.500000
 21
-101.000000
  0
LINE
  8
0
  6
CONTINUOUS
 62
7
 10
127.000000
 20
-100.000000
 11
127.000000
 21
-112.000000
  0
LINE
  8
0
  6
CONTINUOUS
 62
7
 10
147.000000
 20
-100.000000
 11
147.000000
 21
-111.500000
  0
LINE
  8
0
  6
CONTINUOUS
 62
7
 10
147.000000
 20
-111.500000
 11
157.000000
 21
-111.500000
  0
LINE
  8
0
  6
CONTINUOUS
 62
7
 10
182.500000
 20
-102.000000
 11
192.000000
 21
-102.000000
  0
LINE
  8
0
  6
CONTINUOUS
 62
2
 10
182.500000
 20
-102.625000
 11
192.000000
 21
-102.625000
  0
LINE
  8
0
  6
CONTINUOUS
 62
7
 10
157.000000
 20
-100.000000
 11
157.000000
 21
-112.000000
  0
LINE
  8
0
  6
CONTINUOUS
 62
7
 10
177.000000
 20
-101.000000
 11
182.500000
 21
-101.000000
  0
LINE
  8
0
  6
CONTINUOUS
 62
7
 10
-94.500000
 20
-100.500000
 11
-102.500000
 21
-100.500000
  0
LINE
  8
0
  6
CONTINUOUS
 62
7
 10
-95.000000
 20
-103.500000
 11
-102.000000
 21
-103.500000
  0
LINE
  8
0
  6
CENTER
 62
2
 10
-98.500000
 20
-104.598999
 11
-98.500000
 21
-98.385696
  0
LINE
  8
0
  6
CONTINUOUS
 62
7
 10
-94.500000
 20
-100.500000
 11
-94.500000
 21
-100.000000
  0
LINE
  8
0
  6
CONTINUOUS
 62
7
 10
-102.500000
 20
-100.500000
 11
-102.500000
 21
-100.000000
  0
LINE
  8
0
  6
CONTINUOUS
 62
7
 10
-98.500000
 20
-100.500000
 11
-98.500000
 21
-103.500000
  0
LINE
  8
0
  6
CONTINUOUS
 62
7
 10
192.000000
 20
-102.000000
 11
192.000000
 21
-110.000000
  0
LINE
  8
0
  6
CONTINUOUS
 62
7
 10
-102.000000
 20
-100.500000
 11
-102.000000
 21
-103.500000
  0
LINE
  8
0
  6
CONTINUOUS
 62
7
 10
192.000000
 20
-110.000000
 11
182.500000
 21
-110.000000
  0
LINE
  8
0
  6
CENTER
 62
2
 10
196.173996
 20
-106.000000
 11
173.345993
 21
-106.000000
  0
LINE
  8
0
  6
CONTINUOUS
 62
7
 10
177.000000
 20
-111.000000
 11
182.500000
 21
-111.000000
  0
LINE
  8
0
  6
CONTINUOUS
 62
7
 10
182.500000
 20
-101.000000
 11
182.500000
 21
-111.000000
  0
LINE
  8
0
  6
CONTINUOUS
 62
7
 10
177.000000
 20
-100.000000
 11
177.000000
 21
-112.000000
  0
LINE
  8
0
  6
CONTINUOUS
 62
7
 10
182.500000
 20
-106.000000
 11
177.000000
 21
-106.000000
  0
LINE
  8
0
  6
CONTINUOUS
 62
2
 10
192.000000
 20
-109.375000
 11
182.500000
 21
-109.375000
  0
LINE
  8
0
  6
CONTINUOUS
 62
7
 10
177.000000
 20
-112.000000
 11
157.000000
 21
-112.000000
  0
LINE
  8
0
  6
CONTINUOUS
 62
7
 10
-170.000000
 20
-18.000000
 11
-170.000000
 21
-22.000000
  0
LINE
  8
0
  6
CONTINUOUS
 62
7
 10
-162.000000
 20
-18.000000
 11
-170.000000
 21
-18.000000
  0
LINE
  8
0
  6
CONTINUOUS
 62
7
 10
-162.000000
 20
-18.000000
 11
-162.000000
 21
-22.000000
  0
LINE
  8
0
  6
CONTINUOUS
 62
7
 10
-185.000000
 20
-20.000000
 11
-175.500000
 21
-20.000000
  0
LINE
  8
0
  6
CONTINUOUS
 62
2
 10
-161.500000
 20
-20.625000
 11
-162.000000
 21
-20.625000
  0
LINE
  8
0
  6
CONTINUOUS
 62
7
 10
-185.000000
 20
-22.000000
 11
-185.000000
 21
-20.000000
  0
LINE
  8
0
  6
CONTINUOUS
 62
2
 10
-185.000000
 20
-20.625000
 11
-175.500000
 21
-20.625000
  0
LINE
  8
0
  6
CONTINUOUS
 62
7
 10
-160.000000
 20
-22.000000
 11
-160.000000
 21
-21.350000
  0
LINE
  8
0
  6
CONTINUOUS
 62
7
 10
-161.500000
 20
-20.000000
 11
-162.000000
 21
-20.000000
  0
LINE
  8
0
  6
CONTINUOUS
 62
7
 10
-170.000000
 20
-18.226500
 11
-175.500000
 21
-18.226500
  0
LINE
  8
0
  6
CONTINUOUS
 62
7
 10
-175.500000
 20
-22.000000
 11
-175.500000
 21
-18.226500
  0
LINE
  8
0
  6
CONTINUOUS
 62
7
 10
-170.000000
 20
-21.113199
 11
-175.500000
 21
-21.113199
  0
LINE
  8
0
  6
CONTINUOUS
 62
7
 10
-104.500000
 20
-22.000000
 11
-104.500000
 21
-18.226500
  0
LINE
  8
0
  6
CONTINUOUS
 62
7
 10
-95.000000
 20
-20.000000
 11
-104.500000
 21
-20.000000
  0
LINE
  8
0
  6
CONTINUOUS
 62
7
 10
-95.000000
 20
-22.000000
 11
-95.000000
 21
-20.000000
  0
LINE
  8
0
  6
CONTINUOUS
 62
2
 10
-95.000000
 20
-20.625000
 11
-104.500000
 21
-20.625000
  0
LINE
  8
0
  6
CONTINUOUS
 62
7
 10
-105.000000
 20
-18.226500
 11
-104.500000
 21
-18.226500
  0
LINE
  8
0
  6
CONTINUOUS
 62
7
 10
-188.000000
 20
43.000000
 11
-140.000000
 21
43.000000
  0
LINE
  8
0
  6
CONTINUOUS
 62
7
 10
-95.000000
 20
45.000000
 11
-104.500000
 21
45.000000
  0
LINE
  8
0
  6
CONTINUOUS
 62
7
 10
-104.500000
 20
53.000000
 11
-95.000000
 21
53.000000
  0
LINE
  8
0
  6
CONTINUOUS
 62
7
 10
-104.500000
 20
54.000000
 11
-104.500000
 21
44.000000
  0
LINE
  8
0
  6
CONTINUOUS
 62
7
 10
-95.000000
 20
53.000000
 11
-95.000000
 21
43.500000
  0
LINE
  8
0
  6
CONTINUOUS
 62
2
 10
-95.000000
 20
45.625000
 11
-104.500000
 21
45.625000
  0
LINE
  8
0
  6
CONTINUOUS
 62
2
 10
-104.500000
 20
52.375000
 11
-95.000000
 21
52.375000
  0
LINE
  8
0
  6
CENTER
 62
2
 10
-90.826401
 20
49.000000
 11
-122.021004
 21
49.000000
  0
LINE
  8
0
  6
CONTINUOUS
 62
7
 10
-120.000000
 20
54.500000
 11
-120.000000
 21
42.500000
  0
LINE
  8
0
  6
CONTINUOUS
 62
7
 10
-140.000000
 20
54.500000
 11
-120.000000
 21
54.500000
  0
LINE
  8
0
  6
CONTINUOUS
 62
7
 10
-140.000000
 20
54.500000
 11
-140.000000
 21
42.500000
  0
LINE
  8
0
  6
CONTINUOUS
 62
7
 10
-110.000000
 20
55.000000
 11
-110.000000
 21
43.000000
  0
LINE
  8
0
  6
CONTINUOUS
 62
7
 10
-130.000000
 20
55.000000
 11
-110.000000
 21
55.000000
  0
LINE
  8
0
  6
CONTINUOUS
 62
7
 10
-118.000000
 20
55.000000
 11
-118.000000
 21
43.000000
  0
LINE
  8
0
  6
CONTINUOUS
 62
7
 10
-130.000000
 20
55.000000
 11
-130.000000
 21
54.500000
  0
LINE
  8
0
  6
CONTINUOUS
 62
7
 10
-104.500000
 20
49.000000
 11
-110.000000
 21
49.000000
  0
LINE
  8
0
  6
CONTINUOUS
 62
7
 10
-110.000000
 20
54.000000
 11
-104.500000
 21
54.000000
  0
LINE
  8
0
  6
CONTINUOUS
 62
7
 10
-110.000000
 20
44.000000
 11
-104.500000
 21
44.000000
  0
LINE
  8
0
  6
CENTER
 62
2
 10
-189.173996
 20
49.000000
 11
-157.979004
 21
49.000000
  0
LINE
  8
0
  6
CONTINUOUS
 62
7
 10
-150.000000
 20
55.000000
 11
-170.000000
 21
55.000000
  0
LINE
  8
0
  6
CONTINUOUS
 62
7
 10
-162.000000
 20
55.000000
 11
-162.000000
 21
43.000000
  0
LINE
  8
0
  6
CONTINUOUS
 62
7
 10
-150.000000
 20
55.000000
 11
-150.000000
 21
43.000000
  0
LINE
  8
0
  6
CONTINUOUS
 62
7
 10
-185.000000
 20
45.000000
 11
-175.500000
 21
45.000000
  0
LINE
  8
0
  6
CONTINUOUS
 62
7
 10
-175.500000
 20
53.000000
 11
-185.000000
 21
53.000000
  0
LINE
  8
0
  6
CONTINUOUS
 62
7
 10
-175.500000
 20
54.000000
 11
-175.500000
 21
44.000000
  0
LINE
  8
0
  6
CONTINUOUS
 62
7
 10
-185.000000
 20
53.000000
 11
-185.000000
 21
43.500000
  0
LINE
  8
0
  6
CONTINUOUS
 62
2
 10
-185.000000
 20
45.625000
 11
-175.500000
 21
45.625000
  0
LINE
  8
0
  6
CONTINUOUS
 62
2
 10
-175.500000
 20
52.375000
 11
-185.000000
 21
52.375000
  0
LINE
  8
0
  6
CONTINUOUS
 62
7
 10
-170.000000
 20
55.000000
 11
-170.000000
 21
43.000000
  0
LINE
  8
0
  6
CONTINUOUS
 62
7
 10
-175.500000
 20
49.000000
 11
-170.000000
 21
49.000000
  0
LINE
  8
0
  6
CONTINUOUS
 62
7
 10
-170.000000
 20
54.000000
 11
-175.500000
 21
54.000000
  0
LINE
  8
0
  6
CONTINUOUS
 62
7
 10
-170.000000
 20
44.000000
 11
-175.500000
 21
44.000000
  0
LINE
  8
0
  6
CONTINUOUS
 62
7
 10
-120.000000
 20
43.000000
 11
-92.000000
 21
43.000000
  0
LINE
  8
0
  6
CONTINUOUS
 62
7
 10
-120.000000
 20
83.500000
 11
-140.000000
 21
83.500000
  0
LINE
  8
0
  6
CONTINUOUS
 62
7
 10
-120.000000
 20
69.500000
 11
-140.000000
 21
69.500000
  0
LINE
  8
0
  6
CONTINUOUS
 62
7
 10
-140.000000
 20
69.500000
 11
-140.000000
 21
83.500000
  0
LINE
  8
0
  6
CONTINUOUS
 62
7
 10
-120.000000
 20
69.500000
 11
-120.000000
 21
83.500000
  0
LINE
  8
0
  6
CONTINUOUS
 62
7
 10
-170.000000
 20
73.000000
 11
-170.000000
 21
96.500000
  0
LINE
  8
0
  6
CONTINUOUS
 62
7
 10
-150.000000
 20
96.500000
 11
-170.000000
 21
96.500000
  0
LINE
  8
0
  6
CONTINUOUS
 62
7
 10
-162.000000
 20
73.000000
 11
-170.000000
 21
73.000000
  0
LINE
  8
0
  6
CONTINUOUS
 62
7
 10
-162.000000
 20
73.000000
 11
-162.000000
 21
82.000000
  0
LINE
  8
0
  6
CONTINUOUS
 62
7
 10
-150.000000
 20
85.000000
 11
-159.000000
 21
85.000000
  0
LINE
  8
0
  6
CONTINUOUS
 62
7
 10
-150.000000
 20
85.000000
 11
-150.000000
 21
96.500000
  0
LINE
  8
0
  6
CONTINUOUS
 62
7
 10
-185.000000
 20
75.000000
 11
-175.500000
 21
75.000000
  0
LINE
  8
0
  6
CONTINUOUS
 62
7
 10
-175.500000
 20
83.000000
 11
-185.000000
 21
83.000000
  0
LINE
  8
0
  6
CONTINUOUS
 62
7
 10
-185.000000
 20
83.000000
 11
-185.000000
 21
75.000000
  0
LINE
  8
0
  6
CENTER
 62
2
 10
-189.173996
 20
79.000000
 11
-157.979004
 21
79.000000
  0
LINE
  8
0
  6
CONTINUOUS
 62
7
 10
-110.000000
 20
73.000000
 11
-110.000000
 21
96.500000
  0
LINE
  8
0
  6
CONTINUOUS
 62
7
 10
-118.000000
 20
73.000000
 11
-110.000000
 21
73.000000
  0
LINE
  8
0
  6
CONTINUOUS
 62
7
 10
-118.000000
 20
73.000000
 11
-118.000000
 21
82.000000
  0
LINE
  8
0
  6
CONTINUOUS
 62
7
 10
-130.000000
 20
85.000000
 11
-121.000000
 21
85.000000
  0
LINE
  8
0
  6
CONTINUOUS
 62
7
 10
-130.000000
 20
96.500000
 11
-110.000000
 21
96.500000
  0
LINE
  8
0
  6
CONTINUOUS
 62
7
 10
-130.000000
 20
85.000000
 11
-130.000000
 21
96.500000
  0
LINE
  8
0
  6
CONTINUOUS
 62
7
 10
-95.000000
 20
75.000000
 11
-104.500000
 21
75.000000
  0
LINE
  8
0
  6
CONTINUOUS
 62
7
 10
-104.500000
 20
83.000000
 11
-95.000000
 21
83.000000
  0
LINE
  8
0
  6
CONTINUOUS
 62
7
 10
-95.000000
 20
83.000000
 11
-95.000000
 21
75.000000
  0
LINE
  8
0
  6
CONTINUOUS
 62
2
 10
-95.000000
 20
75.625000
 11
-104.500000
 21
75.625000
  0
LINE
  8
0
  6
CONTINUOUS
 62
2
 10
-104.500000
 20
82.375000
 11
-95.000000
 21
82.375000
  0
LINE
  8
0
  6
CENTER
 62
2
 10
-90.826401
 20
79.000000
 11
-122.021004
 21
79.000000
  0
LINE
  8
0
  6
CONTINUOUS
 62
7
 10
-110.000000
 20
84.773499
 11
-104.500000
 21
84.773499
  0
LINE
  8
0
  6
CONTINUOUS
 62
7
 10
-110.000000
 20
73.226501
 11
-104.500000
 21
73.226501
  0
LINE
  8
0
  6
CONTINUOUS
 62
7
 10
-104.500000
 20
84.773499
 11
-104.500000
 21
73.226501
  0
LINE
  8
0
  6
CONTINUOUS
 62
7
 10
-110.000000
 20
81.886703
 11
-104.500000
 21
81.886703
  0
LINE
  8
0
  6
CONTINUOUS
 62
7
 10
-110.000000
 20
76.113197
 11
-104.500000
 21
76.113197
  0
LINE
  8
0
  6
CONTINUOUS
 62
7
 10
-170.000000
 20
84.773499
 11
-175.500000
 21
84.773499
  0
LINE
  8
0
  6
CONTINUOUS
 62
7
 10
-170.000000
 20
73.226501
 11
-175.500000
 21
73.226501
  0
LINE
  8
0
  6
CONTINUOUS
 62
7
 10
-175.500000
 20
84.773499
 11
-175.500000
 21
73.226501
  0
LINE
  8
0
  6
CONTINUOUS
 62
7
 10
-170.000000
 20
81.886703
 11
-175.500000
 21
81.886703
  0
LINE
  8
0
  6
CONTINUOUS
 62
7
 10
-170.000000
 20
76.113197
 11
-175.500000
 21
76.113197
  0
LINE
  8
0
  6
CONTINUOUS
 62
2
 10
-185.000000
 20
75.625000
 11
-175.500000
 21
75.625000
  0
LINE
  8
0
  6
CONTINUOUS
 62
2
 10
-185.000000
 20
82.375000
 11
-175.500000
 21
82.375000
  0
LINE
  8
0
  6
CONTINUOUS
 62
7
 10
-175.500000
 20
84.500000
 11
-188.000000
 21
84.500000
  0
LINE
  8
0
  6
CONTINUOUS
 62
7
 10
-160.000000
 20
77.000000
 11
-155.000000
 21
77.000000
  0
LINE
  8
0
  6
CONTINUOUS
 62
7
 10
-119.342003
 20
84.500000
 11
-160.658005
 21
84.500000
  0
LINE
  8
0
  6
CONTINUOUS
 62
7
 10
258.500000
 20
-29.500000
 11
248.000000
 21
-29.500000
  0
LINE
  8
0
  6
CONTINUOUS
 62
7
 10
217.500000
 20
-29.500000
 11
228.000000
 21
-29.500000
  0
LINE
  8
0
  6
CONTINUOUS
 62
7
 10
228.000000
 20
-22.000000
 11
228.000000
 21
-23.513399
  0
LINE
  8
0
  6
CONTINUOUS
 62
7
 10
228.000000
 20
-26.486601
 11
228.000000
 21
-29.500000
  0
LINE
  8
0
  6
CONTINUOUS
 62
7
 10
258.500000
 20
-42.000000
 11
217.500000
 21
-42.000000
  0
LINE
  8
0
  6
CONTINUOUS
 62
7
 10
248.000000
 20
-22.000000
 11
228.000000
 21
-22.000000
  0
LINE
  8
0
  6
CENTER
 62
2
 10
238.000000
 20
-11.500000
 11
238.000000
 21
-43.500000
  0
LINE
  8
0
  6
CONTINUOUS
 62
7
 10
230.000000
 20
-25.600000
 11
230.000000
 21
-24.400000
  0
LINE
  8
0
  6
CONTINUOUS
 62
7
 10
230.000000
 20
-24.400000
 11
229.093002
 21
-24.240101
  0
LINE
  8
0
  6
CONTINUOUS
 62
7
 10
230.000000
 20
-25.600000
 11
229.093002
 21
-25.759800
  0
LINE
  8
0
  6
CONTINUOUS
 62
7
 10
246.000000
 20
-25.600000
 11
246.000000
 21
-24.400000
  0
LINE
  8
0
  6
CONTINUOUS
 62
7
 10
246.000000
 20
-24.400000
 11
246.906998
 21
-24.240101
  0
LINE
  8
0
  6
CONTINUOUS
 62
7
 10
246.000000
 20
-25.600000
 11
246.906998
 21
-25.759899
  0
LINE
  8
0
  6
CONTINUOUS
 62
7
 10
258.000000
 20
-28.000000
 11
248.000000
 21
-28.000000
  0
LINE
  8
0
  6
CONTINUOUS
 62
7
 10
228.000000
 20
-28.000000
 11
218.000000
 21
-28.000000
  0
LINE
  8
0
  6
CONTINUOUS
 62
7
 10
247.899994
 20
-13.600000
 11
228.100006
 21
-13.600000
  0
LINE
  8
0
  6
CONTINUOUS
 62
7
 10
218.000000
 20
-28.000000
 11
218.000000
 21
-13.000000
  0
LINE
  8
0
  6
CONTINUOUS
 62
7
 10
227.500000
 20
-13.000000
 11
218.000000
 21
-13.000000
  0
LINE
  8
0
  6
CONTINUOUS
 62
7
 10
227.500000
 20
-13.000000
 11
228.100006
 21
-13.600000
  0
LINE
  8
0
  6
CONTINUOUS
 62
7
 10
258.000000
 20
-28.000000
 11
258.000000
 21
-13.000000
  0
LINE
  8
0
  6
CENTER
 62
2
 10
249.039993
 20
-32.000000
 11
226.960007
 21
-32.000000
  0
LINE
  8
0
  6
CONTINUOUS
 62
7
 10
262.000000
 20
-39.541500
 11
262.000000
 21
-31.458599
  0
LINE
  8
0
  6
CONTINUOUS
 62
7
 10
262.000000
 20
-39.541500
 11
258.500000
 21
-39.541500
  0
LINE
  8
0
  6
CONTINUOUS
 62
7
 10
262.000000
 20
-37.562901
 11
259.000000
 21
-37.562901
  0
LINE
  8
0
  6
CENTER
 62
2
 10
263.488007
 20
-35.500000
 11
257.540009
 21
-35.500000
  0
LINE
  8
0
  6
CONTINUOUS
 62
7
 10
262.000000
 20
-33.437199
 11
259.000000
 21
-33.437199
  0
LINE
  8
0
  6
CONTINUOUS
 62
7
 10
262.000000
 20
-31.458599
 11
258.500000
 21
-31.458599
  0
LINE
  8
0
  6
CONTINUOUS
 62
7
 10
259.000000
 20
-39.541500
 11
259.000000
 21
-31.458599
  0
LINE
  8
0
  6
CONTINUOUS
 62
7
 10
235.690994
 20
-17.199900
 11
236.845001
 21
-15.199900
  0
LINE
  8
0
  6
CONTINUOUS
 62
7
 10
239.154999
 20
-19.200001
 11
240.309006
 21
-17.200001
  0
LINE
  8
0
  6
CONTINUOUS
 62
7
 10
239.154999
 20
-19.200001
 11
236.845001
 21
-19.200001
  0
LINE
  8
0
  6
CONTINUOUS
 62
7
 10
239.154999
 20
-15.200000
 11
236.845001
 21
-15.200000
  0
LINE
  8
0
  6
CONTINUOUS
 62
7
 10
236.845001
 20
-19.200001
 11
235.690994
 21
-17.200001
  0
LINE
  8
0
  6
CONTINUOUS
 62
7
 10
240.309006
 20
-17.200001
 11
239.154999
 21
-15.200000
  0
LINE
  8
0
  6
CENTER
 62
2
 10
241.809006
 20
-17.200001
 11
234.190994
 21
-17.200001
  0
LINE
  8
0
  6
CONTINUOUS
 62
7
 10
248.500000
 20
-13.000000
 11
247.899994
 21
-13.600000
  0
LINE
  8
0
  6
CONTINUOUS
 62
7
 10
248.500000
 20
-13.000000
 11
258.000000
 21
-13.000000
  0
LINE
  8
0
  6
CONTINUOUS
 62
7
 10
248.000000
 20
-22.000000
 11
248.000000
 21
-23.513399
  0
LINE
  8
0
  6
CONTINUOUS
 62
7
 10
248.000000
 20
-26.486601
 11
248.000000
 21
-29.500000
  0
LINE
  8
0
  6
CONTINUOUS
 62
7
 10
217.500000
 20
-29.500000
 11
217.500000
 21
-42.000000
  0
LINE
  8
0
  6
CONTINUOUS
 62
7
 10
258.500000
 20
-18.000000
 11
258.500000
 21
-42.000000
  0
LINE
  8
0
  6
CONTINUOUS
 62
7
 10
270.500000
 20
-41.500000
 11
258.500000
 21
-41.500000
  0
LINE
  8
0
  6
CENTER
 62
2
 10
258.200012
 20
-24.000000
 11
270.799988
 21
-24.000000
  0
LINE
  8
0
  6
CENTER
 62
2
 10
264.500000
 20
-30.299999
 11
264.500000
 21
-17.700001
  0
LINE
  8
0
  6
CONTINUOUS
 62
7
 10
264.500000
 20
-18.226601
 11
269.500000
 21
-21.113300
  0
LINE
  8
0
  6
CONTINUOUS
 62
7
 10
259.500000
 20
-26.886801
 11
264.500000
 21
-29.773500
  0
LINE
  8
0
  6
CONTINUOUS
 62
7
 10
259.500000
 20
-26.886700
 11
259.500000
 21
-21.113199
  0
LINE
  8
0
  6
CONTINUOUS
 62
7
 10
264.500000
 20
-29.773399
 11
269.500000
 21
-26.886700
  0
LINE
  8
0
  6
CONTINUOUS
 62
7
 10
259.500000
 20
-21.113100
 11
264.500000
 21
-18.226400
  0
LINE
  8
0
  6
CONTINUOUS
 62
7
 10
269.500000
 20
-26.886700
 11
269.500000
 21
-21.113199
  0
LINE
  8
0
  6
CONTINUOUS
 62
7
 10
270.500000
 20
-18.000000
 11
270.500000
 21
-41.500000
  0
LINE
  8
0
  6
CONTINUOUS
 62
7
 10
270.500000
 20
-18.000000
 11
258.500000
 21
-18.000000
  0
LINE
  8
0
  6
CONTINUOUS
 62
7
 10
264.500000
 20
-21.690701
 11
266.500000
 21
-22.845400
  0
LINE
  8
0
  6
CONTINUOUS
 62
7
 10
262.500000
 20
-25.154800
 11
264.500000
 21
-26.309500
  0
LINE
  8
0
  6
CONTINUOUS
 62
7
 10
266.500000
 20
-25.154699
 11
266.500000
 21
-22.845301
  0
LINE
  8
0
  6
CONTINUOUS
 62
7
 10
262.500000
 20
-25.154699
 11
262.500000
 21
-22.845301
  0
LINE
  8
0
  6
CONTINUOUS
 62
7
 10
264.500000
 20
-26.309299
 11
266.500000
 21
-25.154600
  0
LINE
  8
0
  6
CONTINUOUS
 62
7
 10
262.500000
 20
-22.845200
 11
264.500000
 21
-21.690500
  0
LINE
  8
0
  6
CONTINUOUS
 62
7
 10
270.000000
 20
-14.500000
 11
258.000000
 21
-14.500000
  0
LINE
  8
0
  6
CONTINUOUS
 62
7
 10
270.000000
 20
-18.000000
 11
270.000000
 21
-14.500000
  0
LINE
  8
0
  6
CONTINUOUS
 62
7
 10
-185.000000
 20
-100.500000
 11
-185.000000
 21
-110.000000
  0
LINE
  8
0
  6
CONTINUOUS
 62
7
 10
-185.000000
 20
-110.000000
 11
-175.500000
 21
-110.000000
  0
LINE
  8
0
  6
CENTER
 62
2
 10
-189.173996
 20
-106.000000
 11
-166.345993
 21
-106.000000
  0
LINE
  8
0
  6
CONTINUOUS
 62
7
 10
-175.500000
 20
-101.000000
 11
-175.500000
 21
-111.000000
  0
LINE
  8
0
  6
CONTINUOUS
 62
7
 10
-170.000000
 20
-100.000000
 11
-170.000000
 21
-112.000000
  0
LINE
  8
0
  6
CONTINUOUS
 62
7
 10
-175.500000
 20
-106.000000
 11
-170.000000
 21
-106.000000
  0
LINE
  8
0
  6
CONTINUOUS
 62
2
 10
-185.000000
 20
-109.375000
 11
-175.500000
 21
-109.375000
  0
LINE
  8
0
  6
CONTINUOUS
 62
7
 10
-175.500000
 20
-102.000000
 11
-178.000000
 21
-102.000000
  0
LINE
  8
0
  6
CONTINUOUS
 62
2
 10
-175.500000
 20
-102.625000
 11
-178.000000
 21
-102.625000
  0
LINE
  8
0
  6
CONTINUOUS
 62
7
 10
-170.000000
 20
-101.000000
 11
-175.500000
 21
-101.000000
  0
LINE
  8
0
  6
CONTINUOUS
 62
7
 10
-170.000000
 20
-111.000000
 11
-175.500000
 21
-111.000000
  0
LINE
  8
0
  6
CONTINUOUS
 62
7
 10
-170.000000
 20
-112.000000
 11
-150.000000
 21
-112.000000
  0
LINE
  8
0
  6
CONTINUOUS
 62
7
 10
-150.000000
 20
-100.000000
 11
-150.000000
 21
-112.000000
  0
LINE
  8
0
  6
CONTINUOUS
 62
7
 10
-140.000000
 20
-100.000000
 11
-140.000000
 21
-111.500000
  0
LINE
  8
0
  6
CONTINUOUS
 62
7
 10
-140.000000
 20
-111.500000
 11
-130.000000
 21
-111.500000
  0
LINE
  8
0
  6
CONTINUOUS
 62
7
 10
-130.000000
 20
-100.000000
 11
-130.000000
 21
-112.000000
  0
LINE
  8
0
  6
CONTINUOUS
 62
7
 10
-95.000000
 20
-100.500000
 11
-95.000000
 21
-110.000000
  0
LINE
  8
0
  6
CONTINUOUS
 62
7
 10
-95.000000
 20
-110.000000
 11
-104.500000
 21
-110.000000
  0
LINE
  8
0
  6
CENTER
 62
2
 10
-90.826401
 20
-106.000000
 11
-113.653999
 21
-106.000000
  0
LINE
  8
0
  6
CONTINUOUS
 62
7
 10
-110.000000
 20
-111.000000
 11
-104.500000
 21
-111.000000
  0
LINE
  8
0
  6
CONTINUOUS
 62
7
 10
-104.500000
 20
-101.000000
 11
-104.500000
 21
-111.000000
  0
LINE
  8
0
  6
CONTINUOUS
 62
7
 10
-110.000000
 20
-100.000000
 11
-110.000000
 21
-112.000000
  0
LINE
  8
0
  6
CONTINUOUS
 62
7
 10
-104.500000
 20
-106.000000
 11
-110.000000
 21
-106.000000
  0
LINE
  8
0
  6
CONTINUOUS
 62
2
 10
-95.000000
 20
-109.375000
 11
-104.500000
 21
-109.375000
  0
LINE
  8
0
  6
CONTINUOUS
 62
7
 10
-110.000000
 20
-112.000000
 11
-130.000000
 21
-112.000000
  0
LINE
  8
0
  6
CONTINUOUS
 62
7
 10
-104.500000
 20
-102.000000
 11
-102.000000
 21
-102.000000
  0
LINE
  8
0
  6
CONTINUOUS
 62
2
 10
-104.500000
 20
-102.625000
 11
-102.000000
 21
-102.625000
  0
LINE
  8
0
  6
CONTINUOUS
 62
7
 10
-110.000000
 20
-101.000000
 11
-104.500000
 21
-101.000000
  0
LINE
  8
0
  6
CONTINUOUS
 62
7
 10
117.000000
 20
-22.000000
 11
117.000000
 21
-21.350000
  0
LINE
  8
0
  6
CONTINUOUS
 62
7
 10
107.000000
 20
-18.000000
 11
107.000000
 21
-22.000000
  0
LINE
  8
0
  6
CONTINUOUS
 62
7
 10
115.000000
 20
-18.000000
 11
107.000000
 21
-18.000000
  0
LINE
  8
0
  6
CONTINUOUS
 62
7
 10
115.000000
 20
-18.000000
 11
115.000000
 21
-22.000000
  0
LINE
  8
0
  6
CONTINUOUS
 62
7
 10
92.000000
 20
-20.000000
 11
101.500000
 21
-20.000000
  0
LINE
  8
0
  6
CONTINUOUS
 62
2
 10
115.500000
 20
-20.625000
 11
115.000000
 21
-20.625000
  0
LINE
  8
0
  6
CONTINUOUS
 62
7
 10
92.000000
 20
-22.000000
 11
92.000000
 21
-20.000000
  0
LINE
  8
0
  6
CONTINUOUS
 62
2
 10
92.000000
 20
-20.625000
 11
101.500000
 21
-20.625000
  0
LINE
  8
0
  6
CONTINUOUS
 62
7
 10
115.500000
 20
-20.000000
 11
115.000000
 21
-20.000000
  0
LINE
  8
0
  6
CONTINUOUS
 62
7
 10
107.000000
 20
-18.226500
 11
101.500000
 21
-18.226500
  0
LINE
  8
0
  6
CONTINUOUS
 62
7
 10
101.500000
 20
-22.000000
 11
101.500000
 21
-18.226500
  0
LINE
  8
0
  6
CONTINUOUS
 62
7
 10
107.000000
 20
-21.113199
 11
101.500000
 21
-21.113199
  0
LINE
  8
0
  6
CONTINUOUS
 62
7
 10
192.000000
 20
-22.000000
 11
192.000000
 21
-20.000000
  0
LINE
  8
0
  6
CONTINUOUS
 62
2
 10
192.000000
 20
-20.625000
 11
191.000000
 21
-20.625000
  0
LINE
  8
0
  6
CONTINUOUS
 62
7
 10
192.000000
 20
-20.000000
 11
191.000000
 21
-20.000000
  0
LINE
  8
0
  6
CONTINUOUS
 62
7
 10
92.000000
 20
53.000000
 11
92.000000
 21
45.000000
  0
LINE
  8
0
  6
CONTINUOUS
 62
7
 10
92.000000
 20
45.000000
 11
101.500000
 21
45.000000
  0
LINE
  8
0
  6
CONTINUOUS
 62
2
 10
92.000000
 20
45.625000
 11
101.500000
 21
45.625000
  0
LINE
  8
0
  6
CONTINUOUS
 62
2
 10
101.500000
 20
52.375000
 11
92.000000
 21
52.375000
  0
LINE
  8
0
  6
CONTINUOUS
 62
7
 10
101.500000
 20
53.000000
 11
92.000000
 21
53.000000
  0
LINE
  8
0
  6
CONTINUOUS
 62
7
 10
127.000000
 20
55.000000
 11
127.000000
 21
43.000000
  0
LINE
  8
0
  6
CENTER
 62
2
 10
90.000000
 20
49.000000
 11
119.021004
 21
49.000000
  0
LINE
  8
0
  6
CONTINUOUS
 62
7
 10
127.000000
 20
55.000000
 11
107.000000
 21
55.000000
  0
LINE
  8
0
  6
CONTINUOUS
 62
7
 10
115.000000
 20
55.000000
 11
115.000000
 21
43.000000
  0
LINE
  8
0
  6
CONTINUOUS
 62
7
 10
101.500000
 20
54.000000
 11
101.500000
 21
44.000000
  0
LINE
  8
0
  6
CONTINUOUS
 62
7
 10
107.000000
 20
55.000000
 11
107.000000
 21
43.000000
  0
LINE
  8
0
  6
CONTINUOUS
 62
7
 10
101.500000
 20
49.000000
 11
107.000000
 21
49.000000
  0
LINE
  8
0
  6
CONTINUOUS
 62
7
 10
107.000000
 20
54.000000
 11
101.500000
 21
54.000000
  0
LINE
  8
0
  6
CONTINUOUS
 62
7
 10
107.000000
 20
44.000000
 11
101.500000
 21
44.000000
  0
LINE
  8
0
  6
CONTINUOUS
 62
7
 10
92.000000
 20
83.000000
 11
92.000000
 21
75.000000
  0
LINE
  8
0
  6
CONTINUOUS
 62
7
 10
127.000000
 20
96.500000
 11
107.000000
 21
96.500000
  0
LINE
  8
0
  6
CONTINUOUS
 62
7
 10
107.000000
 20
73.000000
 11
107.000000
 21
96.500000
  0
LINE
  8
0
  6
CONTINUOUS
 62
7
 10
115.000000
 20
73.000000
 11
115.000000
 21
82.000000
  0
LINE
  8
0
  6
CONTINUOUS
 62
7
 10
92.000000
 20
75.000000
 11
101.500000
 21
75.000000
  0
LINE
  8
0
  6
CONTINUOUS
 62
7
 10
101.500000
 20
83.000000
 11
92.000000
 21
83.000000
  0
LINE
  8
0
  6
CENTER
 62
2
 10
90.000000
 20
79.000000
 11
119.021004
 21
79.000000
  0
LINE
  8
0
  6
CONTINUOUS
 62
7
 10
101.500000
 20
84.773499
 11
101.500000
 21
73.226501
  0
LINE
  8
0
  6
CONTINUOUS
 62
7
 10
107.000000
 20
81.886703
 11
101.500000
 21
81.886703
  0
LINE
  8
0
  6
CONTINUOUS
 62
7
 10
107.000000
 20
76.113197
 11
101.500000
 21
76.113197
  0
LINE
  8
0
  6
CONTINUOUS
 62
2
 10
92.000000
 20
75.625000
 11
101.500000
 21
75.625000
  0
LINE
  8
0
  6
CONTINUOUS
 62
2
 10
92.000000
 20
82.375000
 11
101.500000
 21
82.375000
  0
LINE
  8
0
  6
CONTINUOUS
 62
7
 10
107.000000
 20
84.773499
 11
101.500000
 21
84.773499
  0
LINE
  8
0
  6
CONTINUOUS
 62
7
 10
107.000000
 20
73.226501
 11
101.500000
 21
73.226501
  0
LINE
  8
0
  6
CONTINUOUS
 62
7
 10
115.000000
 20
73.000000
 11
107.000000
 21
73.000000
  0
LINE
  8
0
  6
CONTINUOUS
 62
7
 10
127.000000
 20
85.000000
 11
127.000000
 21
96.500000
  0
LINE
  8
0
  6
CONTINUOUS
 62
7
 10
127.000000
 20
85.000000
 11
118.000000
 21
85.000000
  0
LINE
  8
0
  6
CONTINUOUS
 62
7
 10
117.000000
 20
77.000000
 11
123.000000
 21
77.000000
  0
LINE
  8
0
  6
CONTINUOUS
 62
7
 10
101.500000
 20
84.500000
 11
79.000000
 21
84.500000
  0
LINE
  8
0
  6
CONTINUOUS
 62
7
 10
192.000000
 20
53.000000
 11
192.000000
 21
45.000000
  0
LINE
  8
0
  6
CONTINUOUS
 62
2
 10
192.000000
 20
45.625000
 11
182.500000
 21
45.625000
  0
LINE
  8
0
  6
CONTINUOUS
 62
7
 10
192.000000
 20
45.000000
 11
182.500000
 21
45.000000
  0
LINE
  8
0
  6
CONTINUOUS
 62
2
 10
182.500000
 20
52.375000
 11
192.000000
 21
52.375000
  0
LINE
  8
0
  6
CONTINUOUS
 62
7
 10
182.500000
 20
53.000000
 11
192.000000
 21
53.000000
  0
LINE
  8
0
  6
CONTINUOUS
 62
7
 10
182.500000
 20
49.000000
 11
177.000000
 21
49.000000
  0
LINE
  8
0
  6
CONTINUOUS
 62
7
 10
182.500000
 20
54.000000
 11
182.500000
 21
44.000000
  0
LINE
  8
0
  6
CONTINUOUS
 62
7
 10
177.000000
 20
44.000000
 11
182.500000
 21
44.000000
  0
LINE
  8
0
  6
CONTINUOUS
 62
7
 10
177.000000
 20
54.000000
 11
182.500000
 21
54.000000
  0
LINE
  8
0
  6
CONTINUOUS
 62
7
 10
177.000000
 20
55.000000
 11
177.000000
 21
43.000000
  0
LINE
  8
0
  6
CENTER
 62
2
 10
196.173996
 20
49.000000
 11
164.979004
 21
49.000000
  0
LINE
  8
0
  6
CONTINUOUS
 62
7
 10
167.000000
 20
54.500000
 11
167.000000
 21
42.500000
  0
LINE
  8
0
  6
CONTINUOUS
 62
7
 10
147.000000
 20
54.500000
 11
167.000000
 21
54.500000
  0
LINE
  8
0
  6
CONTINUOUS
 62
7
 10
147.000000
 20
54.500000
 11
147.000000
 21
42.500000
  0
LINE
  8
0
  6
CONTINUOUS
 62
7
 10
157.000000
 20
55.000000
 11
177.000000
 21
55.000000
  0
LINE
  8
0
  6
CONTINUOUS
 62
7
 10
169.000000
 20
55.000000
 11
169.000000
 21
43.000000
  0
LINE
  8
0
  6
CONTINUOUS
 62
7
 10
157.000000
 20
55.000000
 11
157.000000
 21
54.500000
  0
LINE
  8
0
  6
CONTINUOUS
 62
7
 10
147.000000
 20
69.500000
 11
147.000000
 21
83.500000
  0
LINE
  8
0
  6
CONTINUOUS
 62
7
 10
167.000000
 20
69.500000
 11
147.000000
 21
69.500000
  0
LINE
  8
0
  6
CONTINUOUS
 62
7
 10
167.000000
 20
83.500000
 11
147.000000
 21
83.500000
  0
LINE
  8
0
  6
CONTINUOUS
 62
7
 10
167.000000
 20
69.500000
 11
167.000000
 21
83.500000
  0
LINE
  8
0
  6
CONTINUOUS
 62
7
 10
167.000000
 20
83.000000
 11
168.828003
 21
83.000000
  0
LINE
  8
0
  6
CENTER
 62
2
 10
196.173996
 20
79.000000
 11
164.979004
 21
79.000000
  0
LINE
  8
0
  6
CONTINUOUS
 62
7
 10
169.000000
 20
73.000000
 11
169.000000
 21
82.000000
  0
LINE
  8
0
  6
CONTINUOUS
 62
7
 10
169.000000
 20
73.000000
 11
177.000000
 21
73.000000
  0
LINE
  8
0
  6
CONTINUOUS
 62
7
 10
192.000000
 20
83.000000
 11
192.000000
 21
75.000000
  0
LINE
  8
0
  6
CONTINUOUS
 62
7
 10
157.000000
 20
85.000000
 11
166.000000
 21
85.000000
  0
LINE
  8
0
  6
CONTINUOUS
 62
7
 10
177.000000
 20
73.000000
 11
177.000000
 21
96.500000
  0
LINE
  8
0
  6
CONTINUOUS
 62
7
 10
192.000000
 20
75.000000
 11
182.500000
 21
75.000000
  0
LINE
  8
0
  6
CONTINUOUS
 62
2
 10
192.000000
 20
75.625000
 11
182.500000
 21
75.625000
  0
LINE
  8
0
  6
CONTINUOUS
 62
2
 10
182.500000
 20
82.375000
 11
192.000000
 21
82.375000
  0
LINE
  8
0
  6
CONTINUOUS
 62
7
 10
177.000000
 20
84.773499
 11
182.500000
 21
84.773499
  0
LINE
  8
0
  6
CONTINUOUS
 62
7
 10
177.000000
 20
73.226501
 11
182.500000
 21
73.226501
  0
LINE
  8
0
  6
CONTINUOUS
 62
7
 10
182.500000
 20
84.773499
 11
182.500000
 21
73.226501
  0
LINE
  8
0
  6
CONTINUOUS
 62
7
 10
177.000000
 20
81.886703
 11
182.500000
 21
81.886703
  0
LINE
  8
0
  6
CONTINUOUS
 62
7
 10
177.000000
 20
76.113197
 11
182.500000
 21
76.113197
  0
LINE
  8
0
  6
CONTINUOUS
 62
7
 10
157.000000
 20
96.500000
 11
177.000000
 21
96.500000
  0
LINE
  8
0
  6
CONTINUOUS
 62
7
 10
157.000000
 20
85.000000
 11
157.000000
 21
96.500000
  0
LINE
  8
0
  6
CONTINUOUS
 62
7
 10
167.000000
 20
43.000000
 11
205.000000
 21
43.000000
  0
LINE
  8
0
  6
CONTINUOUS
 62
7
 10
167.658005
 20
84.500000
 11
116.342003
 21
84.500000
  0
LINE
  8
0
  6
CONTINUOUS
 62
7
 10
-256.500000
 20
-29.500000
 11
-246.000000
 21
-29.500000
  0
LINE
  8
0
  6
CONTINUOUS
 62
7
 10
-215.500000
 20
-29.500000
 11
-226.000000
 21
-29.500000
  0
LINE
  8
0
  6
CONTINUOUS
 62
7
 10
-226.000000
 20
-22.000000
 11
-226.000000
 21
-23.513399
  0
LINE
  8
0
  6
CONTINUOUS
 62
7
 10
-226.000000
 20
-26.486601
 11
-226.000000
 21
-29.500000
  0
LINE
  8
0
  6
CONTINUOUS
 62
7
 10
-256.500000
 20
-42.000000
 11
-215.500000
 21
-42.000000
  0
LINE
  8
0
  6
CONTINUOUS
 62
7
 10
-246.000000
 20
-22.000000
 11
-226.000000
 21
-22.000000
  0
LINE
  8
0
  6
CENTER
 62
2
 10
-236.000000
 20
-11.500000
 11
-236.000000
 21
-43.500000
  0
LINE
  8
0
  6
CONTINUOUS
 62
7
 10
-228.000000
 20
-25.600000
 11
-228.000000
 21
-24.400000
  0
LINE
  8
0
  6
CONTINUOUS
 62
7
 10
-228.000000
 20
-24.400000
 11
-227.093002
 21
-24.240101
  0
LINE
  8
0
  6
CONTINUOUS
 62
7
 10
-228.000000
 20
-25.600000
 11
-227.093002
 21
-25.759899
  0
LINE
  8
0
  6
CONTINUOUS
 62
7
 10
-244.000000
 20
-25.600000
 11
-244.000000
 21
-24.400000
  0
LINE
  8
0
  6
CONTINUOUS
 62
7
 10
-244.000000
 20
-24.400000
 11
-244.906998
 21
-24.240101
  0
LINE
  8
0
  6
CONTINUOUS
 62
7
 10
-244.000000
 20
-25.600000
 11
-244.906998
 21
-25.759800
  0
LINE
  8
0
  6
CONTINUOUS
 62
7
 10
-256.000000
 20
-28.000000
 11
-246.000000
 21
-28.000000
  0
LINE
  8
0
  6
CONTINUOUS
 62
7
 10
-226.000000
 20
-28.000000
 11
-216.000000
 21
-28.000000
  0
LINE
  8
0
  6
CONTINUOUS
 62
7
 10
-245.899994
 20
-13.600000
 11
-226.100006
 21
-13.600000
  0
LINE
  8
0
  6
CONTINUOUS
 62
7
 10
-216.000000
 20
-28.000000
 11
-216.000000
 21
-13.000000
  0
LINE
  8
0
  6
CONTINUOUS
 62
7
 10
-225.500000
 20
-13.000000
 11
-216.000000
 21
-13.000000
  0
LINE
  8
0
  6
CONTINUOUS
 62
7
 10
-225.500000
 20
-13.000100
 11
-226.100006
 21
-13.600100
  0
LINE
  8
0
  6
CONTINUOUS
 62
7
 10
-256.000000
 20
-28.000000
 11
-256.000000
 21
-13.000000
  0
LINE
  8
0
  6
CENTER
 62
2
 10
-247.039993
 20
-32.000000
 11
-224.960007
 21
-32.000000
  0
LINE
  8
0
  6
CONTINUOUS
 62
7
 10
-260.000000
 20
-39.541500
 11
-260.000000
 21
-31.458500
  0
LINE
  8
0
  6
CONTINUOUS
 62
7
 10
-260.000000
 20
-39.541500
 11
-256.500000
 21
-39.541500
  0
LINE
  8
0
  6
CONTINUOUS
 62
7
 10
-260.000000
 20
-37.562901
 11
-257.000000
 21
-37.562901
  0
LINE
  8
0
  6
CENTER
 62
2
 10
-261.488007
 20
-35.500000
 11
-255.539993
 21
-35.500000
  0
LINE
  8
0
  6
CONTINUOUS
 62
7
 10
-260.000000
 20
-33.437199
 11
-257.000000
 21
-33.437199
  0
LINE
  8
0
  6
CONTINUOUS
 62
7
 10
-260.000000
 20
-31.458500
 11
-256.500000
 21
-31.458500
  0
LINE
  8
0
  6
CONTINUOUS
 62
7
 10
-257.000000
 20
-39.541500
 11
-257.000000
 21
-31.458500
  0
LINE
  8
0
  6
CONTINUOUS
 62
7
 10
-233.690994
 20
-17.199900
 11
-234.845001
 21
-15.200000
  0
LINE
  8
0
  6
CONTINUOUS
 62
7
 10
-237.154999
 20
-19.200001
 11
-238.309006
 21
-17.200001
  0
LINE
  8
0
  6
CONTINUOUS
 62
7
 10
-237.154999
 20
-19.200001
 11
-234.845001
 21
-19.200001
  0
LINE
  8
0
  6
CONTINUOUS
 62
7
 10
-237.154999
 20
-15.200000
 11
-234.845001
 21
-15.200000
  0
LINE
  8
0
  6
CONTINUOUS
 62
7
 10
-234.845001
 20
-19.200001
 11
-233.690994
 21
-17.200001
  0
LINE
  8
0
  6
CONTINUOUS
 62
7
 10
-238.309006
 20
-17.200001
 11
-237.154999
 21
-15.200000
  0
LINE
  8
0
  6
CENTER
 62
2
 10
-239.809006
 20
-17.200001
 11
-232.190994
 21
-17.200001
  0
LINE
  8
0
  6
CONTINUOUS
 62
7
 10
-246.500000
 20
-13.000000
 11
-245.899994
 21
-13.600000
  0
LINE
  8
0
  6
CONTINUOUS
 62
7
 10
-246.500000
 20
-13.000000
 11
-256.000000
 21
-13.000000
  0
LINE
  8
0
  6
CONTINUOUS
 62
7
 10
-246.000000
 20
-22.000000
 11
-246.000000
 21
-23.513399
  0
LINE
  8
0
  6
CONTINUOUS
 62
7
 10
-246.000000
 20
-26.486601
 11
-246.000000
 21
-29.500000
  0
LINE
  8
0
  6
CONTINUOUS
 62
7
 10
-215.500000
 20
-29.500000
 11
-215.500000
 21
-42.000000
  0
LINE
  8
0
  6
CONTINUOUS
 62
7
 10
-256.500000
 20
-18.000000
 11
-256.500000
 21
-42.000000
  0
LINE
  8
0
  6
CONTINUOUS
 62
7
 10
-268.500000
 20
-41.500000
 11
-256.500000
 21
-41.500000
  0
LINE
  8
0
  6
CENTER
 62
2
 10
-256.200012
 20
-24.000000
 11
-268.799988
 21
-24.000000
  0
LINE
  8
0
  6
CENTER
 62
2
 10
-262.500000
 20
-30.299999
 11
-262.500000
 21
-17.700001
  0
LINE
  8
0
  6
CONTINUOUS
 62
7
 10
-262.500000
 20
-18.226500
 11
-267.500000
 21
-21.113300
  0
LINE
  8
0
  6
CONTINUOUS
 62
7
 10
-257.500000
 20
-26.886801
 11
-262.500000
 21
-29.773600
  0
LINE
  8
0
  6
CONTINUOUS
 62
7
 10
-257.500000
 20
-26.886700
 11
-257.500000
 21
-21.113199
  0
LINE
  8
0
  6
CONTINUOUS
 62
7
 10
-262.500000
 20
-29.773500
 11
-267.500000
 21
-26.886700
  0
LINE
  8
0
  6
CONTINUOUS
 62
7
 10
-257.500000
 20
-21.113199
 11
-262.500000
 21
-18.226500
  0
LINE
  8
0
  6
CONTINUOUS
 62
7
 10
-267.500000
 20
-26.886700
 11
-267.500000
 21
-21.113199
  0
LINE
  8
0
  6
CONTINUOUS
 62
7
 10
-268.500000
 20
-18.000000
 11
-268.500000
 21
-41.500000
  0
LINE
  8
0
  6
CONTINUOUS
 62
7
 10
-268.500000
 20
-18.000000
 11
-256.500000
 21
-18.000000
  0
LINE
  8
0
  6
CONTINUOUS
 62
7
 10
-262.500000
 20
-21.690701
 11
-264.500000
 21
-22.845400
  0
LINE
  8
0
  6
CONTINUOUS
 62
7
 10
-260.500000
 20
-25.154699
 11
-262.500000
 21
-26.309401
  0
LINE
  8
0
  6
CONTINUOUS
 62
7
 10
-264.500000
 20
-25.154699
 11
-264.500000
 21
-22.845301
  0
LINE
  8
0
  6
CONTINUOUS
 62
7
 10
-260.500000
 20
-25.154699
 11
-260.500000
 21
-22.845301
  0
LINE
  8
0
  6
CONTINUOUS
 62
7
 10
-262.500000
 20
-26.309401
 11
-264.500000
 21
-25.154699
  0
LINE
  8
0
  6
CONTINUOUS
 62
7
 10
-260.500000
 20
-22.845301
 11
-262.500000
 21
-21.690599
  0
LINE
  8
0
  6
CONTINUOUS
 62
7
 10
-268.000000
 20
-14.500000
 11
-256.000000
 21
-14.500000
  0
LINE
  8
0
  6
CONTINUOUS
 62
7
 10
-268.000000
 20
-18.000000
 11
-268.000000
 21
-14.500000
  0
LINE
  8
0
  6
CONTINUOUS
 62
7
 10
-23.500000
 20
-29.500000
 11
-34.000000
 21
-29.500000
  0
LINE
  8
0
  6
CONTINUOUS
 62
7
 10
-64.500000
 20
-29.500000
 11
-54.000000
 21
-29.500000
  0
LINE
  8
0
  6
CONTINUOUS
 62
7
 10
-54.000000
 20
-22.000000
 11
-54.000000
 21
-23.513399
  0
LINE
  8
0
  6
CONTINUOUS
 62
7
 10
-54.000000
 20
-26.486601
 11
-54.000000
 21
-29.500000
  0
LINE
  8
0
  6
CONTINUOUS
 62
7
 10
-23.500000
 20
-42.000000
 11
-64.500000
 21
-42.000000
  0
LINE
  8
0
  6
CONTINUOUS
 62
7
 10
-34.000000
 20
-22.000000
 11
-54.000000
 21
-22.000000
  0
LINE
  8
0
  6
CENTER
 62
2
 10
-44.000000
 20
-11.500000
 11
-44.000000
 21
-43.500000
  0
LINE
  8
0
  6
CONTINUOUS
 62
7
 10
-52.000000
 20
-25.600000
 11
-52.000000
 21
-24.400000
  0
LINE
  8
0
  6
CONTINUOUS
 62
7
 10
-52.000000
 20
-24.400000
 11
-52.906700
 21
-24.240101
  0
LINE
  8
0
  6
CONTINUOUS
 62
7
 10
-52.000000
 20
-25.600000
 11
-52.906700
 21
-25.759899
  0
LINE
  8
0
  6
CONTINUOUS
 62
7
 10
-36.000000
 20
-25.600000
 11
-36.000000
 21
-24.400000
  0
LINE
  8
0
  6
CONTINUOUS
 62
7
 10
-36.000000
 20
-24.400000
 11
-35.093300
 21
-24.240101
  0
LINE
  8
0
  6
CONTINUOUS
 62
7
 10
-36.000000
 20
-25.600000
 11
-35.093300
 21
-25.759899
  0
LINE
  8
0
  6
CONTINUOUS
 62
7
 10
-24.000000
 20
-28.000000
 11
-34.000000
 21
-28.000000
  0
LINE
  8
0
  6
CONTINUOUS
 62
7
 10
-54.000000
 20
-28.000000
 11
-64.000000
 21
-28.000000
  0
LINE
  8
0
  6
CONTINUOUS
 62
7
 10
-34.099998
 20
-13.600000
 11
-53.900002
 21
-13.600000
  0
LINE
  8
0
  6
CONTINUOUS
 62
7
 10
-64.000000
 20
-28.000000
 11
-64.000000
 21
-13.000000
  0
LINE
  8
0
  6
CONTINUOUS
 62
7
 10
-54.500000
 20
-13.000000
 11
-64.000000
 21
-13.000000
  0
LINE
  8
0
  6
CONTINUOUS
 62
7
 10
-54.500000
 20
-13.000000
 11
-53.900002
 21
-13.600000
  0
LINE
  8
0
  6
CONTINUOUS
 62
7
 10
-24.000000
 20
-28.000000
 11
-24.000000
 21
-13.000000
  0
LINE
  8
0
  6
CENTER
 62
2
 10
-32.959999
 20
-32.000000
 11
-55.040001
 21
-32.000000
  0
LINE
  8
0
  6
CONTINUOUS
 62
7
 10
-20.000000
 20
-39.541500
 11
-20.000000
 21
-31.458500
  0
LINE
  8
0
  6
CONTINUOUS
 62
7
 10
-20.000000
 20
-39.541500
 11
-23.500000
 21
-39.541500
  0
LINE
  8
0
  6
CONTINUOUS
 62
7
 10
-20.000000
 20
-37.562901
 11
-23.000000
 21
-37.562901
  0
LINE
  8
0
  6
CENTER
 62
2
 10
-18.511700
 20
-35.500000
 11
-24.459999
 21
-35.500000
  0
LINE
  8
0
  6
CONTINUOUS
 62
7
 10
-20.000000
 20
-33.437199
 11
-23.000000
 21
-33.437199
  0
LINE
  8
0
  6
CONTINUOUS
 62
7
 10
-20.000000
 20
-31.458500
 11
-23.500000
 21
-31.458500
  0
LINE
  8
0
  6
CONTINUOUS
 62
7
 10
-23.000000
 20
-39.541500
 11
-23.000000
 21
-31.458500
  0
LINE
  8
0
  6
CONTINUOUS
 62
7
 10
-46.309399
 20
-17.200001
 11
-45.154701
 21
-15.200000
  0
LINE
  8
0
  6
CONTINUOUS
 62
7
 10
-42.845299
 20
-19.200001
 11
-41.690601
 21
-17.200001
  0
LINE
  8
0
  6
CONTINUOUS
 62
7
 10
-42.845299
 20
-19.200001
 11
-45.154701
 21
-19.200001
  0
LINE
  8
0
  6
CONTINUOUS
 62
7
 10
-42.845299
 20
-15.200000
 11
-45.154701
 21
-15.200000
  0
LINE
  8
0
  6
CONTINUOUS
 62
7
 10
-45.154701
 20
-19.200001
 11
-46.309399
 21
-17.200001
  0
LINE
  8
0
  6
CONTINUOUS
 62
7
 10
-41.690601
 20
-17.200001
 11
-42.845299
 21
-15.200000
  0
LINE
  8
0
  6
CENTER
 62
2
 10
-40.190601
 20
-17.200001
 11
-47.809399
 21
-17.200001
  0
LINE
  8
0
  6
CONTINUOUS
 62
7
 10
-33.500000
 20
-13.000000
 11
-34.099998
 21
-13.600000
  0
LINE
  8
0
  6
CONTINUOUS
 62
7
 10
-33.500000
 20
-13.000000
 11
-24.000000
 21
-13.000000
  0
LINE
  8
0
  6
CONTINUOUS
 62
7
 10
-34.000000
 20
-22.000000
 11
-34.000000
 21
-23.513399
  0
LINE
  8
0
  6
CONTINUOUS
 62
7
 10
-34.000000
 20
-26.486601
 11
-34.000000
 21
-29.500000
  0
LINE
  8
0
  6
CONTINUOUS
 62
7
 10
-64.500000
 20
-29.500000
 11
-64.500000
 21
-42.000000
  0
LINE
  8
0
  6
CONTINUOUS
 62
7
 10
-23.500000
 20
-18.000000
 11
-23.500000
 21
-42.000000
  0
LINE
  8
0
  6
CONTINUOUS
 62
7
 10
-11.500000
 20
-41.500000
 11
-23.500000
 21
-41.500000
  0
LINE
  8
0
  6
CENTER
 62
2
 10
-23.799999
 20
-24.000000
 11
-11.200000
 21
-24.000000
  0
LINE
  8
0
  6
CENTER
 62
2
 10
-17.500000
 20
-30.299999
 11
-17.500000
 21
-17.700001
  0
LINE
  8
0
  6
CONTINUOUS
 62
7
 10
-17.500000
 20
-18.226500
 11
-12.500000
 21
-21.113300
  0
LINE
  8
0
  6
CONTINUOUS
 62
7
 10
-22.500000
 20
-26.886700
 11
-17.500000
 21
-29.773500
  0
LINE
  8
0
  6
CONTINUOUS
 62
7
 10
-22.500000
 20
-26.886700
 11
-22.500000
 21
-21.113199
  0
LINE
  8
0
  6
CONTINUOUS
 62
7
 10
-17.500000
 20
-29.773500
 11
-12.500000
 21
-26.886801
  0
LINE
  8
0
  6
CONTINUOUS
 62
7
 10
-22.500000
 20
-21.113199
 11
-17.500000
 21
-18.226500
  0
LINE
  8
0
  6
CONTINUOUS
 62
7
 10
-12.500000
 20
-26.886700
 11
-12.500000
 21
-21.113199
  0
LINE
  8
0
  6
CONTINUOUS
 62
7
 10
-11.500000
 20
-18.000000
 11
-11.500000
 21
-41.500000
  0
LINE
  8
0
  6
CONTINUOUS
 62
7
 10
-11.500000
 20
-18.000000
 11
-23.500000
 21
-18.000000
  0
LINE
  8
0
  6
CONTINUOUS
 62
7
 10
-17.500000
 20
-21.690599
 11
-15.500000
 21
-22.845301
  0
LINE
  8
0
  6
CONTINUOUS
 62
7
 10
-19.500000
 20
-25.154699
 11
-17.500000
 21
-26.309401
  0
LINE
  8
0
  6
CONTINUOUS
 62
7
 10
-15.500000
 20
-25.154699
 11
-15.500000
 21
-22.845301
  0
LINE
  8
0
  6
CONTINUOUS
 62
7
 10
-19.500000
 20
-25.154699
 11
-19.500000
 21
-22.845301
  0
LINE
  8
0
  6
CONTINUOUS
 62
7
 10
-17.500000
 20
-26.309401
 11
-15.500000
 21
-25.154699
  0
LINE
  8
0
  6
CONTINUOUS
 62
7
 10
-19.500000
 20
-22.845301
 11
-17.500000
 21
-21.690599
  0
LINE
  8
0
  6
CONTINUOUS
 62
7
 10
-12.000000
 20
-14.500000
 11
-24.000000
 21
-14.500000
  0
LINE
  8
0
  6
CONTINUOUS
 62
7
 10
-12.000000
 20
-18.000000
 11
-12.000000
 21
-14.500000
  0
LINE
  8
0
  6
CENTER
 62
2
 10
-181.500000
 20
-31.000000
 11
-181.500000
 21
-40.000000
  0
LINE
  8
0
  6
CENTER
 62
2
 10
-186.000000
 20
-35.500000
 11
-177.000000
 21
-35.500000
  0
LINE
  8
0
  6
CENTER
 62
2
 10
-98.500000
 20
-31.000000
 11
-98.500000
 21
-40.000000
  0
LINE
  8
0
  6
CENTER
 62
2
 10
-103.000000
 20
-35.500000
 11
-94.000000
 21
-35.500000
  0
LINE
  8
0
  6
CENTER
 62
2
 10
85.500000
 20
-31.000000
 11
85.500000
 21
-40.000000
  0
LINE
  8
0
  6
CENTER
 62
2
 10
81.000000
 20
-35.500000
 11
90.000000
 21
-35.500000
  0
LINE
  8
0
  6
CENTER
 62
2
 10
198.500000
 20
-31.000000
 11
198.500000
 21
-40.000000
  0
LINE
  8
0
  6
CENTER
 62
2
 10
194.000000
 20
-35.500000
 11
203.000000
 21
-35.500000
  0
LINE
  8
0
  6
CONTINUOUS
 62
2
 10
-118.500000
 20
52.375000
 11
-118.024002
 21
52.375000
  0
LINE
  8
0
  6
CONTINUOUS
 62
7
 10
-118.500000
 20
46.349998
 11
-120.000000
 21
46.349998
  0
LINE
  8
0
  6
CONTINUOUS
 62
2
 10
-118.500000
 20
75.625000
 11
-118.000000
 21
75.625000
  0
LINE
  8
0
  6
CONTINUOUS
 62
7
 10
-118.500000
 20
76.349998
 11
-120.000000
 21
76.349998
  0
LINE
  8
0
  6
CONTINUOUS
 62
7
 10
-118.500000
 20
75.000000
 11
-118.000000
 21
75.000000
  0
LINE
  8
0
  6
CONTINUOUS
 62
7
 10
-118.500000
 20
81.650002
 11
-120.000000
 21
81.650002
  0
LINE
  8
0
  6
CONTINUOUS
 62
7
 10
-118.500000
 20
83.000000
 11
-118.500000
 21
75.000000
  0
LINE
  8
0
  6
CONTINUOUS
 62
2
 10
-118.500000
 20
82.375000
 11
-118.024002
 21
82.375000
  0
LINE
  8
0
  6
CONTINUOUS
 62
7
 10
-118.500000
 20
83.000000
 11
-118.171997
 21
83.000000
  0
LINE
  8
0
  6
CONTINUOUS
 62
7
 10
-118.500000
 20
53.000000
 11
-118.000000
 21
53.000000
  0
LINE
  8
0
  6
CONTINUOUS
 62
7
 10
-118.500000
 20
51.650002
 11
-120.000000
 21
51.650002
  0
LINE
  8
0
  6
CONTINUOUS
 62
7
 10
-118.500000
 20
53.000000
 11
-118.500000
 21
45.000000
  0
LINE
  8
0
  6
CONTINUOUS
 62
2
 10
-118.500000
 20
45.625000
 11
-118.000000
 21
45.625000
  0
LINE
  8
0
  6
CONTINUOUS
 62
7
 10
-118.500000
 20
45.000000
 11
-118.000000
 21
45.000000
  0
LINE
  8
0
  6
CONTINUOUS
 62
2
 10
-161.500000
 20
52.375000
 11
-161.977005
 21
52.375000
  0
LINE
  8
0
  6
CONTINUOUS
 62
7
 10
-161.500000
 20
46.349998
 11
-160.000000
 21
46.349998
  0
LINE
  8
0
  6
CONTINUOUS
 62
7
 10
-160.000000
 20
51.650002
 11
-160.000000
 21
46.349998
  0
LINE
  8
0
  6
CONTINUOUS
 62
7
 10
-160.000000
 20
81.650002
 11
-160.000000
 21
76.349998
  0
LINE
  8
0
  6
CONTINUOUS
 62
2
 10
-161.500000
 20
75.625000
 11
-162.000000
 21
75.625000
  0
LINE
  8
0
  6
CONTINUOUS
 62
7
 10
-161.500000
 20
76.349998
 11
-160.000000
 21
76.349998
  0
LINE
  8
0
  6
CONTINUOUS
 62
7
 10
-161.500000
 20
75.000000
 11
-162.000000
 21
75.000000
  0
LINE
  8
0
  6
CONTINUOUS
 62
7
 10
-161.500000
 20
81.650002
 11
-160.000000
 21
81.650002
  0
LINE
  8
0
  6
CONTINUOUS
 62
7
 10
-161.500000
 20
83.000000
 11
-161.500000
 21
75.000000
  0
LINE
  8
0
  6
CONTINUOUS
 62
2
 10
-161.500000
 20
82.375000
 11
-161.977005
 21
82.375000
  0
LINE
  8
0
  6
CONTINUOUS
 62
7
 10
-161.500000
 20
83.000000
 11
-161.828003
 21
83.000000
  0
LINE
  8
0
  6
CONTINUOUS
 62
7
 10
-161.500000
 20
53.000000
 11
-162.000000
 21
53.000000
  0
LINE
  8
0
  6
CONTINUOUS
 62
7
 10
-161.500000
 20
51.650002
 11
-160.000000
 21
51.650002
  0
LINE
  8
0
  6
CONTINUOUS
 62
7
 10
-161.500000
 20
53.000000
 11
-161.500000
 21
45.000000
  0
LINE
  8
0
  6
CONTINUOUS
 62
2
 10
-161.500000
 20
45.625000
 11
-162.000000
 21
45.625000
  0
LINE
  8
0
  6
CONTINUOUS
 62
7
 10
-161.500000
 20
45.000000
 11
-162.000000
 21
45.000000
  0
LINE
  8
0
  6
CONTINUOUS
 62
7
 10
-160.000000
 20
-21.350000
 11
-161.500000
 21
-21.350000
  0
LINE
  8
0
  6
CONTINUOUS
 62
7
 10
-161.500000
 20
-22.000000
 11
-161.500000
 21
-20.000000
  0
LINE
  8
0
  6
CONTINUOUS
 62
7
 10
117.000000
 20
-21.350000
 11
115.500000
 21
-21.350000
  0
LINE
  8
0
  6
CONTINUOUS
 62
7
 10
115.500000
 20
-22.000000
 11
115.500000
 21
-20.000000
  0
LINE
  8
0
  6
CONTINUOUS
 62
7
 10
115.500000
 20
83.000000
 11
115.500000
 21
75.000000
  0
LINE
  8
0
  6
CONTINUOUS
 62
7
 10
115.500000
 20
83.000000
 11
115.171997
 21
83.000000
  0
LINE
  8
0
  6
CONTINUOUS
 62
2
 10
115.500000
 20
82.375000
 11
115.023003
 21
82.375000
  0
LINE
  8
0
  6
CONTINUOUS
 62
7
 10
117.000000
 20
81.650002
 11
117.000000
 21
76.349998
  0
LINE
  8
0
  6
CONTINUOUS
 62
2
 10
115.500000
 20
75.625000
 11
115.000000
 21
75.625000
  0
LINE
  8
0
  6
CONTINUOUS
 62
7
 10
115.500000
 20
76.349998
 11
117.000000
 21
76.349998
  0
LINE
  8
0
  6
CONTINUOUS
 62
7
 10
115.500000
 20
75.000000
 11
115.000000
 21
75.000000
  0
LINE
  8
0
  6
CONTINUOUS
 62
7
 10
115.500000
 20
81.650002
 11
117.000000
 21
81.650002
  0
LINE
  8
0
  6
CONTINUOUS
 62
2
 10
115.500000
 20
45.625000
 11
115.000000
 21
45.625000
  0
LINE
  8
0
  6
CONTINUOUS
 62
7
 10
115.500000
 20
45.000000
 11
115.000000
 21
45.000000
  0
LINE
  8
0
  6
CONTINUOUS
 62
2
 10
115.500000
 20
52.375000
 11
115.023003
 21
52.375000
  0
LINE
  8
0
  6
CONTINUOUS
 62
7
 10
115.500000
 20
46.349998
 11
117.000000
 21
46.349998
  0
LINE
  8
0
  6
CONTINUOUS
 62
7
 10
117.000000
 20
51.650002
 11
117.000000
 21
46.349998
  0
LINE
  8
0
  6
CONTINUOUS
 62
7
 10
115.500000
 20
53.000000
 11
115.000000
 21
53.000000
  0
LINE
  8
0
  6
CONTINUOUS
 62
7
 10
115.500000
 20
51.650002
 11
117.000000
 21
51.650002
  0
LINE
  8
0
  6
CONTINUOUS
 62
7
 10
115.500000
 20
53.000000
 11
115.500000
 21
45.000000
  0
LINE
  8
0
  6
CONTINUOUS
 62
7
 10
168.500000
 20
83.000000
 11
168.500000
 21
75.000000
  0
LINE
  8
0
  6
CONTINUOUS
 62
7
 10
168.500000
 20
83.000000
 11
168.828003
 21
83.000000
  0
LINE
  8
0
  6
CONTINUOUS
 62
2
 10
168.500000
 20
82.375000
 11
168.975998
 21
82.375000
  0
LINE
  8
0
  6
CONTINUOUS
 62
2
 10
168.500000
 20
75.625000
 11
169.000000
 21
75.625000
  0
LINE
  8
0
  6
CONTINUOUS
 62
7
 10
168.500000
 20
76.349998
 11
167.000000
 21
76.349998
  0
LINE
  8
0
  6
CONTINUOUS
 62
7
 10
168.500000
 20
75.000000
 11
169.000000
 21
75.000000
  0
LINE
  8
0
  6
CONTINUOUS
 62
7
 10
168.500000
 20
81.650002
 11
167.000000
 21
81.650002
  0
LINE
  8
0
  6
CONTINUOUS
 62
2
 10
168.500000
 20
45.625000
 11
169.000000
 21
45.625000
  0
LINE
  8
0
  6
CONTINUOUS
 62
7
 10
168.500000
 20
45.000000
 11
169.000000
 21
45.000000
  0
LINE
  8
0
  6
CONTINUOUS
 62
2
 10
168.500000
 20
52.375000
 11
168.975998
 21
52.375000
  0
LINE
  8
0
  6
CONTINUOUS
 62
7
 10
168.500000
 20
46.349998
 11
167.000000
 21
46.349998
  0
LINE
  8
0
  6
CONTINUOUS
 62
7
 10
168.500000
 20
53.000000
 11
169.000000
 21
53.000000
  0
LINE
  8
0
  6
CONTINUOUS
 62
7
 10
168.500000
 20
51.650002
 11
167.000000
 21
51.650002
  0
LINE
  8
0
  6
CONTINUOUS
 62
7
 10
168.500000
 20
53.000000
 11
168.500000
 21
45.000000
  0
LINE
  8
0
  6
CENTER
 62
2
 10
-251.000000
 20
-40.000000
 11
-251.000000
 21
-44.000000
  0
LINE
  8
0
  6
CENTER
 62
2
 10
-251.000000
 20
-11.000000
 11
-251.000000
 21
-15.000000
  0
LINE
  8
0
  6
CENTER
 62
2
 10
-221.000000
 20
-11.000000
 11
-221.000000
 21
-15.000000
  0
LINE
  8
0
  6
CENTER
 62
2
 10
-221.000000
 20
-40.000000
 11
-221.000000
 21
-44.000000
  0
LINE
  8
0
  6
CENTER
 62
2
 10
-59.000000
 20
-40.000000
 11
-59.000000
 21
-44.000000
  0
LINE
  8
0
  6
CENTER
 62
2
 10
-59.000000
 20
-11.000000
 11
-59.000000
 21
-15.000000
  0
LINE
  8
0
  6
CENTER
 62
2
 10
-29.000000
 20
-11.000000
 11
-29.000000
 21
-15.000000
  0
LINE
  8
0
  6
CENTER
 62
2
 10
-29.000000
 20
-40.000000
 11
-29.000000
 21
-44.000000
  0
LINE
  8
0
  6
CENTER
 62
2
 10
223.000000
 20
-40.000000
 11
223.000000
 21
-44.000000
  0
LINE
  8
0
  6
CENTER
 62
2
 10
223.000000
 20
-11.000000
 11
223.000000
 21
-15.000000
  0
LINE
  8
0
  6
CENTER
 62
2
 10
253.000000
 20
-11.000000
 11
253.000000
 21
-15.000000
  0
LINE
  8
0
  6
CENTER
 62
2
 10
253.000000
 20
-40.000000
 11
253.000000
 21
-44.000000
  0
LINE
  8
0
  6
CENTER
 62
2
 10
31.000000
 20
-40.000000
 11
31.000000
 21
-44.000000
  0
LINE
  8
0
  6
CENTER
 62
2
 10
31.000000
 20
-11.000000
 11
31.000000
 21
-15.000000
  0
LINE
  8
0
  6
CENTER
 62
2
 10
61.000000
 20
-11.000000
 11
61.000000
 21
-15.000000
  0
LINE
  8
0
  6
CENTER
 62
2
 10
61.000000
 20
-40.000000
 11
61.000000
 21
-44.000000
  0
LINE
  8
0
  6
CENTER
 62
2
 10
-142.500000
 20
70.000000
 11
-142.500000
 21
66.000000
  0
LINE
  8
0
  6
CENTER
 62
2
 10
-117.500000
 20
70.000000
 11
-117.500000
 21
66.000000
  0
LINE
  8
0
  6
CENTER
 62
2
 10
-142.500000
 20
-11.000000
 11
-142.500000
 21
-15.000000
  0
LINE
  8
0
  6
CENTER
 62
2
 10
-117.500000
 20
-11.000000
 11
-117.500000
 21
-15.000000
  0
LINE
  8
0
  6
CENTER
 62
2
 10
137.000000
 20
70.000000
 11
137.000000
 21
66.000000
  0
LINE
  8
0
  6
CENTER
 62
2
 10
157.000000
 20
70.000000
 11
157.000000
 21
66.000000
  0
LINE
  8
0
  6
CENTER
 62
2
 10
177.000000
 20
70.000000
 11
177.000000
 21
66.000000
  0
LINE
  8
0
  6
CENTER
 62
2
 10
137.000000
 20
-11.000000
 11
137.000000
 21
-15.000000
  0
LINE
  8
0
  6
CENTER
 62
2
 10
157.000000
 20
-11.000000
 11
157.000000
 21
-15.000000
  0
LINE
  8
0
  6
CENTER
 62
2
 10
177.000000
 20
-11.000000
 11
177.000000
 21
-15.000000
  0
LINE
  8
0
  6
CONTINUOUS
 62
7
 10
0.424988
 20
195.500000
 11
0.424988
 21
-195.000000
  0
CIRCLE
  8
0
  6
CONTINUOUS
 62
7
 10
-172.500000
 20
-94.500000
 40
2.500000
  0
CIRCLE
  8
0
  6
CONTINUOUS
 62
2
 10
-172.500000
 20
-94.500000
 40
3.000000
  0
CIRCLE
  8
0
  6
CONTINUOUS
 62
2
 10
-107.500000
 20
-94.500000
 40
3.000000
  0
CIRCLE
  8
0
  6
CONTINUOUS
 62
7
 10
-107.500000
 20
-94.500000
 40
2.500000
  0
CIRCLE
  8
0
  6
CONTINUOUS
 62
7
 10
-107.500000
 20
-64.500000
 40
2.500000
  0
CIRCLE
  8
0
  6
CONTINUOUS
 62
2
 10
-107.500000
 20
-64.500000
 40
3.000000
  0
CIRCLE
  8
0
  6
CONTINUOUS
 62
7
 10
-172.500000
 20
-64.500000
 40
2.500000
  0
CIRCLE
  8
0
  6
CONTINUOUS
 62
2
 10
-172.500000
 20
-64.500000
 40
3.000000
  0
CIRCLE
  8
0
  6
CONTINUOUS
 62
7
 10
-180.500000
 20
-87.000000
 40
5.900000
  0
CIRCLE
  8
0
  6
CONTINUOUS
 62
7
 10
-99.500000
 20
-72.000000
 40
5.900000
  0
CIRCLE
  8
0
  6
CONTINUOUS
 62
2
 10
-123.000000
 20
-32.000000
 40
1.500000
  0
CIRCLE
  8
0
  6
CONTINUOUS
 62
7
 10
-123.000000
 20
-32.000000
 40
1.250000
  0
CIRCLE
  8
0
  6
CONTINUOUS
 62
7
 10
-157.000000
 20
-32.000000
 40
1.250000
  0
CIRCLE
  8
0
  6
CONTINUOUS
 62
2
 10
-157.000000
 20
-32.000000
 40
1.500000
  0
CIRCLE
  8
0
  6
CONTINUOUS
 62
7
 10
-125.000000
 20
-20.000000
 40
0.800000
  0
CIRCLE
  8
0
  6
CONTINUOUS
 62
2
 10
-125.000000
 20
-20.000000
 40
1.000000
  0
CIRCLE
  8
0
  6
CONTINUOUS
 62
2
 10
-135.000000
 20
-20.000000
 40
1.000000
  0
CIRCLE
  8
0
  6
CONTINUOUS
 62
7
 10
-135.000000
 20
-20.000000
 40
0.800000
  0
ARC
  8
0
  6
CONTINUOUS
 62
7
 10
-156.500000
 20
-17.200001
 40
3.000000
 50
138.190002
 51
221.809998
  0
CIRCLE
  8
0
  6
CONTINUOUS
 62
2
 10
-117.500000
 20
37.500000
 40
2.000000
  0
CIRCLE
  8
0
  6
CONTINUOUS
 62
7
 10
-117.500000
 20
37.500000
 40
1.650000
  0
CIRCLE
  8
0
  6
CONTINUOUS
 62
2
 10
-142.500000
 20
37.500000
 40
2.000000
  0
CIRCLE
  8
0
  6
CONTINUOUS
 62
7
 10
-142.500000
 20
37.500000
 40
1.650000
  0
CIRCLE
  8
0
  6
CONTINUOUS
 62
2
 10
-117.500000
 20
7.500010
 40
2.000000
  0
CIRCLE
  8
0
  6
CONTINUOUS
 62
7
 10
-117.500000
 20
7.500010
 40
1.650000
  0
CIRCLE
  8
0
  6
CONTINUOUS
 62
2
 10
-142.500000
 20
7.500010
 40
2.000000
  0
CIRCLE
  8
0
  6
CONTINUOUS
 62
7
 10
-142.500000
 20
7.500010
 40
1.650000
  0
CIRCLE
  8
0
  6
CONTINUOUS
 62
7
 10
-172.500000
 20
7.500010
 40
4.750000
  0
CIRCLE
  8
0
  6
CONTINUOUS
 62
2
 10
-172.500000
 20
7.500010
 40
3.000000
  0
ARC
  8
0
  6
CONTINUOUS
 62
2
 10
-107.500000
 20
7.500010
 40
3.000000
 50
326.441986
 51
33.557598
  0
ARC
  8
0
  6
CONTINUOUS
 62
7
 10
-107.500000
 20
7.500010
 40
4.750000
 50
301.756989
 51
58.243198
  0
CIRCLE
  8
0
  6
CONTINUOUS
 62
2
 10
-172.500000
 20
37.500000
 40
3.000000
  0
CIRCLE
  8
0
  6
CONTINUOUS
 62
7
 10
-172.500000
 20
37.500000
 40
4.750000
  0
CIRCLE
  8
0
  6
CONTINUOUS
 62
7
 10
-98.500000
 20
90.500000
 40
4.000000
  0
CIRCLE
  8
0
  6
CONTINUOUS
 62
7
 10
-181.500000
 20
90.500000
 40
4.000000
  0
ARC
  8
0
  6
DASHED
 62
2
 10
-107.500000
 20
7.500010
 40
4.750000
 50
58.243198
 51
301.756989
  0
ARC
  8
0
  6
DASHED
 62
2
 10
-107.500000
 20
7.500010
 40
3.000000
 50
33.557598
 51
326.441986
  0
ARC
  8
0
  6
DASHED
 62
2
 10
-107.500000
 20
37.500000
 40
4.750000
 50
58.243301
 51
301.756989
  0
ARC
  8
0
  6
DASHED
 62
2
 10
-107.500000
 20
37.500000
 40
3.000000
 50
33.557598
 51
326.441986
  0
ARC
  8
0
  6
CONTINUOUS
 62
7
 10
-107.500000
 20
37.500000
 40
4.750000
 50
301.756989
 51
58.243301
  0
ARC
  8
0
  6
CONTINUOUS
 62
2
 10
-107.500000
 20
37.500000
 40
3.000000
 50
326.441986
 51
33.557598
  0
ARC
  8
0
  6
CONTINUOUS
 62
7
 10
-156.500000
 20
72.199997
 40
3.000000
 50
138.190002
 51
221.809998
  0
ARC
  8
0
  6
CONTINUOUS
 62
7
 10
-156.500000
 20
22.500000
 40
3.000000
 50
129.664001
 51
230.335999
  0
ARC
  8
0
  6
CONTINUOUS
 62
7
 10
56.200001
 20
-25.000000
 40
1.500010
 50
210.436005
 51
262.335999
  0
ARC
  8
0
  6
CONTINUOUS
 62
7
 10
56.200001
 20
-25.000000
 40
1.499990
 50
97.661598
 51
149.561996
  0
ARC
  8
0
  6
CONTINUOUS
 62
7
 10
35.799999
 20
-25.000000
 40
1.500010
 50
277.661011
 51
329.562012
  0
ARC
  8
0
  6
CONTINUOUS
 62
7
 10
35.799999
 20
-25.000000
 40
1.500000
 50
30.436399
 51
82.337303
  0
CIRCLE
  8
0
  6
CONTINUOUS
 62
7
 10
46.000000
 20
-32.000000
 40
8.500000
  0
CIRCLE
  8
0
  6
CONTINUOUS
 62
7
 10
46.000000
 20
-17.200001
 40
0.400000
  0
CIRCLE
  8
0
  6
CONTINUOUS
 62
7
 10
94.500000
 20
-94.500000
 40
2.500000
  0
CIRCLE
  8
0
  6
CONTINUOUS
 62
2
 10
94.500000
 20
-94.500000
 40
3.000000
  0
CIRCLE
  8
0
  6
CONTINUOUS
 62
2
 10
189.500000
 20
-94.500000
 40
3.000000
  0
CIRCLE
  8
0
  6
CONTINUOUS
 62
7
 10
189.500000
 20
-94.500000
 40
2.500000
  0
CIRCLE
  8
0
  6
CONTINUOUS
 62
7
 10
189.500000
 20
-64.500000
 40
2.500000
  0
CIRCLE
  8
0
  6
CONTINUOUS
 62
2
 10
189.500000
 20
-64.500000
 40
3.000000
  0
CIRCLE
  8
0
  6
CONTINUOUS
 62
7
 10
94.500000
 20
-64.500000
 40
2.500000
  0
CIRCLE
  8
0
  6
CONTINUOUS
 62
2
 10
94.500000
 20
-64.500000
 40
3.000000
  0
CIRCLE
  8
0
  6
CONTINUOUS
 62
7
 10
86.500000
 20
-87.000000
 40
5.900000
  0
CIRCLE
  8
0
  6
CONTINUOUS
 62
7
 10
197.500000
 20
-72.000000
 40
5.900000
  0
CIRCLE
  8
0
  6
CONTINUOUS
 62
2
 10
177.000000
 20
37.500000
 40
2.000000
  0
CIRCLE
  8
0
  6
CONTINUOUS
 62
7
 10
177.000000
 20
37.500000
 40
1.650000
  0
CIRCLE
  8
0
  6
CONTINUOUS
 62
2
 10
177.000000
 20
7.500010
 40
2.000000
  0
CIRCLE
  8
0
  6
CONTINUOUS
 62
7
 10
177.000000
 20
7.500010
 40
1.650000
  0
CIRCLE
  8
0
  6
CONTINUOUS
 62
7
 10
94.500000
 20
7.500010
 40
4.750000
  0
CIRCLE
  8
0
  6
CONTINUOUS
 62
2
 10
94.500000
 20
7.500010
 40
3.000000
  0
ARC
  8
0
  6
DASHED
 62
2
 10
189.500000
 20
7.500010
 40
3.000000
 50
60.000000
 51
300.000000
  0
ARC
  8
0
  6
DASHED
 62
2
 10
189.500000
 20
7.500010
 40
4.750000
 50
71.591698
 51
284.437012
  0
CIRCLE
  8
0
  6
CONTINUOUS
 62
2
 10
94.500000
 20
37.500000
 40
3.000000
  0
CIRCLE
  8
0
  6
CONTINUOUS
 62
7
 10
94.500000
 20
37.500000
 40
4.750000
  0
CIRCLE
  8
0
  6
CONTINUOUS
 62
2
 10
164.500000
 20
-32.000000
 40
1.500000
  0
CIRCLE
  8
0
  6
CONTINUOUS
 62
7
 10
164.500000
 20
-32.000000
 40
1.250000
  0
CIRCLE
  8
0
  6
CONTINUOUS
 62
7
 10
119.500000
 20
-32.000000
 40
1.250000
  0
CIRCLE
  8
0
  6
CONTINUOUS
 62
2
 10
119.500000
 20
-32.000000
 40
1.500000
  0
CIRCLE
  8
0
  6
CONTINUOUS
 62
7
 10
162.000000
 20
-20.000000
 40
0.800000
  0
CIRCLE
  8
0
  6
CONTINUOUS
 62
2
 10
162.000000
 20
-20.000000
 40
1.000000
  0
CIRCLE
  8
0
  6
CONTINUOUS
 62
2
 10
152.000000
 20
-20.000000
 40
1.000000
  0
CIRCLE
  8
0
  6
CONTINUOUS
 62
7
 10
152.000000
 20
-20.000000
 40
0.800000
  0
CIRCLE
  8
0
  6
CONTINUOUS
 62
2
 10
137.000000
 20
7.500010
 40
2.000000
  0
CIRCLE
  8
0
  6
CONTINUOUS
 62
7
 10
137.000000
 20
7.500010
 40
1.650000
  0
CIRCLE
  8
0
  6
CONTINUOUS
 62
2
 10
137.000000
 20
37.500000
 40
2.000000
  0
CIRCLE
  8
0
  6
CONTINUOUS
 62
7
 10
137.000000
 20
37.500000
 40
1.650000
  0
CIRCLE
  8
0
  6
CONTINUOUS
 62
2
 10
157.000000
 20
7.500010
 40
2.000000
  0
CIRCLE
  8
0
  6
CONTINUOUS
 62
7
 10
157.000000
 20
7.500010
 40
1.650000
  0
CIRCLE
  8
0
  6
CONTINUOUS
 62
2
 10
157.000000
 20
37.500000
 40
2.000000
  0
CIRCLE
  8
0
  6
CONTINUOUS
 62
7
 10
157.000000
 20
37.500000
 40
1.650000
  0
CIRCLE
  8
0
  6
CONTINUOUS
 62
7
 10
85.500000
 20
90.500000
 40
4.000000
  0
ARC
  8
0
  6
CONTINUOUS
 62
2
 10
189.500000
 20
7.500010
 40
3.000000
 50
300.000000
 51
60.000000
  0
ARC
  8
0
  6
CONTINUOUS
 62
7
 10
189.500000
 20
7.500010
 40
4.750000
 50
288.407990
 51
71.591698
  0
ARC
  8
0
  6
CONTINUOUS
 62
7
 10
189.500000
 20
37.500000
 40
4.750000
 50
288.407990
 51
71.591698
  0
ARC
  8
0
  6
CONTINUOUS
 62
2
 10
189.500000
 20
37.500000
 40
3.000000
 50
300.000000
 51
60.000000
  0
ARC
  8
0
  6
DASHED
 62
2
 10
189.500000
 20
37.500000
 40
3.000000
 50
60.000000
 51
300.000000
  0
ARC
  8
0
  6
DASHED
 62
2
 10
189.500000
 20
37.500000
 40
4.750000
 50
75.563004
 51
288.407990
  0
CIRCLE
  8
0
  6
CONTINUOUS
 62
7
 10
198.500000
 20
90.500000
 40
4.000000
  0
ARC
  8
0
  6
CONTINUOUS
 62
7
 10
121.500000
 20
-17.200001
 40
3.000000
 50
138.190002
 51
221.809998
  0
ARC
  8
0
  6
CONTINUOUS
 62
7
 10
121.500000
 20
72.199997
 40
3.000000
 50
138.190002
 51
221.809998
  0
ARC
  8
0
  6
CONTINUOUS
 62
7
 10
121.500000
 20
22.500000
 40
3.000000
 50
129.664001
 51
230.335999
  0
CIRCLE
  8
0
  6
CONTINUOUS
 62
7
 10
19.500000
 20
-24.000000
 40
4.000000
  0
ARC
  8
0
  6
CONTINUOUS
 62
7
 10
-159.000000
 20
82.000000
 40
3.000000
 50
90.000000
 51
180.000000
  0
ARC
  8
0
  6
CONTINUOUS
 62
7
 10
-121.000000
 20
82.000000
 40
3.000000
 50
0.000000
 51
90.000000
  0
ARC
  8
0
  6
CONTINUOUS
 62
7
 10
227.800003
 20
-25.000000
 40
1.500010
 50
277.664001
 51
329.563995
  0
ARC
  8
0
  6
CONTINUOUS
 62
7
 10
227.800003
 20
-25.000000
 40
1.499990
 50
30.437799
 51
82.338402
  0
ARC
  8
0
  6
CONTINUOUS
 62
7
 10
248.199997
 20
-25.000000
 40
1.500000
 50
210.438995
 51
262.338989
  0
ARC
  8
0
  6
CONTINUOUS
 62
7
 10
248.199997
 20
-25.000000
 40
1.500000
 50
97.662697
 51
149.563995
  0
CIRCLE
  8
0
  6
CONTINUOUS
 62
7
 10
238.000000
 20
-32.000000
 40
8.500000
  0
CIRCLE
  8
0
  6
CONTINUOUS
 62
7
 10
238.000000
 20
-17.200001
 40
0.400000
  0
CIRCLE
  8
0
  6
CONTINUOUS
 62
7
 10
264.500000
 20
-24.000000
 40
4.000000
  0
ARC
  8
0
  6
CONTINUOUS
 62
7
 10
118.000000
 20
82.000000
 40
3.000000
 50
90.000000
 51
180.000000
  0
ARC
  8
0
  6
CONTINUOUS
 62
7
 10
166.000000
 20
82.000000
 40
3.000000
 50
0.000000
 51
90.000000
  0
ARC
  8
0
  6
CONTINUOUS
 62
7
 10
-225.800003
 20
-25.000000
 40
1.500010
 50
210.436005
 51
262.335999
  0
ARC
  8
0
  6
CONTINUOUS
 62
7
 10
-225.800003
 20
-25.000000
 40
1.499990
 50
97.661598
 51
149.561996
  0
ARC
  8
0
  6
CONTINUOUS
 62
7
 10
-246.199997
 20
-25.000000
 40
1.500010
 50
277.661011
 51
329.561005
  0
ARC
  8
0
  6
CONTINUOUS
 62
7
 10
-246.199997
 20
-25.000000
 40
1.500000
 50
30.436399
 51
82.337303
  0
CIRCLE
  8
0
  6
CONTINUOUS
 62
7
 10
-236.000000
 20
-32.000000
 40
8.500000
  0
CIRCLE
  8
0
  6
CONTINUOUS
 62
7
 10
-236.000000
 20
-17.200001
 40
0.400000
  0
CIRCLE
  8
0
  6
CONTINUOUS
 62
7
 10
-262.500000
 20
-24.000000
 40
4.000000
  0
ARC
  8
0
  6
CONTINUOUS
 62
7
 10
-54.200001
 20
-25.000000
 40
1.500010
 50
277.664001
 51
329.563995
  0
ARC
  8
0
  6
CONTINUOUS
 62
7
 10
-54.200001
 20
-25.000000
 40
1.499990
 50
30.437599
 51
82.338402
  0
ARC
  8
0
  6
CONTINUOUS
 62
7
 10
-33.799999
 20
-25.000000
 40
1.500010
 50
210.438004
 51
262.338989
  0
ARC
  8
0
  6
CONTINUOUS
 62
7
 10
-33.799999
 20
-25.000000
 40
1.500000
 50
97.662697
 51
149.563995
  0
CIRCLE
  8
0
  6
CONTINUOUS
 62
7
 10
-44.000000
 20
-32.000000
 40
8.500000
  0
CIRCLE
  8
0
  6
CONTINUOUS
 62
7
 10
-44.000000
 20
-17.200001
 40
0.400000
  0
CIRCLE
  8
0
  6
CONTINUOUS
 62
7
 10
-17.500000
 20
-24.000000
 40
4.000000
  0
CIRCLE
  8
0
  6
CONTINUOUS
 62
2
 10
-181.500000
 20
-35.500000
 40
2.500000
  0
CIRCLE
  8
0
  6
CONTINUOUS
 62
7
 10
-181.500000
 20
-35.500000
 40
2.100000
  0
CIRCLE
  8
0
  6
CONTINUOUS
 62
2
 10
-98.500000
 20
-35.500000
 40
2.500000
  0
CIRCLE
  8
0
  6
CONTINUOUS
 62
7
 10
-98.500000
 20
-35.500000
 40
2.100000
  0
CIRCLE
  8
0
  6
CONTINUOUS
 62
2
 10
85.500000
 20
-35.500000
 40
2.500000
  0
CIRCLE
  8
0
  6
CONTINUOUS
 62
7
 10
85.500000
 20
-35.500000
 40
2.100000
  0
CIRCLE
  8
0
  6
CONTINUOUS
 62
2
 10
198.500000
 20
-35.500000
 40
2.500000
  0
CIRCLE
  8
0
  6
CONTINUOUS
 62
7
 10
198.500000
 20
-35.500000
 40
2.100000
  0
CIRCLE
  8
0
  6
CONTINUOUS
 62
7
 10
94.500000
 20
7.500010
 40
2.650000
  0
CIRCLE
  8
0
  6
CONTINUOUS
 62
7
 10
94.500000
 20
37.500000
 40
2.650000
  0
ARC
  8
0
  6
CONTINUOUS
 62
7
 10
189.500000
 20
37.500000
 40
2.650000
 50
304.473999
 51
55.525700
  0
ARC
  8
0
  6
DASHED
 62
2
 10
189.500000
 20
37.500000
 40
2.650000
 50
55.525700
 51
304.473999
  0
ARC
  8
0
  6
CONTINUOUS
 62
7
 10
189.500000
 20
7.500010
 40
2.650000
 50
304.473999
 51
55.525600
  0
ARC
  8
0
  6
DASHED
 62
2
 10
189.500000
 20
7.500010
 40
2.650000
 50
55.525600
 51
304.473999
  0
CIRCLE
  8
0
  6
CONTINUOUS
 62
7
 10
-172.500000
 20
7.500010
 40
2.650000
  0
CIRCLE
  8
0
  6
CONTINUOUS
 62
7
 10
-172.500000
 20
37.500000
 40
2.650000
  0
CIRCLE
  8
0
  6
DASHED
 62
2
 10
-107.500000
 20
37.500000
 40
2.650000
  0
CIRCLE
  8
0
  6
DASHED
 62
2
 10
-107.500000
 20
7.500010
 40
2.650000
  0
TEXT
  8
0
 62
7
 10
202.930283
 20
183.925003
 40
6.300000
  1
Ver.1.0
 50
0.000000
 41
1.010330
 51
0.000000
  7
STANDARD
  0
TEXT
  8
0
 62
7
 10
172.714691
 20
-187.250000
 40
9.000000
  1
KOGANEI CORP.
 50
0.000000
 41
0.771524
 51
0.000000
  7
STANDARD
  0
TEXT
  8
0
 62
7
 10
-243.569717
 20
183.925003
 40
6.300000
  1
AP TABLE
 50
0.000000
 41
0.775607
 51
0.000000
  7
STANDARD
  0
TEXT
  8
0
 62
7
 10
12.274609
 20
158.925003
 40
6.300000
  1
MODEL:APT-SD16-30-TPQT
 50
0.000000
 41
0.778008
 51
0.000000
  7
STANDARD
  0
TEXT
  8
0
 62
7
 10
-269.400391
 20
158.925003
 40
6.300000
  1
MODEL:APT-SD16-20-TPQT
 50
0.000000
 41
0.778008
 51
0.000000
  7
STANDARD
  0
ENDSEC
  0
EOF
