  0
SECTION
  2
HEADER
  9
$ACADVER
  1
AC1002
  9
$INSBASE
 10
0.0
 20
0.0
  9
$EXTMIN
 10
-262.2472
 20
-180.0
  9
$EXTMAX
 10
262.2472
 20
180.0
  9
$LIMMIN
 10
0.0
 20
0.0
  9
$LIMMAX
 10
12.0
 20
9.0
  9
$VIEWCTR
 10
20.22981726
 20
0.0
  9
$VIEWSIZE
 40
360.0
  9
$SNAPMODE
 70
     0
  9
$SNAPUNIT
 10
1.0
 20
1.0
  9
$SNAPBASE
 10
0.0
 20
0.0
  9
$SNAPANG
 50
0.0
  9
$SNAPSTYLE
 70
     0
  9
$SNAPISOPAIR
 70
     0
  9
$GRIDMODE
 70
     0
  9
$GRIDUNIT
 10
0.0
 20
0.0
  9
$ORTHOMODE
 70
     0
  9
$REGENMODE
 70
     1
  9
$FILLMODE
 70
     1
  9
$QTEXTMODE
 70
     0
  9
$DRAGMODE
 70
     2
  9
$LTSCALE
 40
1.0
  9
$OSMODE
 70
     0
  9
$ATTMODE
 70
     1
  9
$TEXTSIZE
 40
0.2
  9
$TRACEWID
 40
0.05
  9
$TEXTSTYLE
  7
AAA
  9
$CLAYER
  8
0
  9
$CELTYPE
  6
BYLAYER
  9
$CECOLOR
 62
   256
  9
$DIMSCALE
 40
1.0
  9
$DIMASZ
 40
0.18
  9
$DIMEXO
 40
0.0625
  9
$DIMDLI
 40
0.38
  9
$DIMRND
 40
0.0
  9
$DIMDLE
 40
0.0
  9
$DIMEXE
 40
0.18
  9
$DIMTP
 40
0.0
  9
$DIMTM
 40
0.0
  9
$DIMTXT
 40
0.18
  9
$DIMCEN
 40
0.09
  9
$DIMTSZ
 40
0.0
  9
$DIMTOL
 70
     0
  9
$DIMLIM
 70
     0
  9
$DIMTIH
 70
     1
  9
$DIMTOH
 70
     1
  9
$DIMSE1
 70
     0
  9
$DIMSE2
 70
     0
  9
$DIMTAD
 70
     0
  9
$DIMZIN
 70
     0
  9
$DIMBLK
  1

  9
$LUNITS
 70
     2
  9
$LUPREC
 70
     4
  9
$AXISMODE
 70
     0
  9
$AXISUNIT
 10
0.0
 20
0.0
  9
$SKETCHINC
 40
0.1
  9
$FILLETRAD
 40
0.0
  9
$AUNITS
 70
     0
  9
$AUPREC
 70
     0
  9
$MENU
  1
ACAD
  9
$ELEVATION
 40
0.0
  9
$THICKNESS
 40
0.0
  9
$VIEWDIR
 10
0.0
 20
0.0
 30
1.0
  9
$LIMCHECK
 70
     0
  9
$BLIPMODE
 70
     1
  9
$CHAMFERA
 40
0.0
  9
$CHAMFERB
 40
0.0
  9
$FASTZOOM
 70
     1
  9
$SKPOLY
 70
     0
  9
$TDCREATE
 40
2447874.6224653269
  9
$TDUPDATE
 40
2447874.6224653269
  9
$TDINDWG
 40
0.0051157407
  9
$TDUSRTIMER
 40
0.0051157407
  9
$USRTIMER
 70
     1
  9
$ANGBASE
 50
0.0
  9
$ANGDIR
 70
     0
  9
$PDMODE
 70
     0
  9
$PDSIZE
 40
0.0
  9
$PLINEWID
 40
0.0
  9
$COORDS
 70
     0
  9
$USERI1
 70
     0
  9
$USERI2
 70
     0
  9
$USERI3
 70
     0
  9
$USERI4
 70
     0
  9
$USERI5
 70
     0
  9
$USERR1
 40
0.0
  9
$USERR2
 40
0.0
  9
$USERR3
 40
0.0
  9
$USERR4
 40
0.0
  9
$USERR5
 40
0.0
  0
ENDSEC
  0
SECTION
  2
TABLES
  0
TABLE
  2
LTYPE
 70
     3
  0
LTYPE
  2
CONTINUOUS
 70
    64
  3
SOLID
 72
    65
 73
     0
 40
0.0
  0
LTYPE
  2
CENTER
 70
    64
  3
CENTER
 72
    65
 73
     4
 40
2.0
 49
1.25
 49
-0.25
 49
0.25
 49
-0.25
  0
LTYPE
  2
PHANTOM
 70
    64
  3
PHANTOM
 72
    65
 73
     6
 40
2.5
 49
1.25
 49
-0.25
 49
0.25
 49
-0.25
 49
0.25
 49
-0.25
  0
ENDTAB
  0
TABLE
  2
LAYER
 70
     1
  0
LAYER
  2
0
 70
    64
 62
     7
  6
CONTINUOUS
  0
ENDTAB
  0
TABLE
  2
STYLE
 70
     2
  0
STYLE
  2
AAA
 70
     0
 40
0.0
 41
1.0
 50
0.0
 71
     0
 42
0.2
  3
TXT
  4

  0
STYLE
  2
STANDARD
 70
    64
 40
0.0
 41
1.0
 50
0.0
 71
     0
 42
0.2
  3
TXT
  4
BIGFONT
  0
ENDTAB
  0
TABLE
  2
VIEW
 70
     0
  0
ENDTAB
  0
ENDSEC
  0
SECTION
  2
BLOCKS
  0
ENDSEC
  0
SECTION
  2
ENTITIES
  0
POINT
  8
0
  6
CONTINUOUS
 62
     7
 10
20.0
 20
135.0
  0
POINT
  8
0
  6
CONTINUOUS
 62
     7
 10
20.0
 20
15.0
  0
POINT
  8
0
  6
CONTINUOUS
 62
     7
 10
13.49998
 20
-48.7
  0
POINT
  8
0
  6
CONTINUOUS
 62
     7
 10
13.50001
 20
38.5
  0
POINT
  8
0
  6
CONTINUOUS
 62
     7
 10
140.0
 20
15.0
  0
POINT
  8
0
  6
CONTINUOUS
 62
     7
 10
113.0
 20
-48.69999
  0
POINT
  8
0
  6
CONTINUOUS
 62
     7
 10
113.0
 20
38.50001
  0
POINT
  8
0
  6
CONTINUOUS
 62
     7
 10
-113.0
 20
15.0
  0
POINT
  8
0
  6
CONTINUOUS
 62
     7
 10
-140.0
 20
15.0
  0
POINT
  8
0
  6
CONTINUOUS
 62
     7
 10
-113.0
 20
38.5
  0
POINT
  8
0
  6
CONTINUOUS
 62
     7
 10
-113.0
 20
-48.7
  0
POINT
  8
0
  6
CONTINUOUS
 62
     7
 10
20.0
 20
-140.0
  0
LINE
  8
0
  6
CONTINUOUS
 62
     7
 10
-262.2472
 20
-180.0
 11
-262.2472
 21
180.0
  0
LINE
  8
0
  6
CONTINUOUS
 62
     7
 10
262.2472
 20
180.0
 11
262.2472
 21
-180.0
  0
LINE
  8
0
  6
CONTINUOUS
 62
     7
 10
-262.2472
 20
-180.0
 11
262.2472
 21
-180.0
  0
LINE
  8
0
  6
CONTINUOUS
 62
     7
 10
-262.2472
 20
180.0
 11
262.2472
 21
180.0
  0
LINE
  8
0
  6
CONTINUOUS
 62
     7
 10
-262.2472
 20
159.7753
 11
-154.382
 21
159.7753
  0
LINE
  8
0
  6
CONTINUOUS
 62
     7
 10
-154.382
 20
159.7753
 11
-154.382
 21
180.0
  0
LINE
  8
0
  6
CONTINUOUS
 62
     7
 10
154.382
 20
-159.7753
 11
262.2472
 21
-159.7753
  0
LINE
  8
0
  6
CONTINUOUS
 62
     7
 10
182.7034
 20
-164.6383
 11
193.0652
 21
-164.6383
  0
LINE
  8
0
  6
CONTINUOUS
 62
     7
 10
182.7034
 20
-173.8271
 11
191.5012
 21
-173.8271
  0
LINE
  8
0
  6
CONTINUOUS
 62
     7
 10
182.7034
 20
-176.1732
 11
194.6293
 21
-176.1732
  0
LINE
  8
0
  6
CONTINUOUS
 62
     7
 10
182.7034
 20
-166.9844
 11
191.5012
 21
-166.9844
  0
LINE
  8
0
  6
CONTINUOUS
 62
     7
 10
182.7034
 20
-164.6383
 11
182.7034
 21
-166.9844
  0
LINE
  8
0
  6
CONTINUOUS
 62
     7
 10
194.6293
 20
-166.2024
 11
194.6293
 21
-176.1732
  0
LINE
  8
0
  6
CONTINUOUS
 62
     7
 10
191.5012
 20
-166.9844
 11
191.5012
 21
-173.8271
  0
LINE
  8
0
  6
CONTINUOUS
 62
     7
 10
196.3888
 20
-164.6383
 11
196.3888
 21
-166.9844
  0
LINE
  8
0
  6
CONTINUOUS
 62
     7
 10
207.5326
 20
-166.9844
 11
207.5326
 21
-174.6092
  0
LINE
  8
0
  6
CONTINUOUS
 62
     7
 10
204.4045
 20
-166.9844
 11
204.4045
 21
-173.8271
  0
LINE
  8
0
  6
CONTINUOUS
 62
     7
 10
182.7034
 20
-173.8271
 11
182.7034
 21
-176.1732
  0
LINE
  8
0
  6
CONTINUOUS
 62
     7
 10
196.3888
 20
-164.6383
 11
199.4796
 21
-164.6383
  0
LINE
  8
0
  6
CONTINUOUS
 62
     7
 10
196.3888
 20
-176.1732
 11
198.8176
 21
-176.1732
  0
LINE
  8
0
  6
CONTINUOUS
 62
     7
 10
196.3887
 20
-176.1731
 11
198.8509
 21
-166.9843
  0
LINE
  8
0
  6
CONTINUOUS
 62
     7
 10
196.3888
 20
-166.9844
 11
198.8509
 21
-166.9844
  0
LINE
  8
0
  6
CONTINUOUS
 62
     7
 10
198.8178
 20
-176.1733
 11
201.2799
 21
-166.9845
  0
LINE
  8
0
  6
CONTINUOUS
 62
     7
 10
202.0584
 20
-173.8271
 11
204.4045
 21
-173.8271
  0
LINE
  8
0
  6
CONTINUOUS
 62
     7
 10
202.0583
 20
-173.8271
 11
202.6869
 21
-176.1731
  0
LINE
  8
0
  6
CONTINUOUS
 62
     7
 10
202.6871
 20
-176.1732
 11
205.9686
 21
-176.1732
  0
LINE
  8
0
  6
CONTINUOUS
 62
     7
 10
201.2798
 20
-166.9844
 11
204.4045
 21
-166.9844
  0
LINE
  8
0
  6
CONTINUOUS
 62
     7
 10
201.9084
 20
-164.6383
 11
205.1865
 21
-164.6383
  0
LINE
  8
0
  6
CONTINUOUS
 62
     7
 10
199.4796
 20
-164.6384
 11
199.9458
 21
-162.8984
  0
LINE
  8
0
  6
CONTINUOUS
 62
     7
 10
201.9082
 20
-164.6382
 11
202.3744
 21
-162.8982
  0
LINE
  8
0
  6
CONTINUOUS
 62
     7
 10
209.4877
 20
-164.6383
 11
213.2023
 21
-164.6383
  0
LINE
  8
0
  6
CONTINUOUS
 62
     7
 10
209.4877
 20
-166.9844
 11
218.6106
 21
-166.9844
  0
LINE
  8
0
  6
CONTINUOUS
 62
     7
 10
213.2023
 20
-176.1732
 11
216.3303
 21
-176.1732
  0
LINE
  8
0
  6
CONTINUOUS
 62
     7
 10
209.4877
 20
-164.6383
 11
209.4877
 21
-166.9844
  0
LINE
  8
0
  6
CONTINUOUS
 62
     7
 10
221.0225
 20
-171.2385
 11
221.0225
 21
-173.8271
  0
LINE
  8
0
  6
CONTINUOUS
 62
     7
 10
209.4875
 20
-173.827
 11
213.2022
 21
-172.0948
  0
LINE
  8
0
  6
CONTINUOUS
 62
     7
 10
209.4879
 20
-171.2387
 11
218.6108
 21
-166.9846
  0
LINE
  8
0
  6
CONTINUOUS
 62
     7
 10
209.4877
 20
-171.2385
 11
209.4877
 21
-173.8271
  0
LINE
  8
0
  6
CONTINUOUS
 62
     7
 10
216.3302
 20
-171.6391
 11
221.0225
 21
-173.827
  0
LINE
  8
0
  6
CONTINUOUS
 62
     7
 10
218.0311
 20
-169.8436
 11
221.0228
 21
-171.2387
  0
LINE
  8
0
  6
CONTINUOUS
 62
     7
 10
221.0225
 20
-166.2024
 11
221.0225
 21
-167.4519
  0
LINE
  8
0
  6
CONTINUOUS
 62
     7
 10
213.2023
 20
-162.8984
 11
213.2023
 21
-164.6383
  0
LINE
  8
0
  6
CONTINUOUS
 62
     7
 10
216.3303
 20
-162.8984
 11
216.3303
 21
-164.6383
  0
LINE
  8
0
  6
CONTINUOUS
 62
     7
 10
216.3303
 20
-164.6383
 11
219.4585
 21
-164.6383
  0
LINE
  8
0
  6
CONTINUOUS
 62
     7
 10
213.2023
 20
-172.095
 11
213.2023
 21
-176.1732
  0
LINE
  8
0
  6
CONTINUOUS
 62
     7
 10
216.3303
 20
-171.6392
 11
216.3303
 21
-176.1732
  0
LINE
  8
0
  6
CONTINUOUS
 62
     7
 10
218.031
 20
-169.8436
 11
220.1197
 21
-168.8696
  0
LINE
  8
0
  6
CONTINUOUS
 62
     7
 10
231.5798
 20
-163.6022
 11
233.9258
 21
-163.6022
  0
LINE
  8
0
  6
CONTINUOUS
 62
     7
 10
222.0001
 20
-168.4483
 11
222.0001
 21
-170.9731
  0
LINE
  8
0
  6
CONTINUOUS
 62
     7
 10
233.9258
 20
-163.6022
 11
233.9258
 21
-164.6383
  0
LINE
  8
0
  6
CONTINUOUS
 62
     7
 10
231.5798
 20
-163.6022
 11
231.5798
 21
-164.1077
  0
LINE
  8
0
  6
CONTINUOUS
 62
     7
 10
228.4517
 20
-168.4072
 11
228.4517
 21
-176.1732
  0
LINE
  8
0
  6
CONTINUOUS
 62
     7
 10
222.0001
 20
-168.4484
 11
231.0869
 21
-164.8345
  0
LINE
  8
0
  6
CONTINUOUS
 62
     7
 10
222.0001
 20
-170.9732
 11
228.4517
 21
-168.4073
  0
LINE
  8
0
  6
CONTINUOUS
 62
     7
 10
228.4517
 20
-176.1732
 11
231.5798
 21
-176.1732
  0
LINE
  8
0
  6
CONTINUOUS
 62
     7
 10
231.5798
 20
-167.1632
 11
231.5798
 21
-176.1732
  0
LINE
  8
0
  6
CONTINUOUS
 62
     7
 10
231.5801
 20
-167.1633
 11
232.4471
 21
-166.8185
  0
LINE
  8
0
  6
CONTINUOUS
 62
     7
 10
199.7572
 20
-162.8984
 11
202.3746
 21
-162.8984
  0
LINE
  8
0
  6
CONTINUOUS
 62
     7
 10
206.2618
 20
-162.8984
 11
207.2589
 21
-162.8984
  0
LINE
  8
0
  6
CONTINUOUS
 62
     7
 10
213.2023
 20
-162.8984
 11
216.3303
 21
-162.8984
  0
LINE
  8
0
  6
CONTINUOUS
 62
     7
 10
206.2618
 20
-164.4624
 11
207.2589
 21
-164.4624
  0
LINE
  8
0
  6
CONTINUOUS
 62
     7
 10
206.2618
 20
-162.8984
 11
206.2618
 21
-164.4624
  0
LINE
  8
0
  6
CONTINUOUS
 62
     7
 10
207.2589
 20
-162.8984
 11
207.2589
 21
-164.4624
  0
LINE
  8
0
  6
CONTINUOUS
 62
     7
 10
207.8454
 20
-162.8984
 11
207.8454
 21
-164.4624
  0
LINE
  8
0
  6
CONTINUOUS
 62
     7
 10
208.9598
 20
-162.8984
 11
208.9598
 21
-164.4624
  0
LINE
  8
0
  6
CONTINUOUS
 62
     7
 10
207.8454
 20
-162.8984
 11
208.9598
 21
-162.8984
  0
LINE
  8
0
  6
CONTINUOUS
 62
     7
 10
207.8454
 20
-164.4624
 11
208.9598
 21
-164.4624
  0
LINE
  8
0
  6
CONTINUOUS
 62
     7
 10
154.382
 20
159.7753
 11
262.2472
 21
159.7753
  0
LINE
  8
0
  6
CONTINUOUS
 62
     7
 10
154.382
 20
180.0
 11
154.382
 21
159.7753
  0
LINE
  8
0
  6
CONTINUOUS
 62
     7
 10
154.382
 20
-159.7753
 11
154.382
 21
-180.0
  0
LINE
  8
0
  6
CONTINUOUS
 62
     7
 10
10.5
 20
109.5
 11
10.5
 21
108.0
  0
LINE
  8
0
  6
CONTINUOUS
 62
     7
 10
10.49997
 20
109.0
 11
5.49997
 21
109.0
  0
LINE
  8
0
  6
CONTINUOUS
 62
     7
 10
16.49997
 20
108.0
 11
21.99997
 21
108.0
  0
LINE
  8
0
  6
CENTER
 62
     2
 10
13.5
 20
137.3962
 11
13.5
 21
105.5737
  0
LINE
  8
0
  6
CONTINUOUS
 62
     7
 10
22.5
 20
134.5
 11
22.5
 21
108.5
  0
LINE
  8
0
  6
CONTINUOUS
 62
     7
 10
4.5
 20
134.5
 11
4.5
 21
108.5
  0
LINE
  8
0
  6
CONTINUOUS
 62
     7
 10
4.99997
 20
108.0
 11
10.49997
 21
108.0
  0
LINE
  8
0
  6
CONTINUOUS
 62
     7
 10
5.0
 20
135.0
 11
22.0
 21
135.0
  0
LINE
  8
0
  6
CENTER
 62
     2
 10
12.20001
 20
84.50002
 11
12.20001
 21
108.5969
  0
LINE
  8
0
  6
CONTINUOUS
 62
     7
 10
13.05
 20
97.50002
 11
13.05
 21
101.8441
  0
LINE
  8
0
  6
CONTINUOUS
 62
     7
 10
11.35001
 20
97.50002
 11
11.35001
 21
102.2996
  0
LINE
  8
0
  6
CONTINUOUS
 62
     7
 10
12.52
 20
87.50002
 11
12.52
 21
97.50002
  0
LINE
  8
0
  6
CONTINUOUS
 62
     7
 10
11.88
 20
87.50002
 11
11.88
 21
97.50002
  0
LINE
  8
0
  6
CONTINUOUS
 62
     7
 10
11.34996
 20
97.5
 11
13.04996
 21
97.5
  0
LINE
  8
0
  6
CONTINUOUS
 62
     7
 10
11.87995
 20
87.5
 11
12.51995
 21
87.5
  0
LINE
  8
0
  6
CENTER
 62
     2
 10
14.8
 20
84.5
 11
14.8
 21
108.5345
  0
LINE
  8
0
  6
CONTINUOUS
 62
     7
 10
15.64999
 20
97.5
 11
15.64999
 21
101.1475
  0
LINE
  8
0
  6
CONTINUOUS
 62
     7
 10
13.95
 20
97.5
 11
13.95
 21
101.603
  0
LINE
  8
0
  6
CONTINUOUS
 62
     7
 10
15.12
 20
87.5
 11
15.12
 21
97.5
  0
LINE
  8
0
  6
CONTINUOUS
 62
     7
 10
14.48
 20
87.5
 11
14.48
 21
97.5
  0
LINE
  8
0
  6
CONTINUOUS
 62
     7
 10
13.94997
 20
97.5
 11
15.64996
 21
97.5
  0
LINE
  8
0
  6
CONTINUOUS
 62
     7
 10
14.47995
 20
87.5
 11
15.11995
 21
87.5
  0
LINE
  8
0
  6
PHANTOM
 62
     2
 10
17.64996
 20
102.1645
 11
9.34996
 21
104.3885
  0
LINE
  8
0
  6
PHANTOM
 62
     2
 10
17.64995
 20
100.6116
 11
9.34997
 21
102.8355
  0
LINE
  8
0
  6
CONTINUOUS
 62
     7
 10
15.64999
 20
102.7004
 11
15.64999
 21
107.5
  0
LINE
  8
0
  6
CONTINUOUS
 62
     7
 10
13.95
 20
103.1559
 11
13.95
 21
107.5
  0
LINE
  8
0
  6
CONTINUOUS
 62
     7
 10
13.05
 20
103.397
 11
13.05
 21
107.5
  0
LINE
  8
0
  6
CONTINUOUS
 62
     7
 10
11.35001
 20
103.8526
 11
11.35001
 21
107.5
  0
LINE
  8
0
  6
CENTER
 62
     2
 10
1.74998
 20
121.5
 11
25.72742
 21
121.5
  0
LINE
  8
0
  6
CONTINUOUS
 62
     7
 10
10.99997
 20
107.5
 11
15.99997
 21
107.5
  0
LINE
  8
0
  6
CONTINUOUS
 62
     7
 10
21.5
 20
134.0
 11
21.5
 21
109.0
  0
LINE
  8
0
  6
CONTINUOUS
 62
     7
 10
5.5
 20
134.0
 11
5.5
 21
109.0
  0
LINE
  8
0
  6
CONTINUOUS
 62
     7
 10
21.5
 20
134.0
 11
5.5
 21
134.0
  0
LINE
  8
0
  6
CONTINUOUS
 62
     7
 10
21.49997
 20
109.0
 11
16.49997
 21
109.0
  0
LINE
  8
0
  6
CONTINUOUS
 62
     7
 10
5.49997
 20
109.0
 11
4.64642
 21
108.1465
  0
LINE
  8
0
  6
CONTINUOUS
 62
     7
 10
5.49997
 20
134.0
 11
4.64643
 21
134.8535
  0
LINE
  8
0
  6
CONTINUOUS
 62
     7
 10
21.49999
 20
109.0
 11
22.35354
 21
108.1465
  0
LINE
  8
0
  6
CONTINUOUS
 62
     7
 10
21.50002
 20
134.0
 11
22.35356
 21
134.8536
  0
LINE
  8
0
  6
CONTINUOUS
 62
     7
 10
16.5
 20
109.5
 11
16.5
 21
108.0
  0
LINE
  8
0
  6
CONTINUOUS
 62
     7
 10
12.0
 20
112.5
 11
12.0
 21
109.5
  0
LINE
  8
0
  6
CONTINUOUS
 62
     7
 10
15.0
 20
130.5
 11
15.0
 21
133.5
  0
LINE
  8
0
  6
CONTINUOUS
 62
     7
 10
17.99999
 20
127.5
 11
20.99999
 21
127.5
  0
LINE
  8
0
  6
CONTINUOUS
 62
     7
 10
8.99998
 20
115.5
 11
5.99998
 21
115.5
  0
LINE
  8
0
  6
CONTINUOUS
 62
     7
 10
15.0
 20
132.5
 11
7.0
 21
132.5
  0
LINE
  8
0
  6
CONTINUOUS
 62
     7
 10
19.99997
 20
110.5
 11
11.99997
 21
110.5
  0
LINE
  8
0
  6
CONTINUOUS
 62
     7
 10
20.0
 20
127.5
 11
20.0
 21
110.5
  0
LINE
  8
0
  6
CONTINUOUS
 62
     7
 10
7.0
 20
132.5
 11
7.0
 21
115.5
  0
LINE
  8
0
  6
CONTINUOUS
 62
     7
 10
6.77006
 20
112.2
 11
6.46769
 21
112.2
  0
LINE
  8
0
  6
CONTINUOUS
 62
     7
 10
6.77007
 20
112.8
 11
6.46769
 21
112.8
  0
LINE
  8
0
  6
CONTINUOUS
 62
     7
 10
6.49195
 20
112.9608
 11
6.79767
 21
112.9608
  0
LINE
  8
0
  6
CONTINUOUS
 62
     7
 10
20.2299
 20
130.8
 11
20.53229
 21
130.8
  0
LINE
  8
0
  6
CONTINUOUS
 62
     7
 10
20.2299
 20
130.2
 11
20.53228
 21
130.2
  0
LINE
  8
0
  6
CONTINUOUS
 62
     7
 10
20.50801
 20
130.0392
 11
20.2023
 21
130.0392
  0
LINE
  8
0
  6
CONTINUOUS
 62
     7
 10
8.26461
 20
113.6031
 11
8.6323
 21
113.2354
  0
LINE
  8
0
  6
CONTINUOUS
 62
     7
 10
7.89689
 20
113.2354
 11
8.26459
 21
112.8677
  0
LINE
  8
0
  6
CONTINUOUS
 62
     7
 10
8.26462
 20
113.6031
 11
7.89692
 21
113.2354
  0
LINE
  8
0
  6
CONTINUOUS
 62
     7
 10
10.1031
 20
111.7646
 11
9.7354
 21
111.3969
  0
LINE
  8
0
  6
CONTINUOUS
 62
     7
 10
10.3965
 20
114.2642
 11
9.36771
 21
113.2354
  0
LINE
  8
0
  6
CONTINUOUS
 62
     7
 10
10.76419
 20
113.8965
 11
9.7354
 21
112.8677
  0
LINE
  8
0
  6
CONTINUOUS
 62
     7
 10
9.73539
 20
112.1323
 11
10.10308
 21
111.7646
  0
LINE
  8
0
  6
CONTINUOUS
 62
     7
 10
9.36768
 20
111.7646
 11
9.73538
 21
111.3969
  0
LINE
  8
0
  6
CONTINUOUS
 62
     7
 10
8.26463
 20
112.1323
 11
7.23584
 21
111.1035
  0
LINE
  8
0
  6
CONTINUOUS
 62
     7
 10
8.63232
 20
111.7646
 11
7.60353
 21
110.7358
  0
LINE
  8
0
  6
CONTINUOUS
 62
     7
 10
17.26462
 20
131.6031
 11
17.63232
 21
131.2354
  0
LINE
  8
0
  6
CONTINUOUS
 62
     7
 10
16.89692
 20
131.2354
 11
17.26461
 21
130.8677
  0
LINE
  8
0
  6
CONTINUOUS
 62
     7
 10
17.26462
 20
131.6031
 11
16.89692
 21
131.2354
  0
LINE
  8
0
  6
CONTINUOUS
 62
     7
 10
19.10309
 20
129.7646
 11
18.7354
 21
129.3969
  0
LINE
  8
0
  6
CONTINUOUS
 62
     7
 10
19.3965
 20
132.2642
 11
18.36771
 21
131.2354
  0
LINE
  8
0
  6
CONTINUOUS
 62
     7
 10
19.7642
 20
131.8965
 11
18.73541
 21
130.8677
  0
LINE
  8
0
  6
CONTINUOUS
 62
     7
 10
18.73541
 20
130.1323
 11
19.1031
 21
129.7646
  0
LINE
  8
0
  6
CONTINUOUS
 62
     7
 10
18.3677
 20
129.7646
 11
18.7354
 21
129.3969
  0
LINE
  8
0
  6
CONTINUOUS
 62
     7
 10
17.26463
 20
130.1323
 11
16.23583
 21
129.1035
  0
LINE
  8
0
  6
CONTINUOUS
 62
     7
 10
17.63233
 20
129.7646
 11
16.60353
 21
128.7358
  0
LINE
  8
0
  6
CENTER
 62
     2
 10
12.99997
 20
112.5
 11
4.99997
 21
112.5
  0
LINE
  8
0
  6
CENTER
 62
     2
 10
21.99999
 20
130.5
 11
13.99999
 21
130.5
  0
LINE
  8
0
  6
CENTER
 62
     2
 10
18.0
 20
134.5
 11
18.0
 21
126.5
  0
LINE
  8
0
  6
CENTER
 62
     2
 10
9.0
 20
116.5
 11
9.0
 21
108.5
  0
LINE
  8
0
  6
CONTINUOUS
 62
     7
 10
20.5
 20
133.5
 11
6.5
 21
133.5
  0
LINE
  8
0
  6
CONTINUOUS
 62
     7
 10
21.0
 20
133.0
 11
21.0
 21
109.5
  0
LINE
  8
0
  6
CONTINUOUS
 62
     7
 10
6.0
 20
133.0
 11
6.0
 21
109.5
  0
LINE
  8
0
  6
CONTINUOUS
 62
     7
 10
20.99997
 20
109.5
 11
5.99997
 21
109.5
  0
LINE
  8
0
  6
CENTER
 62
     2
 10
13.5
 20
74.66667
 11
13.5
 21
-83.41199
  0
LINE
  8
0
  6
CONTINUOUS
 62
     7
 10
22.5
 20
41.0
 11
22.5
 21
-51.19998
  0
LINE
  8
0
  6
CONTINUOUS
 62
     7
 10
4.5
 20
21.0
 11
22.5
 21
21.0
  0
LINE
  8
0
  6
CONTINUOUS
 62
     7
 10
4.49999
 20
-21.0
 11
22.49999
 21
-21.0
  0
LINE
  8
0
  6
CONTINUOUS
 62
     7
 10
5.50001
 20
42.00001
 11
4.50001
 21
41.00001
  0
LINE
  8
0
  6
CONTINUOUS
 62
     7
 10
21.49996
 20
41.99997
 11
22.49996
 21
40.99996
  0
LINE
  8
0
  6
CENTER
 62
     2
 10
20.0
 20
19.5913
 11
20.0
 21
10.58333
  0
LINE
  8
0
  6
CENTER
 62
     2
 10
7.0
 20
-10.88724
 11
7.0
 21
-19.29189
  0
LINE
  8
0
  6
CENTER
 62
     2
 10
4.08779
 20
-15.0
 11
11.2323
 21
-15.0
  0
LINE
  8
0
  6
CENTER
 62
     2
 10
15.6534
 20
15.0
 11
23.08437
 21
15.0
  0
LINE
  8
0
  6
CENTER
 62
     2
 10
10.5783
 20
38.5
 11
16.40971
 21
38.5
  0
LINE
  8
0
  6
CONTINUOUS
 62
     7
 10
6.0
 20
68.2
 11
6.0
 21
42.0
  0
LINE
  8
0
  6
CONTINUOUS
 62
     7
 10
6.00002
 20
67.2
 11
21.00002
 21
67.2
  0
LINE
  8
0
  6
CONTINUOUS
 62
     7
 10
21.0
 20
68.2
 11
21.0
 21
42.0
  0
LINE
  8
0
  6
CONTINUOUS
 62
     7
 10
5.50001
 20
42.0
 11
21.50001
 21
42.0
  0
LINE
  8
0
  6
CONTINUOUS
 62
     7
 10
6.00002
 20
68.2
 11
21.00002
 21
68.2
  0
LINE
  8
0
  6
CONTINUOUS
 62
     7
 10
7.00002
 20
70.2
 11
7.17426
 21
70.2
  0
LINE
  8
0
  6
CONTINUOUS
 62
     7
 10
20.99998
 20
68.19998
 11
19.99998
 21
70.19998
  0
LINE
  8
0
  6
CONTINUOUS
 62
     7
 10
6.00001
 20
68.2
 11
7.00001
 21
70.2
  0
LINE
  8
0
  6
CENTER
 62
     2
 10
9.0
 20
73.20001
 11
9.0
 21
64.2
  0
LINE
  8
0
  6
CONTINUOUS
 62
     7
 10
11.55002
 20
68.79999
 11
6.45001
 21
68.79999
  0
LINE
  8
0
  6
CONTINUOUS
 62
     7
 10
6.45
 20
68.8
 11
6.45
 21
68.2
  0
LINE
  8
0
  6
CONTINUOUS
 62
     7
 10
6.75002
 20
69.49374
 11
6.75002
 21
68.8
  0
LINE
  8
0
  6
CONTINUOUS
 62
     7
 10
10.82576
 20
70.2
 11
20.00002
 21
70.2
  0
LINE
  8
0
  6
CENTER
 62
     2
 10
18.0
 20
73.20001
 11
18.0
 21
64.2
  0
LINE
  8
0
  6
CONTINUOUS
 62
     7
 10
11.55
 20
68.8
 11
11.55
 21
68.2
  0
LINE
  8
0
  6
CONTINUOUS
 62
     7
 10
11.25
 20
69.49374
 11
11.25
 21
68.8
  0
LINE
  8
0
  6
CONTINUOUS
 62
     7
 10
12.0
 20
70.2
 11
12.0
 21
68.2
  0
LINE
  8
0
  6
CENTER
 62
     2
 10
12.2
 20
63.0
 11
12.2
 21
57.0
  0
LINE
  8
0
  6
CENTER
 62
     2
 10
14.8
 20
63.0
 11
14.8
 21
57.0
  0
LINE
  8
0
  6
CENTER
 62
     2
 10
9.50001
 20
60.0
 11
17.50001
 21
60.0
  0
LINE
  8
0
  6
CONTINUOUS
 62
     7
 10
4.50001
 20
41.0
 11
22.50001
 21
41.0
  0
LINE
  8
0
  6
CONTINUOUS
 62
     7
 10
4.5
 20
41.0
 11
4.5
 21
-51.19999
  0
LINE
  8
0
  6
CONTINUOUS
 62
     7
 10
4.5
 20
-51.19997
 11
5.5
 21
-52.19997
  0
LINE
  8
0
  6
CONTINUOUS
 62
     7
 10
21.49999
 20
-52.2
 11
22.49998
 21
-51.19999
  0
LINE
  8
0
  6
CONTINUOUS
 62
     7
 10
4.49998
 20
-51.2
 11
22.49998
 21
-51.2
  0
LINE
  8
0
  6
CONTINUOUS
 62
     7
 10
20.99997
 20
-78.39996
 11
20.99997
 21
-52.2
  0
LINE
  8
0
  6
CONTINUOUS
 62
     7
 10
20.99999
 20
-77.39999
 11
5.99999
 21
-77.39999
  0
LINE
  8
0
  6
CONTINUOUS
 62
     7
 10
5.99997
 20
-78.40002
 11
5.99997
 21
-52.2
  0
LINE
  8
0
  6
CONTINUOUS
 62
     7
 10
21.49998
 20
-52.2
 11
5.49999
 21
-52.2
  0
LINE
  8
0
  6
CONTINUOUS
 62
     7
 10
20.99999
 20
-78.39998
 11
5.99999
 21
-78.39998
  0
LINE
  8
0
  6
CONTINUOUS
 62
     7
 10
19.99999
 20
-80.39999
 11
19.82574
 21
-80.39999
  0
LINE
  8
0
  6
CONTINUOUS
 62
     7
 10
6.00002
 20
-78.39999
 11
7.00002
 21
-80.39999
  0
LINE
  8
0
  6
CONTINUOUS
 62
     7
 10
21.00001
 20
-78.4
 11
20.00001
 21
-80.4
  0
LINE
  8
0
  6
CENTER
 62
     2
 10
17.99996
 20
-83.39999
 11
17.99996
 21
-74.39999
  0
LINE
  8
0
  6
CONTINUOUS
 62
     7
 10
15.44998
 20
-78.99998
 11
20.54999
 21
-78.99998
  0
LINE
  8
0
  6
CONTINUOUS
 62
     7
 10
20.54996
 20
-78.99998
 11
20.54996
 21
-78.39997
  0
LINE
  8
0
  6
CONTINUOUS
 62
     7
 10
20.24993
 20
-79.69372
 11
20.24993
 21
-78.99998
  0
LINE
  8
0
  6
CONTINUOUS
 62
     7
 10
16.17425
 20
-80.39999
 11
6.99999
 21
-80.39999
  0
LINE
  8
0
  6
CENTER
 62
     2
 10
8.99996
 20
-83.39999
 11
8.99996
 21
-74.39999
  0
LINE
  8
0
  6
CONTINUOUS
 62
     7
 10
15.44996
 20
-78.99998
 11
15.44996
 21
-78.39997
  0
LINE
  8
0
  6
CONTINUOUS
 62
     7
 10
15.74996
 20
-79.69372
 11
15.74996
 21
-78.99998
  0
LINE
  8
0
  6
CONTINUOUS
 62
     7
 10
14.99996
 20
-80.39999
 11
14.99996
 21
-78.39997
  0
LINE
  8
0
  6
CENTER
 62
     2
 10
14.79996
 20
-73.19999
 11
14.79996
 21
-67.19999
  0
LINE
  8
0
  6
CENTER
 62
     2
 10
12.19996
 20
-73.19999
 11
12.19996
 21
-67.19999
  0
LINE
  8
0
  6
CENTER
 62
     2
 10
17.49999
 20
-70.19999
 11
9.49999
 21
-70.19999
  0
LINE
  8
0
  6
CENTER
 62
     2
 10
16.44446
 20
-48.69999
 11
10.53339
 21
-48.69999
  0
LINE
  8
0
  6
CENTER
 62
     2
 10
3.39921
 20
0.0
 11
24.17699
 21
0.0
  0
LINE
  8
0
  6
CONTINUOUS
 62
     7
 10
12.19998
 20
-71.89999
 11
14.79999
 21
-71.89999
  0
LINE
  8
0
  6
CONTINUOUS
 62
     7
 10
12.19998
 20
-68.5
 11
14.79999
 21
-68.5
  0
LINE
  8
0
  6
CONTINUOUS
 62
     7
 10
12.20001
 20
58.3
 11
14.80002
 21
58.3
  0
LINE
  8
0
  6
CONTINUOUS
 62
     7
 10
12.20001
 20
61.7
 11
14.80002
 21
61.7
  0
LINE
  8
0
  6
CENTER
 62
     2
 10
126.5
 20
73.35001
 11
126.5
 21
-85.0
  0
LINE
  8
0
  6
CONTINUOUS
 62
     7
 10
113.0
 20
41.00001
 11
113.0
 21
-51.19999
  0
LINE
  8
0
  6
CONTINUOUS
 62
     7
 10
140.0
 20
41.0
 11
140.0
 21
-51.2
  0
LINE
  8
0
  6
CONTINUOUS
 62
     7
 10
139.0
 20
41.99991
 11
140.0
 21
40.99991
  0
LINE
  8
0
  6
CONTINUOUS
 62
     7
 10
114.0
 20
42.00001
 11
113.0
 21
41.00001
  0
LINE
  8
0
  6
CONTINUOUS
 62
     7
 10
116.0
 20
16.65831
 11
113.0
 21
16.65831
  0
LINE
  8
0
  6
CONTINUOUS
 62
     7
 10
116.0
 20
13.34169
 11
113.0
 21
13.34169
  0
LINE
  8
0
  6
CONTINUOUS
 62
     7
 10
116.0
 20
16.65832
 11
116.0
 21
13.34169
  0
LINE
  8
0
  6
CONTINUOUS
 62
     7
 10
114.5
 20
67.2
 11
138.5
 21
67.2
  0
LINE
  8
0
  6
CONTINUOUS
 62
     7
 10
139.0
 20
42.0
 11
114.0
 21
42.0
  0
LINE
  8
0
  6
CONTINUOUS
 62
     7
 10
138.5
 20
68.2
 11
138.5
 21
42.0
  0
LINE
  8
0
  6
CONTINUOUS
 62
     7
 10
115.5
 20
70.2
 11
133.6742
 21
70.2
  0
LINE
  8
0
  6
CONTINUOUS
 62
     7
 10
114.5
 20
68.2
 11
138.5
 21
68.2
  0
LINE
  8
0
  6
CONTINUOUS
 62
     7
 10
114.5
 20
68.19999
 11
115.5
 21
70.19999
  0
LINE
  8
0
  6
CONTINUOUS
 62
     7
 10
138.5
 20
68.19997
 11
137.5
 21
70.19995
  0
LINE
  8
0
  6
CONTINUOUS
 62
     7
 10
132.5
 20
70.2
 11
132.5
 21
68.2
  0
LINE
  8
0
  6
CENTER
 62
     2
 10
135.5
 20
73.20001
 11
135.5
 21
64.2
  0
LINE
  8
0
  6
CONTINUOUS
 62
     7
 10
138.05
 20
68.80001
 11
132.95
 21
68.80001
  0
LINE
  8
0
  6
CONTINUOUS
 62
     7
 10
135.2
 20
68.20001
 11
135.0392
 21
68.8
  0
LINE
  8
0
  6
CONTINUOUS
 62
     7
 10
135.8
 20
68.80003
 11
135.9608
 21
68.20003
  0
LINE
  8
0
  6
CONTINUOUS
 62
     7
 10
138.05
 20
68.8
 11
138.05
 21
68.2
  0
LINE
  8
0
  6
CONTINUOUS
 62
     7
 10
132.95
 20
68.80001
 11
132.95
 21
68.2
  0
LINE
  8
0
  6
CONTINUOUS
 62
     7
 10
137.75
 20
69.49375
 11
137.75
 21
68.8
  0
LINE
  8
0
  6
CONTINUOUS
 62
     7
 10
133.25
 20
69.49375
 11
133.25
 21
68.8
  0
LINE
  8
0
  6
CONTINUOUS
 62
     7
 10
137.3258
 20
70.2
 11
137.5
 21
70.2
  0
LINE
  8
0
  6
CENTER
 62
     2
 10
117.5
 20
73.20002
 11
117.5
 21
64.20001
  0
LINE
  8
0
  6
CENTER
 62
     2
 10
89.50003
 20
60.0
 11
117.5
 21
60.0
  0
LINE
  8
0
  6
CONTINUOUS
 62
     7
 10
102.5
 20
59.15001
 11
106.4958
 21
59.15001
  0
LINE
  8
0
  6
CONTINUOUS
 62
     7
 10
102.5
 20
60.85
 11
106.9513
 21
60.85
  0
LINE
  8
0
  6
CONTINUOUS
 62
     7
 10
92.50003
 20
60.32
 11
102.5
 21
60.32
  0
LINE
  8
0
  6
CONTINUOUS
 62
     7
 10
92.50003
 20
59.68
 11
102.5
 21
59.68
  0
LINE
  8
0
  6
CONTINUOUS
 62
     7
 10
102.5
 20
59.15002
 11
102.5
 21
60.85001
  0
LINE
  8
0
  6
PHANTOM
 62
     2
 10
105.9597
 20
57.15007
 11
107.4871
 21
62.85006
  0
LINE
  8
0
  6
PHANTOM
 62
     2
 10
107.5128
 20
57.15001
 11
109.0401
 21
62.85001
  0
LINE
  8
0
  6
CONTINUOUS
 62
     7
 10
108.0487
 20
59.15001
 11
112.5
 21
59.15001
  0
LINE
  8
0
  6
CONTINUOUS
 62
     7
 10
108.5042
 20
60.85
 11
112.5
 21
60.85
  0
LINE
  8
0
  6
CONTINUOUS
 62
     7
 10
140.0
 20
41.0
 11
113.0
 21
41.0
  0
LINE
  8
0
  6
CONTINUOUS
 62
     7
 10
114.5
 20
68.20001
 11
114.5
 21
42.00001
  0
LINE
  8
0
  6
CENTER
 62
     2
 10
110.5
 20
0.0
 11
142.7537
 21
0.0
  0
LINE
  8
0
  6
CONTINUOUS
 62
     7
 10
92.50002
 20
60.32002
 11
92.50002
 21
59.68002
  0
LINE
  8
0
  6
CONTINUOUS
 62
     7
 10
140.0
 20
-21.0
 11
113.0
 21
-21.0
  0
LINE
  8
0
  6
CONTINUOUS
 62
     7
 10
140.0
 20
21.0
 11
113.0
 21
21.0
  0
LINE
  8
0
  6
CONTINUOUS
 62
     7
 10
113.0
 20
-51.2
 11
114.0
 21
-52.2
  0
LINE
  8
0
  6
CONTINUOUS
 62
     7
 10
140.0
 20
-51.19997
 11
139.0
 21
-52.19999
  0
LINE
  8
0
  6
CONTINUOUS
 62
     7
 10
113.0
 20
-51.2
 11
140.0
 21
-51.2
  0
LINE
  8
0
  6
CONTINUOUS
 62
     7
 10
138.5
 20
-77.39999
 11
114.5
 21
-77.39999
  0
LINE
  8
0
  6
CONTINUOUS
 62
     7
 10
139.0
 20
-52.19998
 11
114.0
 21
-52.19998
  0
LINE
  8
0
  6
CONTINUOUS
 62
     7
 10
138.5
 20
-78.39999
 11
138.5
 21
-52.19998
  0
LINE
  8
0
  6
CONTINUOUS
 62
     7
 10
114.5
 20
-78.39999
 11
114.5
 21
-52.19999
  0
LINE
  8
0
  6
CONTINUOUS
 62
     7
 10
137.5
 20
-80.39999
 11
119.3258
 21
-80.39999
  0
LINE
  8
0
  6
CONTINUOUS
 62
     7
 10
138.5
 20
-78.39999
 11
114.5
 21
-78.39999
  0
LINE
  8
0
  6
CONTINUOUS
 62
     7
 10
138.5
 20
-78.40001
 11
137.5
 21
-80.40001
  0
LINE
  8
0
  6
CONTINUOUS
 62
     7
 10
114.4999
 20
-78.40001
 11
115.4999
 21
-80.40001
  0
LINE
  8
0
  6
CONTINUOUS
 62
     7
 10
120.5
 20
-80.39999
 11
120.5
 21
-78.39999
  0
LINE
  8
0
  6
CENTER
 62
     2
 10
117.5
 20
-83.39999
 11
117.5
 21
-74.39999
  0
LINE
  8
0
  6
CONTINUOUS
 62
     7
 10
114.95
 20
-78.99998
 11
120.05
 21
-78.99998
  0
LINE
  8
0
  6
CONTINUOUS
 62
     7
 10
117.7999
 20
-78.40001
 11
117.9607
 21
-78.99999
  0
LINE
  8
0
  6
CONTINUOUS
 62
     7
 10
117.2001
 20
-78.99997
 11
117.0394
 21
-78.39997
  0
LINE
  8
0
  6
CONTINUOUS
 62
     7
 10
114.95
 20
-78.99998
 11
114.95
 21
-78.39998
  0
LINE
  8
0
  6
CONTINUOUS
 62
     7
 10
120.05
 20
-78.99998
 11
120.05
 21
-78.39999
  0
LINE
  8
0
  6
CONTINUOUS
 62
     7
 10
115.2499
 20
-79.69373
 11
115.2499
 21
-78.99998
  0
LINE
  8
0
  6
CONTINUOUS
 62
     7
 10
119.7499
 20
-79.69373
 11
119.7499
 21
-78.99998
  0
LINE
  8
0
  6
CONTINUOUS
 62
     7
 10
115.6742
 20
-80.39999
 11
115.5
 21
-80.39999
  0
LINE
  8
0
  6
CENTER
 62
     2
 10
135.5
 20
-83.39999
 11
135.5
 21
-74.39999
  0
LINE
  8
0
  6
CENTER
 62
     2
 10
89.50002
 20
-70.19999
 11
117.5
 21
-70.19999
  0
LINE
  8
0
  6
CONTINUOUS
 62
     7
 10
102.5
 20
-71.04999
 11
106.4958
 21
-71.04999
  0
LINE
  8
0
  6
CONTINUOUS
 62
     7
 10
102.5
 20
-69.34999
 11
106.9513
 21
-69.34999
  0
LINE
  8
0
  6
CONTINUOUS
 62
     7
 10
92.50002
 20
-70.51999
 11
102.5
 21
-70.51999
  0
LINE
  8
0
  6
CONTINUOUS
 62
     7
 10
92.50002
 20
-69.87999
 11
102.5
 21
-69.87999
  0
LINE
  8
0
  6
CONTINUOUS
 62
     7
 10
102.5
 20
-69.35001
 11
102.5
 21
-71.05
  0
LINE
  8
0
  6
CONTINUOUS
 62
     7
 10
92.49996
 20
-69.88
 11
92.49996
 21
-70.52
  0
LINE
  8
0
  6
PHANTOM
 62
     2
 10
105.9601
 20
-73.05004
 11
107.4874
 21
-67.35004
  0
LINE
  8
0
  6
PHANTOM
 62
     2
 10
107.5129
 20
-73.05004
 11
109.0403
 21
-67.35004
  0
LINE
  8
0
  6
CONTINUOUS
 62
     7
 10
108.0487
 20
-71.04999
 11
112.5
 21
-71.04999
  0
LINE
  8
0
  6
CONTINUOUS
 62
     7
 10
108.5042
 20
-69.34999
 11
112.5
 21
-69.34999
  0
LINE
  8
0
  6
CENTER
 62
     2
 10
111.4761
 20
15.0
 11
117.0328
 21
15.0
  0
LINE
  8
0
  6
CONTINUOUS
 62
     7
 10
113.0
 20
61.7
 11
114.5
 21
61.7
  0
LINE
  8
0
  6
CONTINUOUS
 62
     7
 10
112.5
 20
58.80001
 11
112.5
 21
61.20001
  0
LINE
  8
0
  6
CONTINUOUS
 62
     7
 10
113.0
 20
58.30001
 11
114.5
 21
58.30001
  0
LINE
  8
0
  6
CONTINUOUS
 62
     7
 10
113.0
 20
-68.50001
 11
114.5
 21
-68.50001
  0
LINE
  8
0
  6
CONTINUOUS
 62
     7
 10
112.5
 20
-71.39999
 11
112.5
 21
-69.0
  0
LINE
  8
0
  6
CONTINUOUS
 62
     7
 10
113.0
 20
-71.9
 11
114.5
 21
-71.9
  0
LINE
  8
0
  6
CENTER
 62
     2
 10
-126.5
 20
73.35001
 11
-126.5
 21
-83.6942
  0
LINE
  8
0
  6
CONTINUOUS
 62
     7
 10
-139.0
 20
41.99994
 11
-140.0
 21
40.99994
  0
LINE
  8
0
  6
CONTINUOUS
 62
     7
 10
-114.0
 20
41.99999
 11
-113.0
 21
40.99999
  0
LINE
  8
0
  6
CONTINUOUS
 62
     7
 10
-116.0
 20
-13.34169
 11
-113.0
 21
-13.34169
  0
LINE
  8
0
  6
CONTINUOUS
 62
     7
 10
-116.0
 20
-16.65831
 11
-113.0
 21
-16.65831
  0
LINE
  8
0
  6
CONTINUOUS
 62
     7
 10
-116.0
 20
-13.34169
 11
-116.0
 21
-16.65831
  0
LINE
  8
0
  6
CONTINUOUS
 62
     7
 10
-138.5
 20
67.2
 11
-114.5
 21
67.2
  0
LINE
  8
0
  6
CONTINUOUS
 62
     7
 10
-139.0
 20
42.0
 11
-114.0
 21
42.0
  0
LINE
  8
0
  6
CONTINUOUS
 62
     7
 10
-138.5
 20
68.2
 11
-138.5
 21
42.0
  0
LINE
  8
0
  6
CONTINUOUS
 62
     7
 10
-137.5
 20
70.2
 11
-119.3258
 21
70.2
  0
LINE
  8
0
  6
CONTINUOUS
 62
     7
 10
-138.5
 20
68.2
 11
-114.5
 21
68.2
  0
LINE
  8
0
  6
CONTINUOUS
 62
     7
 10
-138.5001
 20
68.20002
 11
-137.5001
 21
70.20002
  0
LINE
  8
0
  6
CONTINUOUS
 62
     7
 10
-114.5001
 20
68.20001
 11
-115.5001
 21
70.2
  0
LINE
  8
0
  6
CONTINUOUS
 62
     7
 10
-120.5
 20
70.2
 11
-120.5
 21
68.2
  0
LINE
  8
0
  6
CENTER
 62
     2
 10
-117.5
 20
73.20001
 11
-117.5
 21
64.2
  0
LINE
  8
0
  6
CONTINUOUS
 62
     7
 10
-114.95
 20
68.8
 11
-120.05
 21
68.8
  0
LINE
  8
0
  6
CONTINUOUS
 62
     7
 10
-117.8001
 20
68.2
 11
-117.9608
 21
68.80001
  0
LINE
  8
0
  6
CONTINUOUS
 62
     7
 10
-117.2
 20
68.80003
 11
-117.0392
 21
68.20003
  0
LINE
  8
0
  6
CONTINUOUS
 62
     7
 10
-114.95
 20
68.8
 11
-114.95
 21
68.2
  0
LINE
  8
0
  6
CONTINUOUS
 62
     7
 10
-120.05
 20
68.8
 11
-120.05
 21
68.2
  0
LINE
  8
0
  6
CONTINUOUS
 62
     7
 10
-115.25
 20
69.49374
 11
-115.25
 21
68.8
  0
LINE
  8
0
  6
CONTINUOUS
 62
     7
 10
-119.75
 20
69.49374
 11
-119.75
 21
68.8
  0
LINE
  8
0
  6
CONTINUOUS
 62
     7
 10
-115.6743
 20
70.2
 11
-115.5
 21
70.2
  0
LINE
  8
0
  6
CENTER
 62
     2
 10
-135.5
 20
73.20001
 11
-135.5
 21
64.2
  0
LINE
  8
0
  6
CENTER
 62
     2
 10
-89.50005
 20
60.0
 11
-117.5
 21
60.0
  0
LINE
  8
0
  6
CONTINUOUS
 62
     7
 10
-102.5
 20
60.85
 11
-106.4958
 21
60.85
  0
LINE
  8
0
  6
CONTINUOUS
 62
     7
 10
-102.5
 20
59.15
 11
-106.9513
 21
59.15
  0
LINE
  8
0
  6
PHANTOM
 62
     2
 10
-105.9598
 20
62.84996
 11
-107.4872
 21
57.14996
  0
LINE
  8
0
  6
PHANTOM
 62
     2
 10
-107.5128
 20
62.85001
 11
-109.0402
 21
57.15002
  0
LINE
  8
0
  6
CONTINUOUS
 62
     7
 10
-108.0488
 20
60.85
 11
-112.5
 21
60.85
  0
LINE
  8
0
  6
CONTINUOUS
 62
     7
 10
-108.5043
 20
59.15
 11
-112.5
 21
59.15
  0
LINE
  8
0
  6
CONTINUOUS
 62
     7
 10
-140.0
 20
41.0
 11
-113.0
 21
41.0
  0
LINE
  8
0
  6
CONTINUOUS
 62
     7
 10
-114.5
 20
68.19997
 11
-114.5
 21
42.0
  0
LINE
  8
0
  6
CONTINUOUS
 62
     7
 10
-102.5
 20
60.85
 11
-102.5
 21
59.15
  0
LINE
  8
0
  6
CONTINUOUS
 62
     7
 10
-92.50005
 20
59.68
 11
-102.5
 21
59.68
  0
LINE
  8
0
  6
CONTINUOUS
 62
     7
 10
-92.50005
 20
60.32
 11
-102.5
 21
60.32
  0
LINE
  8
0
  6
CONTINUOUS
 62
     7
 10
-92.50005
 20
60.32
 11
-92.50005
 21
59.68
  0
LINE
  8
0
  6
CONTINUOUS
 62
     7
 10
-140.0
 20
-21.0
 11
-113.0
 21
-21.0
  0
LINE
  8
0
  6
CONTINUOUS
 62
     7
 10
-140.0
 20
21.0
 11
-113.0
 21
21.0
  0
LINE
  8
0
  6
CONTINUOUS
 62
     7
 10
-140.0
 20
41.0
 11
-140.0
 21
-51.2
  0
LINE
  8
0
  6
CONTINUOUS
 62
     7
 10
-140.0
 20
-51.19999
 11
-139.0
 21
-52.19999
  0
LINE
  8
0
  6
CONTINUOUS
 62
     7
 10
-113.0
 20
41.0
 11
-113.0
 21
-51.2
  0
LINE
  8
0
  6
CONTINUOUS
 62
     7
 10
-114.0
 20
-52.19999
 11
-113.0
 21
-51.2
  0
LINE
  8
0
  6
CONTINUOUS
 62
     7
 10
-140.0
 20
-51.2
 11
-113.0
 21
-51.2
  0
LINE
  8
0
  6
CONTINUOUS
 62
     7
 10
-138.5
 20
-77.4
 11
-114.5
 21
-77.4
  0
LINE
  8
0
  6
CONTINUOUS
 62
     7
 10
-139.0
 20
-52.2
 11
-114.0
 21
-52.2
  0
LINE
  8
0
  6
CONTINUOUS
 62
     7
 10
-138.5001
 20
-78.4
 11
-138.5001
 21
-52.2
  0
LINE
  8
0
  6
CONTINUOUS
 62
     7
 10
-115.5
 20
-80.4
 11
-133.6743
 21
-80.4
  0
LINE
  8
0
  6
CONTINUOUS
 62
     7
 10
-138.5
 20
-78.4
 11
-114.5
 21
-78.4
  0
LINE
  8
0
  6
CONTINUOUS
 62
     7
 10
-114.5
 20
-78.39998
 11
-115.5
 21
-80.39998
  0
LINE
  8
0
  6
CONTINUOUS
 62
     7
 10
-138.4999
 20
-78.39996
 11
-137.4999
 21
-80.39994
  0
LINE
  8
0
  6
CONTINUOUS
 62
     7
 10
-132.5001
 20
-80.39999
 11
-132.5001
 21
-78.39999
  0
LINE
  8
0
  6
CENTER
 62
     2
 10
-135.5001
 20
-83.4
 11
-135.5001
 21
-74.4
  0
LINE
  8
0
  6
CONTINUOUS
 62
     7
 10
-138.05
 20
-79.00001
 11
-132.95
 21
-79.00001
  0
LINE
  8
0
  6
CONTINUOUS
 62
     7
 10
-135.1999
 20
-78.39996
 11
-135.0391
 21
-78.99996
  0
LINE
  8
0
  6
CONTINUOUS
 62
     7
 10
-135.7999
 20
-78.99995
 11
-135.9607
 21
-78.39996
  0
LINE
  8
0
  6
CONTINUOUS
 62
     7
 10
-138.0501
 20
-79.0
 11
-138.0501
 21
-78.4
  0
LINE
  8
0
  6
CONTINUOUS
 62
     7
 10
-132.9501
 20
-78.99999
 11
-132.9501
 21
-78.39999
  0
LINE
  8
0
  6
CONTINUOUS
 62
     7
 10
-137.7501
 20
-79.69375
 11
-137.7501
 21
-79.0
  0
LINE
  8
0
  6
CONTINUOUS
 62
     7
 10
-133.2501
 20
-79.69374
 11
-133.2501
 21
-78.99998
  0
LINE
  8
0
  6
CONTINUOUS
 62
     7
 10
-137.3258
 20
-80.4
 11
-137.5
 21
-80.4
  0
LINE
  8
0
  6
CENTER
 62
     2
 10
-117.5001
 20
-83.39999
 11
-117.5001
 21
-74.39999
  0
LINE
  8
0
  6
CENTER
 62
     2
 10
-89.50003
 20
-70.2
 11
-117.5
 21
-70.2
  0
LINE
  8
0
  6
CONTINUOUS
 62
     7
 10
-102.5
 20
-69.35001
 11
-106.4958
 21
-69.35001
  0
LINE
  8
0
  6
CONTINUOUS
 62
     7
 10
-102.5
 20
-71.05
 11
-106.9513
 21
-71.05
  0
LINE
  8
0
  6
CONTINUOUS
 62
     7
 10
-92.50005
 20
-69.88
 11
-102.5
 21
-69.88
  0
LINE
  8
0
  6
CONTINUOUS
 62
     7
 10
-92.50004
 20
-70.52
 11
-102.5
 21
-70.52
  0
LINE
  8
0
  6
CONTINUOUS
 62
     7
 10
-102.5001
 20
-71.04998
 11
-102.5001
 21
-69.34998
  0
LINE
  8
0
  6
CONTINUOUS
 62
     7
 10
-92.50009
 20
-70.51997
 11
-92.50009
 21
-69.87997
  0
LINE
  8
0
  6
PHANTOM
 62
     2
 10
-105.9599
 20
-67.34999
 11
-107.4872
 21
-73.04999
  0
LINE
  8
0
  6
PHANTOM
 62
     2
 10
-107.5128
 20
-67.34999
 11
-109.0402
 21
-73.04998
  0
LINE
  8
0
  6
CONTINUOUS
 62
     7
 10
-108.5042
 20
-71.05
 11
-112.5
 21
-71.05
  0
LINE
  8
0
  6
CONTINUOUS
 62
     7
 10
-108.0487
 20
-69.35001
 11
-112.5
 21
-69.35001
  0
LINE
  8
0
  6
CONTINUOUS
 62
     7
 10
-114.5001
 20
-78.39999
 11
-114.5001
 21
-52.19999
  0
LINE
  8
0
  6
CENTER
 62
     2
 10
-117.5698
 20
-15.0
 11
-111.7218
 21
-15.0
  0
LINE
  8
0
  6
CENTER
 62
     2
 10
-141.9203
 20
0.0
 11
-110.8334
 21
0.0
  0
LINE
  8
0
  6
CONTINUOUS
 62
     7
 10
-113.0
 20
61.7
 11
-114.5
 21
61.7
  0
LINE
  8
0
  6
CONTINUOUS
 62
     7
 10
-112.5
 20
58.8
 11
-112.5
 21
61.2
  0
LINE
  8
0
  6
CONTINUOUS
 62
     7
 10
-113.0
 20
58.3
 11
-114.5
 21
58.3
  0
LINE
  8
0
  6
CONTINUOUS
 62
     7
 10
-113.0
 20
-68.49999
 11
-114.5
 21
-68.49999
  0
LINE
  8
0
  6
CONTINUOUS
 62
     7
 10
-112.5
 20
-71.39999
 11
-112.5
 21
-68.99999
  0
LINE
  8
0
  6
CONTINUOUS
 62
     7
 10
-113.0
 20
-71.89999
 11
-114.5
 21
-71.89999
  0
LINE
  8
0
  6
CONTINUOUS
 62
     7
 10
16.5
 20
-114.5
 11
16.5
 21
-113.0
  0
LINE
  8
0
  6
CONTINUOUS
 62
     7
 10
16.50003
 20
-114.0
 11
21.50003
 21
-114.0
  0
LINE
  8
0
  6
CONTINUOUS
 62
     7
 10
10.50003
 20
-113.0
 11
5.00003
 21
-113.0
  0
LINE
  8
0
  6
CENTER
 62
     2
 10
13.5
 20
-142.3962
 11
13.5
 21
-110.5737
  0
LINE
  8
0
  6
CONTINUOUS
 62
     7
 10
4.5
 20
-139.5
 11
4.5
 21
-113.5
  0
LINE
  8
0
  6
CONTINUOUS
 62
     7
 10
22.5
 20
-139.5
 11
22.5
 21
-113.5
  0
LINE
  8
0
  6
CONTINUOUS
 62
     7
 10
22.00003
 20
-113.0
 11
16.50003
 21
-113.0
  0
LINE
  8
0
  6
CONTINUOUS
 62
     7
 10
22.0
 20
-140.0
 11
5.0
 21
-140.0
  0
LINE
  8
0
  6
CENTER
 62
     2
 10
14.79999
 20
-89.50001
 11
14.79999
 21
-113.5969
  0
LINE
  8
0
  6
CONTINUOUS
 62
     7
 10
13.95
 20
-102.5
 11
13.95
 21
-106.8441
  0
LINE
  8
0
  6
CONTINUOUS
 62
     7
 10
15.64999
 20
-102.5
 11
15.64999
 21
-107.2996
  0
LINE
  8
0
  6
CONTINUOUS
 62
     7
 10
14.48
 20
-92.50001
 11
14.48
 21
-102.5
  0
LINE
  8
0
  6
CONTINUOUS
 62
     7
 10
15.12
 20
-92.50001
 11
15.12
 21
-102.5
  0
LINE
  8
0
  6
CONTINUOUS
 62
     7
 10
15.65004
 20
-102.5
 11
13.95004
 21
-102.5
  0
LINE
  8
0
  6
CONTINUOUS
 62
     7
 10
15.12005
 20
-92.5
 11
14.48005
 21
-92.5
  0
LINE
  8
0
  6
CENTER
 62
     2
 10
12.2
 20
-89.5
 11
12.2
 21
-113.5345
  0
LINE
  8
0
  6
CONTINUOUS
 62
     7
 10
11.35001
 20
-102.5
 11
11.35001
 21
-106.1474
  0
LINE
  8
0
  6
CONTINUOUS
 62
     7
 10
13.05
 20
-102.5
 11
13.05
 21
-106.603
  0
LINE
  8
0
  6
CONTINUOUS
 62
     7
 10
11.88
 20
-92.5
 11
11.88
 21
-102.5
  0
LINE
  8
0
  6
CONTINUOUS
 62
     7
 10
12.52
 20
-92.5
 11
12.52
 21
-102.5
  0
LINE
  8
0
  6
CONTINUOUS
 62
     7
 10
13.05003
 20
-102.5
 11
11.35004
 21
-102.5
  0
LINE
  8
0
  6
CONTINUOUS
 62
     7
 10
12.52005
 20
-92.5
 11
11.88005
 21
-92.5
  0
LINE
  8
0
  6
PHANTOM
 62
     2
 10
9.35004
 20
-107.1645
 11
17.65004
 21
-109.3885
  0
LINE
  8
0
  6
PHANTOM
 62
     2
 10
9.35005
 20
-105.6116
 11
17.65003
 21
-107.8355
  0
LINE
  8
0
  6
CONTINUOUS
 62
     7
 10
11.35001
 20
-107.7004
 11
11.35001
 21
-112.5
  0
LINE
  8
0
  6
CONTINUOUS
 62
     7
 10
13.05
 20
-108.1559
 11
13.05
 21
-112.5
  0
LINE
  8
0
  6
CONTINUOUS
 62
     7
 10
13.95
 20
-108.397
 11
13.95
 21
-112.5
  0
LINE
  8
0
  6
CONTINUOUS
 62
     7
 10
15.64999
 20
-108.8525
 11
15.64999
 21
-112.5
  0
LINE
  8
0
  6
CENTER
 62
     2
 10
25.25002
 20
-126.5
 11
1.27258
 21
-126.5
  0
LINE
  8
0
  6
CONTINUOUS
 62
     7
 10
16.00003
 20
-112.5
 11
11.00003
 21
-112.5
  0
LINE
  8
0
  6
CONTINUOUS
 62
     7
 10
5.5
 20
-139.0
 11
5.5
 21
-114.0
  0
LINE
  8
0
  6
CONTINUOUS
 62
     7
 10
21.5
 20
-139.0
 11
21.5
 21
-114.0
  0
LINE
  8
0
  6
CONTINUOUS
 62
     7
 10
5.5
 20
-139.0
 11
21.5
 21
-139.0
  0
LINE
  8
0
  6
CONTINUOUS
 62
     7
 10
5.50003
 20
-114.0
 11
10.50003
 21
-114.0
  0
LINE
  8
0
  6
CONTINUOUS
 62
     7
 10
21.50003
 20
-114.0
 11
22.35358
 21
-113.1464
  0
LINE
  8
0
  6
CONTINUOUS
 62
     7
 10
21.50003
 20
-139.0
 11
22.35357
 21
-139.8536
  0
LINE
  8
0
  6
CONTINUOUS
 62
     7
 10
5.5
 20
-114.0
 11
4.64645
 21
-113.1464
  0
LINE
  8
0
  6
CONTINUOUS
 62
     7
 10
5.49998
 20
-139.0
 11
4.64644
 21
-139.8535
  0
LINE
  8
0
  6
CONTINUOUS
 62
     7
 10
10.5
 20
-114.5
 11
10.5
 21
-113.0
  0
LINE
  8
0
  6
CONTINUOUS
 62
     7
 10
15.0
 20
-117.5
 11
15.0
 21
-114.5
  0
LINE
  8
0
  6
CONTINUOUS
 62
     7
 10
12.0
 20
-135.5
 11
12.0
 21
-138.5
  0
LINE
  8
0
  6
CONTINUOUS
 62
     7
 10
9.00001
 20
-132.5
 11
6.00001
 21
-132.5
  0
LINE
  8
0
  6
CONTINUOUS
 62
     7
 10
18.00002
 20
-120.5
 11
21.00002
 21
-120.5
  0
LINE
  8
0
  6
CONTINUOUS
 62
     7
 10
12.0
 20
-137.5
 11
20.0
 21
-137.5
  0
LINE
  8
0
  6
CONTINUOUS
 62
     7
 10
7.00003
 20
-115.5
 11
15.00003
 21
-115.5
  0
LINE
  8
0
  6
CONTINUOUS
 62
     7
 10
7.0
 20
-132.5
 11
7.0
 21
-115.5
  0
LINE
  8
0
  6
CONTINUOUS
 62
     7
 10
20.0
 20
-137.5
 11
20.0
 21
-120.5
  0
LINE
  8
0
  6
CONTINUOUS
 62
     7
 10
20.22994
 20
-117.2
 11
20.53231
 21
-117.2
  0
LINE
  8
0
  6
CONTINUOUS
 62
     7
 10
20.22993
 20
-117.8
 11
20.53231
 21
-117.8
  0
LINE
  8
0
  6
CONTINUOUS
 62
     7
 10
20.50805
 20
-117.9608
 11
20.20233
 21
-117.9608
  0
LINE
  8
0
  6
CONTINUOUS
 62
     7
 10
6.7701
 20
-135.8
 11
6.46771
 21
-135.8
  0
LINE
  8
0
  6
CONTINUOUS
 62
     7
 10
6.7701
 20
-135.2
 11
6.46772
 21
-135.2
  0
LINE
  8
0
  6
CONTINUOUS
 62
     7
 10
6.49199
 20
-135.0392
 11
6.7977
 21
-135.0392
  0
LINE
  8
0
  6
CONTINUOUS
 62
     7
 10
18.73539
 20
-118.6031
 11
18.3677
 21
-118.2354
  0
LINE
  8
0
  6
CONTINUOUS
 62
     7
 10
19.10311
 20
-118.2354
 11
18.73541
 21
-117.8677
  0
LINE
  8
0
  6
CONTINUOUS
 62
     7
 10
18.73539
 20
-118.6031
 11
19.10308
 21
-118.2354
  0
LINE
  8
0
  6
CONTINUOUS
 62
     7
 10
16.8969
 20
-116.7646
 11
17.2646
 21
-116.3969
  0
LINE
  8
0
  6
CONTINUOUS
 62
     7
 10
16.6035
 20
-119.2642
 11
17.63229
 21
-118.2354
  0
LINE
  8
0
  6
CONTINUOUS
 62
     7
 10
16.23581
 20
-118.8965
 11
17.26461
 21
-117.8677
  0
LINE
  8
0
  6
CONTINUOUS
 62
     7
 10
17.26461
 20
-117.1323
 11
16.89691
 21
-116.7646
  0
LINE
  8
0
  6
CONTINUOUS
 62
     7
 10
17.63232
 20
-116.7646
 11
17.26462
 21
-116.3969
  0
LINE
  8
0
  6
CONTINUOUS
 62
     7
 10
18.73538
 20
-117.1323
 11
19.76417
 21
-116.1035
  0
LINE
  8
0
  6
CONTINUOUS
 62
     7
 10
18.36769
 20
-116.7646
 11
19.39648
 21
-115.7358
  0
LINE
  8
0
  6
CONTINUOUS
 62
     7
 10
9.73537
 20
-136.6031
 11
9.36768
 21
-136.2354
  0
LINE
  8
0
  6
CONTINUOUS
 62
     7
 10
10.10308
 20
-136.2354
 11
9.73538
 21
-135.8677
  0
LINE
  8
0
  6
CONTINUOUS
 62
     7
 10
9.73539
 20
-136.6031
 11
10.10308
 21
-136.2354
  0
LINE
  8
0
  6
CONTINUOUS
 62
     7
 10
7.89691
 20
-134.7646
 11
8.2646
 21
-134.3969
  0
LINE
  8
0
  6
CONTINUOUS
 62
     7
 10
7.6035
 20
-137.2642
 11
8.63229
 21
-136.2354
  0
LINE
  8
0
  6
CONTINUOUS
 62
     7
 10
7.2358
 20
-136.8965
 11
8.2646
 21
-135.8677
  0
LINE
  8
0
  6
CONTINUOUS
 62
     7
 10
8.26459
 20
-135.1323
 11
7.8969
 21
-134.7646
  0
LINE
  8
0
  6
CONTINUOUS
 62
     7
 10
8.6323
 20
-134.7646
 11
8.2646
 21
-134.3969
  0
LINE
  8
0
  6
CONTINUOUS
 62
     7
 10
9.73538
 20
-135.1323
 11
10.76417
 21
-134.1035
  0
LINE
  8
0
  6
CONTINUOUS
 62
     7
 10
9.36768
 20
-134.7646
 11
10.39647
 21
-133.7358
  0
LINE
  8
0
  6
CENTER
 62
     2
 10
14.00003
 20
-117.5
 11
22.00003
 21
-117.5
  0
LINE
  8
0
  6
CENTER
 62
     2
 10
5.00001
 20
-135.5
 11
13.00001
 21
-135.5
  0
LINE
  8
0
  6
CENTER
 62
     2
 10
9.0
 20
-139.5
 11
9.0
 21
-131.5
  0
LINE
  8
0
  6
CENTER
 62
     2
 10
18.0
 20
-121.5
 11
18.0
 21
-113.5
  0
LINE
  8
0
  6
CONTINUOUS
 62
     7
 10
6.5
 20
-138.5
 11
20.5
 21
-138.5
  0
LINE
  8
0
  6
CONTINUOUS
 62
     7
 10
6.0
 20
-138.0
 11
6.0
 21
-114.5
  0
LINE
  8
0
  6
CONTINUOUS
 62
     7
 10
21.0
 20
-138.0
 11
21.0
 21
-114.5
  0
LINE
  8
0
  6
CONTINUOUS
 62
     7
 10
6.00003
 20
-114.5
 11
21.00003
 21
-114.5
  0
ARC
  8
0
  6
CONTINUOUS
 62
     7
 10
193.0652
 20
-166.2024
 40
1.56404
 50
0.0
 51
89.99999
  0
ARC
  8
0
  6
CONTINUOUS
 62
     7
 10
205.9686
 20
-174.6092
 40
1.56404
 50
270.0
 51
0.0
  0
ARC
  8
0
  6
CONTINUOUS
 62
     7
 10
205.1865
 20
-166.9844
 40
2.34607
 50
0.0
 51
89.99999
  0
ARC
  8
0
  6
CONTINUOUS
 62
     7
 10
219.4585
 20
-166.2024
 40
1.56404
 50
0.0
 51
89.99999
  0
ARC
  8
0
  6
CONTINUOUS
 62
     7
 10
219.4585
 20
-167.4519
 40
1.56405
 50
295.0
 51
0.0
  0
ARC
  8
0
  6
CONTINUOUS
 62
     7
 10
231.5798
 20
-164.6383
 40
2.34607
 50
291.6882
 51
0.0
  0
ARC
  8
0
  6
CONTINUOUS
 62
     7
 10
230.7978
 20
-164.1077
 40
0.78203
 50
291.688
 51
0.0
  0
ARC
  8
0
  6
CONTINUOUS
 62
     7
 10
5.0
 20
134.5
 40
0.5
 50
89.99999
 51
180.0
  0
ARC
  8
0
  6
CONTINUOUS
 62
     7
 10
4.99997
 20
108.5
 40
0.5
 50
180.0
 51
269.9999
  0
ARC
  8
0
  6
CONTINUOUS
 62
     7
 10
21.99997
 20
108.5
 40
0.5
 50
270.0
 51
0.0
  0
ARC
  8
0
  6
CONTINUOUS
 62
     7
 10
22.0
 20
134.5
 40
0.5
 50
0.0
 51
89.99999
  0
ARC
  8
0
  6
CONTINUOUS
 62
     7
 10
10.99997
 20
108.0
 40
0.5
 50
180.0
 51
270.0
  0
ARC
  8
0
  6
CONTINUOUS
 62
     7
 10
15.99997
 20
108.0
 40
0.5
 50
270.0
 51
0.0
  0
ARC
  8
0
  6
CONTINUOUS
 62
     7
 10
8.99997
 20
112.5
 40
3.0
 50
0.0
 51
89.99998
  0
ARC
  8
0
  6
CONTINUOUS
 62
     7
 10
17.99999
 20
130.5
 40
3.0
 50
180.0
 51
270.0
  0
ARC
  8
0
  6
CONTINUOUS
 62
     7
 10
8.99997
 20
112.5
 40
2.55
 50
186.7564
 51
173.2438
  0
ARC
  8
0
  6
CONTINUOUS
 62
     7
 10
17.99999
 20
130.5
 40
2.55
 50
6.7564
 51
353.2436
  0
CIRCLE
  8
0
  6
CONTINUOUS
 62
     7
 10
8.99997
 20
112.5
 40
2.25
  0
ARC
  8
0
  6
CONTINUOUS
 62
     7
 10
10.10306
 20
112.5
 40
0.52
 50
134.9998
 51
225.0002
  0
ARC
  8
0
  6
CONTINUOUS
 62
     7
 10
8.99997
 20
113.6031
 40
0.52
 50
225.0002
 51
314.9998
  0
ARC
  8
0
  6
CONTINUOUS
 62
     7
 10
8.99997
 20
111.3969
 40
0.52
 50
45.00022
 51
134.9998
  0
ARC
  8
0
  6
CONTINUOUS
 62
     7
 10
7.89688
 20
112.5
 40
0.52
 50
314.9998
 51
45.00022
  0
CIRCLE
  8
0
  6
CONTINUOUS
 62
     7
 10
17.99999
 20
130.5
 40
2.25
  0
ARC
  8
0
  6
CONTINUOUS
 62
     7
 10
19.10308
 20
130.5
 40
0.52
 50
135.0003
 51
224.9997
  0
ARC
  8
0
  6
CONTINUOUS
 62
     7
 10
18.0
 20
131.6031
 40
0.52
 50
224.9997
 51
315.0003
  0
ARC
  8
0
  6
CONTINUOUS
 62
     7
 10
17.99999
 20
129.3969
 40
0.52
 50
44.9997
 51
135.0003
  0
ARC
  8
0
  6
CONTINUOUS
 62
     7
 10
16.89691
 20
130.5
 40
0.52
 50
315.0003
 51
44.9997
  0
ARC
  8
0
  6
CONTINUOUS
 62
     7
 10
20.5
 20
133.0
 40
0.5
 50
0.0
 51
89.99999
  0
ARC
  8
0
  6
CONTINUOUS
 62
     7
 10
6.5
 20
133.0
 40
0.5
 50
89.99999
 51
180.0
  0
CIRCLE
  8
0
  6
CONTINUOUS
 62
     7
 10
6.99999
 20
-15.0
 40
1.6
  0
CIRCLE
  8
0
  6
CONTINUOUS
 62
     7
 10
20.0
 20
15.0
 40
1.6
  0
ARC
  8
0
  6
CONTINUOUS
 62
     7
 10
20.0
 20
15.0
 40
3.0
 50
33.5573
 51
326.4427
  0
ARC
  8
0
  6
CONTINUOUS
 62
     7
 10
6.99999
 20
-15.0
 40
3.0
 50
0.0
 51
146.4427
  0
ARC
  8
0
  6
CONTINUOUS
 62
     7
 10
6.99999
 20
-15.0
 40
3.0
 50
213.5573
 51
0.0
  0
CIRCLE
  8
0
  6
CONTINUOUS
 62
     7
 10
13.50001
 20
38.5
 40
1.65
  0
ARC
  8
0
  6
CONTINUOUS
 62
     7
 10
9.00002
 20
64.49999
 40
6.0
 50
73.80869
 51
106.1913
  0
ARC
  8
0
  6
CONTINUOUS
 62
     7
 10
10.45001
 20
69.49374
 40
0.8
 50
0.0
 51
73.80873
  0
ARC
  8
0
  6
CONTINUOUS
 62
     7
 10
7.55002
 20
69.49374
 40
0.8
 50
106.1913
 51
180.0
  0
ARC
  8
0
  6
CONTINUOUS
 62
     7
 10
18.00002
 20
64.49998
 40
6.0
 50
73.80865
 51
106.1913
  0
ARC
  8
0
  6
CONTINUOUS
 62
     7
 10
16.55002
 20
69.49373
 40
0.8
 50
106.1913
 51
118.0138
  0
ARC
  8
0
  6
CONTINUOUS
 62
     7
 10
19.45001
 20
69.49374
 40
0.8
 50
61.98621
 51
73.80879
  0
ARC
  8
0
  6
CONTINUOUS
 62
     7
 10
17.99999
 20
-74.69997
 40
6.0
 50
253.8087
 51
286.1913
  0
ARC
  8
0
  6
CONTINUOUS
 62
     7
 10
16.54999
 20
-79.69372
 40
0.8
 50
180.0
 51
253.8088
  0
ARC
  8
0
  6
CONTINUOUS
 62
     7
 10
19.44998
 20
-79.69372
 40
0.8
 50
286.1915
 51
0.0
  0
ARC
  8
0
  6
CONTINUOUS
 62
     7
 10
8.99999
 20
-74.69998
 40
6.0
 50
253.8087
 51
286.1913
  0
ARC
  8
0
  6
CONTINUOUS
 62
     7
 10
10.44998
 20
-79.69373
 40
0.8
 50
286.1914
 51
298.0138
  0
ARC
  8
0
  6
CONTINUOUS
 62
     7
 10
7.54999
 20
-79.69373
 40
0.8
 50
241.9862
 51
253.8088
  0
CIRCLE
  8
0
  6
CONTINUOUS
 62
     7
 10
13.49998
 20
-48.7
 40
1.65
  0
ARC
  8
0
  6
CONTINUOUS
 62
     7
 10
12.19998
 20
-70.2
 40
1.7
 50
89.99997
 51
270.0
  0
CIRCLE
  8
0
  6
CONTINUOUS
 62
     7
 10
12.19998
 20
-70.2
 40
0.85
  0
ARC
  8
0
  6
CONTINUOUS
 62
     7
 10
14.79999
 20
-70.2
 40
1.7
 50
270.0
 51
89.99997
  0
CIRCLE
  8
0
  6
CONTINUOUS
 62
     7
 10
14.79999
 20
-70.2
 40
0.85
  0
ARC
  8
0
  6
CONTINUOUS
 62
     7
 10
12.20001
 20
60.0
 40
1.7
 50
89.99997
 51
270.0
  0
CIRCLE
  8
0
  6
CONTINUOUS
 62
     7
 10
12.20001
 20
60.0
 40
0.85
  0
ARC
  8
0
  6
CONTINUOUS
 62
     7
 10
14.80002
 20
60.0
 40
1.7
 50
270.0
 51
89.99997
  0
CIRCLE
  8
0
  6
CONTINUOUS
 62
     7
 10
14.80002
 20
60.0
 40
0.85
  0
ARC
  8
0
  6
CONTINUOUS
 62
     7
 10
135.5
 20
64.50001
 40
6.0
 50
73.80862
 51
106.1914
  0
ARC
  8
0
  6
CONTINUOUS
 62
     7
 10
136.95
 20
69.49375
 40
0.8
 50
0.0
 51
73.80827
  0
ARC
  8
0
  6
CONTINUOUS
 62
     7
 10
134.05
 20
69.49375
 40
0.80001
 50
106.1917
 51
180.0
  0
ARC
  8
0
  6
CONTINUOUS
 62
     7
 10
117.5
 20
64.5
 40
6.0
 50
73.80862
 51
106.1913
  0
ARC
  8
0
  6
CONTINUOUS
 62
     7
 10
116.05
 20
69.49374
 40
0.8
 50
106.1912
 51
118.0138
  0
ARC
  8
0
  6
CONTINUOUS
 62
     7
 10
118.95
 20
69.49375
 40
0.8
 50
61.98621
 51
73.80879
  0
ARC
  8
0
  6
CONTINUOUS
 62
     7
 10
117.5
 20
-74.69999
 40
6.0
 50
253.8087
 51
286.1914
  0
ARC
  8
0
  6
CONTINUOUS
 62
     7
 10
116.05
 20
-79.69373
 40
0.8
 50
180.0
 51
253.8088
  0
ARC
  8
0
  6
CONTINUOUS
 62
     7
 10
118.95
 20
-79.69373
 40
0.8
 50
286.1913
 51
0.0
  0
ARC
  8
0
  6
CONTINUOUS
 62
     7
 10
135.5
 20
-74.69997
 40
6.0
 50
253.8086
 51
286.1914
  0
ARC
  8
0
  6
CONTINUOUS
 62
     7
 10
136.95
 20
-79.69372
 40
0.8
 50
286.1919
 51
298.0138
  0
ARC
  8
0
  6
CONTINUOUS
 62
     7
 10
134.05
 20
-79.69372
 40
0.8
 50
241.9862
 51
253.8093
  0
ARC
  8
0
  6
CONTINUOUS
 62
     7
 10
113.0
 20
61.20001
 40
0.5
 50
89.99999
 51
180.0
  0
ARC
  8
0
  6
CONTINUOUS
 62
     7
 10
113.0
 20
58.80001
 40
0.5
 50
180.0
 51
270.0
  0
ARC
  8
0
  6
CONTINUOUS
 62
     7
 10
113.0
 20
-69.0
 40
0.5
 50
89.99999
 51
180.0
  0
ARC
  8
0
  6
CONTINUOUS
 62
     7
 10
113.0
 20
-71.39999
 40
0.5
 50
180.0
 51
270.0
  0
ARC
  8
0
  6
CONTINUOUS
 62
     7
 10
-117.5
 20
64.5
 40
6.0
 50
73.80869
 51
106.1913
  0
ARC
  8
0
  6
CONTINUOUS
 62
     7
 10
-116.05
 20
69.49374
 40
0.8
 50
0.0
 51
73.80879
  0
ARC
  8
0
  6
CONTINUOUS
 62
     7
 10
-118.95
 20
69.49374
 40
0.8
 50
106.1912
 51
180.0
  0
ARC
  8
0
  6
CONTINUOUS
 62
     7
 10
-135.5
 20
64.49998
 40
6.0
 50
73.80862
 51
106.1914
  0
ARC
  8
0
  6
CONTINUOUS
 62
     7
 10
-136.95
 20
69.49373
 40
0.80001
 50
106.1917
 51
118.0138
  0
ARC
  8
0
  6
CONTINUOUS
 62
     7
 10
-134.05
 20
69.49374
 40
0.8
 50
61.98621
 51
73.80827
  0
ARC
  8
0
  6
CONTINUOUS
 62
     7
 10
-135.5
 20
-74.7
 40
6.0
 50
253.8088
 51
286.1914
  0
ARC
  8
0
  6
CONTINUOUS
 62
     7
 10
-136.95
 20
-79.69374
 40
0.8
 50
180.0
 51
253.8083
  0
ARC
  8
0
  6
CONTINUOUS
 62
     7
 10
-134.05
 20
-79.69374
 40
0.8
 50
286.1919
 51
0.0
  0
ARC
  8
0
  6
CONTINUOUS
 62
     7
 10
-117.5
 20
-74.69997
 40
6.0
 50
253.8087
 51
286.1914
  0
ARC
  8
0
  6
CONTINUOUS
 62
     7
 10
-116.05
 20
-79.69372
 40
0.8
 50
286.1913
 51
298.0138
  0
ARC
  8
0
  6
CONTINUOUS
 62
     7
 10
-118.95
 20
-79.69372
 40
0.8
 50
241.9862
 51
253.8088
  0
ARC
  8
0
  6
CONTINUOUS
 62
     7
 10
-113.0
 20
61.2
 40
0.5
 50
0.0
 51
89.99999
  0
ARC
  8
0
  6
CONTINUOUS
 62
     7
 10
-113.0
 20
58.8
 40
0.5
 50
270.0
 51
0.0
  0
ARC
  8
0
  6
CONTINUOUS
 62
     7
 10
-113.0
 20
-68.99999
 40
0.5
 50
0.0
 51
89.99999
  0
ARC
  8
0
  6
CONTINUOUS
 62
     7
 10
-113.0
 20
-71.39999
 40
0.5
 50
270.0
 51
0.0
  0
ARC
  8
0
  6
CONTINUOUS
 62
     7
 10
22.0
 20
-139.5
 40
0.5
 50
270.0
 51
0.0
  0
ARC
  8
0
  6
CONTINUOUS
 62
     7
 10
22.00003
 20
-113.5
 40
0.5
 50
0.0
 51
89.99999
  0
ARC
  8
0
  6
CONTINUOUS
 62
     7
 10
5.00003
 20
-113.5
 40
0.5
 50
89.99995
 51
180.0
  0
ARC
  8
0
  6
CONTINUOUS
 62
     7
 10
5.0
 20
-139.5
 40
0.5
 50
180.0
 51
269.9999
  0
ARC
  8
0
  6
CONTINUOUS
 62
     7
 10
16.00003
 20
-113.0
 40
0.5
 50
0.0
 51
89.99999
  0
ARC
  8
0
  6
CONTINUOUS
 62
     7
 10
11.00003
 20
-113.0
 40
0.5
 50
89.99989
 51
180.0
  0
ARC
  8
0
  6
CONTINUOUS
 62
     7
 10
18.00003
 20
-117.5
 40
3.0
 50
180.0
 51
269.9999
  0
ARC
  8
0
  6
CONTINUOUS
 62
     7
 10
9.0
 20
-135.5
 40
3.0
 50
0.0
 51
89.99998
  0
ARC
  8
0
  6
CONTINUOUS
 62
     7
 10
18.00003
 20
-117.5
 40
2.55
 50
6.7564
 51
353.2436
  0
ARC
  8
0
  6
CONTINUOUS
 62
     7
 10
9.0
 20
-135.5
 40
2.55
 50
186.7564
 51
173.2436
  0
CIRCLE
  8
0
  6
CONTINUOUS
 62
     7
 10
18.00003
 20
-117.5
 40
2.25
  0
ARC
  8
0
  6
CONTINUOUS
 62
     7
 10
16.89694
 20
-117.5
 40
0.52
 50
314.9997
 51
45.0003
  0
ARC
  8
0
  6
CONTINUOUS
 62
     7
 10
18.00003
 20
-118.6031
 40
0.52
 50
45.0003
 51
134.9997
  0
ARC
  8
0
  6
CONTINUOUS
 62
     7
 10
18.00003
 20
-116.3969
 40
0.52
 50
225.0003
 51
314.9997
  0
ARC
  8
0
  6
CONTINUOUS
 62
     7
 10
19.10312
 20
-117.5
 40
0.52
 50
134.9997
 51
225.0001
  0
CIRCLE
  8
0
  6
CONTINUOUS
 62
     7
 10
9.0
 20
-135.5
 40
2.25
  0
ARC
  8
0
  6
CONTINUOUS
 62
     7
 10
7.89692
 20
-135.5
 40
0.52
 50
315.0003
 51
44.99963
  0
ARC
  8
0
  6
CONTINUOUS
 62
     7
 10
9.0
 20
-136.6031
 40
0.52
 50
44.99963
 51
135.0004
  0
ARC
  8
0
  6
CONTINUOUS
 62
     7
 10
9.00001
 20
-134.3969
 40
0.52
 50
224.9996
 51
315.0003
  0
ARC
  8
0
  6
CONTINUOUS
 62
     7
 10
10.10309
 20
-135.5
 40
0.52
 50
135.0004
 51
224.9996
  0
ARC
  8
0
  6
CONTINUOUS
 62
     7
 10
6.5
 20
-138.0
 40
0.5
 50
180.0
 51
269.9999
  0
ARC
  8
0
  6
CONTINUOUS
 62
     7
 10
20.5
 20
-138.0
 40
0.5
 50
270.0
 51
0.0
  0
TEXT
  8
0
  6
CONTINUOUS
 62
     7
 10
161.9774
 20
167.0677
 40
6.0
  1
DATE : AUG ,1989
 41
0.8
  7
STANDARD
  0
TEXT
  8
0
  6
CONTINUOUS
 62
     7
 10
-235.1446
 20
166.5977
 40
7.0
  1
A183-4E2
 41
0.8
  7
STANDARD
  0
TEXT
  8
0
  6
CONTINUOUS
 62
     7
 10
-229.2471
 20
127.675
 40
7.0
  1
MODEL : A183-4E2
 41
0.8
  7
STANDARD
  0
ENDSEC
  0
EOF
