  0
SECTION
  2
HEADER
  0
ENDSEC
  0
SECTION
  2
TABLES
  0
TABLE
  2
LTYPE
 70
     4
  0
LTYPE
  2
CONTINUOUS
 70
    64
  3
Solid line
 72
    65
 73
     0
 40
0.000000
  0
LTYPE
  2
DASHED
 70
    64
  3
__ __ __ __ __ __ __ __ __ __ __ __ __ __ __
 72
    65
 73
     2
 40
3.500000
 49
2.000000
 49
-1.500000
  0
LTYPE
  2
CENTER
 70
    64
  3
____ _ ____ _ ____ _ ____ _ ____ _ ____ _ ____
 72
    65
 73
     4
 40
17.500000
 49
13.000000
 49
-1.500000
 49
1.500000
 49
-1.500000
  0
LTYPE
  2
PHANTOM
 70
    64
  3
_____ _ _ _____ _ _ _____ _ _ _____ _ _ ____  
 72
    65
 73
     6
 40
15.500000
 49
8.000000
 49
-1.500000
 49
1.500000
 49
-1.500000
 49
1.500000
 49
-1.500000
  0
LTYPE
  2
DASHED1
 70
    64
  3
__ __ __ __ __ __ __ __ __ __ __ __ __ __ __
 72
    65
 73
     2
 40
1.500000
 49
1.000000
 49
-0.500000
  0
LTYPE
  2
DASHED2
 70
    64
  3
__ __ __ __ __ __ __ __ __ __ __ __ __ __ __
 72
    65
 73
     2
 40
3.500000
 49
2.500000
 49
-1.000000
  0
LTYPE
  2
DASHED3
 70
    64
  3
__ __ __ __ __ __ __ __ __ __ __ __ __ __ __
 72
    65
 73
     2
 40
6.000000
 49
4.000000
 49
-2.000000
  0
LTYPE
  2
DASHED4
 70
    64
  3
__ __ __ __ __ __ __ __ __ __ __ __ __ __ __
 72
    65
 73
     2
 40
12.000000
 49
10.000000
 49
-2.000000
  0
LTYPE
  2
DASHED5
 70
    64
  3
__ __ __ __ __ __ __ __ __ __ __ __ __ __ __
 72
    65
 73
     2
 40
17.000000
 49
15.000000
 49
-2.000000
  0
LTYPE
  2
DASHED6
 70
    64
  3
__ __ __ __ __ __ __ __ __ __ __ __ __ __ __
 72
    65
 73
     2
 40
29.000000
 49
27.000000
 49
-2.000000
  0
LTYPE
  2
PHANTOM1
 70
    64
  3
_____ _ _ _____ _ _ _____ _ _ _____ _ _ ____  
 72
    65
 73
     6
 40
31.000000
 49
25.000000
 49
-1.500000
 49
1.000000
 49
-1.000000
 49
1.000000
 49
-1.500000
  0
LTYPE
  2
PHANTOM2
 70
    64
  3
_____ _ _ _____ _ _ _____ _ _ _____ _ _ ____  
 72
    65
 73
     6
 40
36.000000
 49
27.000000
 49
-1.500000
 49
2.500000
 49
-1.000000
 49
2.500000
 49
-1.500000
  0
LTYPE
  2
PHANTOM3
 70
    64
  3
_____ _ _ _____ _ _ _____ _ _ _____ _ _ ____  
 72
    65
 73
     6
 40
78.000000
 49
64.000000
 49
-2.000000
 49
4.000000
 49
-2.000000
 49
4.000000
 49
-2.000000
  0
LTYPE
  2
CENTER1
 70
    64
  3
____ _ ____ _ ____ _ ____ _ ____ _ ____ _ ____
 72
    65
 73
     4
 40
19.000000
 49
14.000000
 49
-1.000000
 49
3.000000
 49
-1.000000
  0
LTYPE
  2
CENTER2
 70
    64
  3
____ _ ____ _ ____ _ ____ _ ____ _ ____ _ ____
 72
    65
 73
     4
 40
28.500000
 49
25.000000
 49
-1.000000
 49
1.500000
 49
-1.000000
  0
LTYPE
  2
CENTER3
 70
    64
  3
____ _ ____ _ ____ _ ____ _ ____ _ ____ _ ____
 72
    65
 73
     4
 40
31.500000
 49
27.000000
 49
-1.000000
 49
2.500000
 49
-1.000000
  0
LTYPE
  2
CENTER4
 70
    64
  3
____ _ ____ _ ____ _ ____ _ ____ _ ____ _ ____
 72
    65
 73
     4
 40
50.000000
 49
45.000000
 49
-1.000000
 49
3.000000
 49
-1.000000
  0
LTYPE
  2
CENTER5
 70
    64
  3
____ _ ____ _ ____ _ ____ _ ____ _ ____ _ ____
 72
    65
 73
     4
 40
100.000000
 49
92.000000
 49
-2.000000
 49
4.000000
 49
-2.000000
  0
LTYPE
  2
SBK1
 70
    64
  3
______ _ _ _ ______ _ _ _ ______ _ _ _ _____  
 72
    65
 73
     8
 40
60.500000
 49
45.000000
 49
-2.000000
 49
2.500000
 49
-2.000000
 49
2.500000
 49
-2.000000
 49
2.500000
 49
-2.000000
  0
LTYPE
  2
SBK2
 70
    64
  3
______ _ _ _ ______ _ _ _ ______ _ _ _ _____  
 72
    65
 73
     8
 40
84.000000
 49
64.000000
 49
-2.000000
 49
4.000000
 49
-2.000000
 49
4.000000
 49
-2.000000
 49
4.000000
 49
-2.000000
  0
LTYPE
  2
STCH
 70
    64
  3
__ __ __ __ __ __ __ __ __ __ __ __ __ __ __
 72
    65
 73
     2
 40
3.000000
 49
1.000000
 49
-2.000000
  0
LTYPE
  2
MTCH
 70
    64
  3
_____ _ _ _____ _ _ _____ _ _ _____ _ _ ____  
 72
    65
 73
     6
 40
80.000000
 49
66.000000
 49
-2.000000
 49
4.000000
 49
-2.000000
 49
4.000000
 49
-2.000000
  0
ENDTAB
  0
TABLE
  2
LAYER
 70
     1
  0
LAYER
  2
0
 70
     0
 62
     7
  6
CONTINUOUS
  0
ENDTAB
  0
TABLE
  2
STYLE
 70
     1
  0
STYLE
  2
STANDARD
 70
     0
 40
0.000000
 41
1.000000
 50
0.000000
 71
     0
 42
0.200000
  3
txt
  4
BIGFONT
  0
ENDTAB
  0
TABLE
  2
VIEW
 70
     0
  0
ENDTAB
  0
ENDSEC
  0
SECTION
  2
BLOCKS
  0
ENDSEC
  0
SECTION
  2
ENTITIES
  0
LINE
  8
0
 10
118.527802
 20
118.298965
 11
194.800003
 21
118.298965
  0
LINE
  8
0
 10
118.527802
 20
132.600006
 11
118.527802
 21
118.298965
  0
LINE
  8
0
 10
-194.250000
 20
118.298965
 11
-92.977806
 21
118.298965
  0
LINE
  8
0
 10
-194.250000
 20
132.600006
 11
194.800003
 21
132.600006
  0
LINE
  8
0
 10
194.800003
 20
132.600006
 11
194.800003
 21
-133.500000
  0
LINE
  8
0
 10
-194.250000
 20
132.600006
 11
-194.250000
 21
-133.500000
  0
LINE
  8
0
 10
-194.250000
 20
-133.500000
 11
194.800003
 21
-133.500000
  0
LINE
  8
0
 10
118.527802
 20
-119.198959
 11
194.800003
 21
-119.198959
  0
LINE
  8
0
 10
210.000000
 20
148.500000
 11
210.000000
 21
-148.500000
  0
LINE
  8
0
 10
-210.000000
 20
148.500000
 11
-210.000000
 21
-148.500000
  0
LINE
  8
0
 10
-210.000000
 20
148.500000
 11
210.000000
 21
148.500000
  0
LINE
  8
0
 10
-210.000000
 20
-148.500000
 11
210.000000
 21
-148.500000
  0
LINE
  8
0
 10
118.527802
 20
-119.198959
 11
118.527802
 21
-133.500000
  0
LINE
  8
0
 10
-92.977806
 20
118.298965
 11
-92.977806
 21
132.600006
  0
LINE
  8
0
 10
-194.250000
 20
-0.449997
 11
194.800003
 21
-0.449997
  0
LINE
  8
0
 10
0.275002
 20
132.600006
 11
0.275002
 21
-133.500000
  0
LINE
  8
0
 10
-194.250000
 20
9.550003
 11
194.800003
 21
9.550003
  0
LINE
  8
0
 10
-194.250000
 20
-123.500000
 11
118.527802
 21
-123.500000
  0
TEXT
  8
0
 10
122.724205
 20
122.631119
 40
4.242641
  1
DATE : MAR ,1987
 50
0.000000
 41
1.052631
 51
0.000000
  7
STANDARD
  0
TEXT
  8
0
 10
-191.078186
 20
121.949493
 40
5.000000
  1
830 ADDITIONAL PART
 50
0.000000
 41
1.052632
 51
0.000000
  7
STANDARD
  0
TEXT
  8
0
 10
123.699844
 20
-129.849472
 40
5.000000
  1
KOGANEI CORP.
 50
0.000000
 41
1.052632
 51
15.000000
  7
STANDARD
  0
TEXT
  8
0
 10
-147.737320
 20
1.770003
 40
4.200000
  1
SPEED CONTROLER : SCE-04
 50
0.000000
 41
1.052632
 51
0.000000
  7
STANDARD
  0
TEXT
  8
0
 10
46.787697
 20
1.770003
 40
4.200000
  1
SPEED CONTROLER : SCE-06
 50
0.000000
 41
1.052632
 51
0.000000
  7
STANDARD
  0
TEXT
  8
0
 10
-128.837311
 20
-131.279999
 40
4.200000
  1
MUFFLER : KM-41
 50
0.000000
 41
1.052632
 51
0.000000
  7
STANDARD
  0
TEXT
  8
0
 10
29.651590
 20
-131.279999
 40
4.200000
  1
MUFFLER : KM-6
 50
0.000000
 41
1.052632
 51
0.000000
  7
STANDARD
  0
POINT
  8
0
 10
-111.168747
 20
42.812504
  0
POINT
  8
0
 10
-145.618744
 20
42.812504
  0
LINE
  8
0
 10
-118.778748
 20
53.782154
 11
-118.778748
 21
31.842850
  0
LINE
  8
0
 10
-139.907135
 20
54.936848
 11
-119.716560
 21
54.936848
  0
LINE
  8
0
 10
-139.907135
 20
30.688148
 11
-119.716568
 21
30.688148
  0
LINE
  8
0
 10
-118.778732
 20
53.312508
 11
-119.716553
 21
54.936844
  0
LINE
  8
0
 10
-119.716568
 20
30.688147
 11
-118.778748
 21
32.312504
  0
LINE
  8
0
 10
-111.168747
 20
49.812504
 11
-111.168747
 21
43.812504
  0
LINE
  8
0
 10
-114.778748
 20
34.812504
 11
-112.168747
 21
34.812504
  0
LINE
  8
0
 10
-114.778748
 20
50.812504
 11
-112.168747
 21
50.812504
  0
LINE
  8
0
 10
-114.778748
 20
49.730000
 11
-111.168747
 21
49.730000
  0
LINE
  8
0
 10
-114.778748
 20
35.895004
 11
-111.168747
 21
35.895004
  0
LINE
  8
0
 10
-112.168732
 20
34.812500
 11
-111.168732
 21
35.812500
  0
LINE
  8
0
 10
-111.168747
 20
49.812500
 11
-112.168747
 21
50.812500
  0
LINE
  8
0
 10
-112.168747
 20
50.812504
 11
-112.168747
 21
43.812504
  0
LINE
  8
0
 10
-113.168747
 20
43.812504
 11
-113.168747
 21
41.812504
  0
LINE
  8
0
 10
-113.168747
 20
41.812504
 11
-111.168747
 21
41.812504
  0
LINE
  8
0
 10
-113.168747
 20
43.812504
 11
-111.168747
 21
43.812504
  0
LINE
  8
0
 10
-112.168747
 20
41.812504
 11
-112.168747
 21
34.812504
  0
LINE
  8
0
 10
-111.168747
 20
41.812504
 11
-111.168747
 21
35.812504
  0
LINE
  8
0
 10
-153.778748
 20
51.873016
 11
-153.778748
 21
33.751999
  0
LINE
  8
0
 10
-139.907135
 20
48.874668
 11
-119.716560
 21
48.874668
  0
LINE
  8
0
 10
-139.907135
 20
36.750340
 11
-119.716553
 21
36.750340
  0
LINE
  8
0
 10
-114.778748
 20
52.312504
 11
-114.778748
 21
33.312504
  0
LINE
  8
0
 10
-118.778748
 20
53.782154
 11
-115.627251
 21
53.782154
  0
LINE
  8
0
 10
-118.778748
 20
48.297329
 11
-115.627251
 21
48.297329
  0
LINE
  8
0
 10
-118.778748
 20
37.327679
 11
-115.627251
 21
37.327679
  0
LINE
  8
0
 10
-118.778748
 20
31.842850
 11
-115.627251
 21
31.842850
  0
LINE
  8
0
 10
-114.778732
 20
52.312500
 11
-115.627243
 21
53.782158
  0
LINE
  8
0
 10
-114.778740
 20
33.312504
 11
-115.627243
 21
31.842850
  0
LINE
  8
0
 10
-141.778748
 20
52.248013
 11
-153.778748
 21
51.873013
  0
LINE
  8
0
 10
-140.778748
 20
53.441250
 11
-152.779236
 21
53.066235
  0
LINE
  8
0
 10
-140.778748
 20
53.427189
 11
-140.778748
 21
32.197815
  0
LINE
  8
0
 10
-141.778748
 20
53.395939
 11
-141.778748
 21
32.229065
  0
LINE
  8
0
 10
-141.778748
 20
52.248016
 11
-141.095551
 21
53.431347
  0
LINE
  8
0
 10
-141.778748
 20
33.376999
 11
-141.095535
 21
32.193649
  0
LINE
  8
0
 10
-141.778748
 20
33.376999
 11
-153.778748
 21
33.751999
  0
LINE
  8
0
 10
-140.778748
 20
32.183750
 11
-152.779236
 21
32.558765
  0
LINE
  8
0
 10
-152.779236
 20
53.052174
 11
-152.779236
 21
32.572830
  0
LINE
  8
0
 10
-140.778748
 20
53.427197
 11
-139.907150
 21
54.936852
  0
LINE
  8
0
 10
-140.778748
 20
32.197811
 11
-139.907135
 21
30.688148
  0
LINE
  8
0
 10
-153.778748
 20
33.751999
 11
-152.779236
 21
32.572830
  0
LINE
  8
0
 10
-153.778748
 20
51.873016
 11
-152.779236
 21
53.052174
  0
ARC
  8
0
 10
-135.072479
 20
51.905758
 40
5.706269
 50
152.085159
 51
212.085556
  0
ARC
  8
0
 10
-119.261131
 20
42.812504
 40
21.517616
 50
163.636520
 51
196.363464
  0
ARC
  8
0
 10
-135.072479
 20
33.719250
 40
5.706260
 50
147.914322
 51
207.914780
  0
ARC
  8
0
 10
-138.841003
 20
42.812504
 40
20.062258
 50
342.412140
 51
17.587852
  0
ARC
  8
0
 10
-124.146004
 20
51.905758
 40
5.367264
 50
325.616058
 51
25.615971
  0
ARC
  8
0
 10
-124.146004
 20
33.719250
 40
5.367260
 50
334.384003
 51
34.383915
  0
CIRCLE
  8
0
 10
-135.778748
 20
42.812504
 40
3.500000
  0
ARC
  8
0
 10
-132.930237
 20
42.812504
 40
18.151491
 50
342.412048
 51
17.587948
  0
ARC
  8
0
 10
-119.634811
 20
51.039745
 40
4.856065
 50
325.615784
 51
25.615786
  0
ARC
  8
0
 10
-119.634811
 20
34.585262
 40
4.856067
 50
334.384094
 51
34.384125
  0
POINT
  8
0
 10
-111.168747
 20
92.812500
  0
POINT
  8
0
 10
-145.618744
 20
92.812500
  0
LINE
  8
0
 10
-118.778748
 20
103.312500
 11
-118.778748
 21
82.312500
  0
LINE
  8
0
 10
-111.168747
 20
99.812500
 11
-111.168747
 21
85.812500
  0
LINE
  8
0
 10
-114.778748
 20
84.812500
 11
-112.168747
 21
84.812500
  0
LINE
  8
0
 10
-114.778748
 20
100.812500
 11
-112.168747
 21
100.812500
  0
LINE
  8
0
 10
-114.778748
 20
99.729996
 11
-111.168747
 21
99.729996
  0
LINE
  8
0
 10
-114.778748
 20
85.895004
 11
-111.168747
 21
85.895004
  0
LINE
  8
0
 10
-112.168732
 20
84.812492
 11
-111.168732
 21
85.812492
  0
LINE
  8
0
 10
-111.168762
 20
99.812492
 11
-112.168762
 21
100.812485
  0
LINE
  8
0
 10
-112.168747
 20
100.812500
 11
-112.168747
 21
84.812500
  0
LINE
  8
0
 10
-114.778748
 20
102.312500
 11
-114.778748
 21
83.312500
  0
LINE
  8
0
 10
-140.778748
 20
103.312500
 11
-140.778748
 21
82.312500
  0
LINE
  8
0
 10
-139.907135
 20
92.812500
 11
-119.716560
 21
92.812500
  0
LINE
  8
0
 10
-118.778748
 20
92.812500
 11
-115.627251
 21
92.812500
  0
LINE
  8
0
 10
-144.898437
 20
103.312500
 11
-118.778748
 21
103.312500
  0
LINE
  8
0
 10
-144.898804
 20
82.312500
 11
-118.778748
 21
82.312500
  0
LINE
  8
0
 10
-118.778748
 20
83.312500
 11
-114.778748
 21
83.312500
  0
LINE
  8
0
 10
-118.778748
 20
102.312500
 11
-114.778748
 21
102.312500
  0
LINE
  8
0
 10
-153.778748
 20
101.873009
 11
-153.778748
 21
83.751999
  0
LINE
  8
0
 10
-141.778748
 20
102.248009
 11
-153.778748
 21
101.873009
  0
LINE
  8
0
 10
-144.898437
 20
103.312500
 11
-152.779236
 21
103.066223
  0
LINE
  8
0
 10
-141.778748
 20
103.395935
 11
-141.778748
 21
82.229065
  0
LINE
  8
0
 10
-141.778748
 20
102.248009
 11
-141.095551
 21
103.431343
  0
LINE
  8
0
 10
-141.778748
 20
83.376991
 11
-141.095535
 21
82.193649
  0
LINE
  8
0
 10
-141.778748
 20
83.376999
 11
-153.778748
 21
83.751999
  0
LINE
  8
0
 10
-144.898804
 20
82.312500
 11
-152.779236
 21
82.558762
  0
LINE
  8
0
 10
-152.779236
 20
103.052170
 11
-152.779236
 21
82.572830
  0
LINE
  8
0
 10
-153.778748
 20
83.751999
 11
-152.779236
 21
82.572830
  0
LINE
  8
0
 10
-153.778748
 20
101.873009
 11
-152.779236
 21
103.052170
  0
ARC
  8
0
 10
-124.531525
 20
98.062500
 40
16.247223
 50
161.147583
 51
198.852417
  0
ARC
  8
0
 10
-124.531525
 20
87.562500
 40
16.247223
 50
161.147583
 51
198.852417
  0
ARC
  8
0
 10
-133.942719
 20
87.562500
 40
15.163973
 50
339.743988
 51
20.256002
  0
ARC
  8
0
 10
-133.942719
 20
98.062500
 40
15.163973
 50
339.743988
 51
20.256002
  0
ARC
  8
0
 10
-128.498444
 20
88.062500
 40
13.719698
 50
339.743866
 51
20.256136
  0
ARC
  8
0
 10
-128.498444
 20
97.562500
 40
13.719698
 50
339.743866
 51
20.256136
  0
POINT
  8
0
 10
-68.356247
 20
42.812504
  0
POINT
  8
0
 10
-57.856247
 20
42.812504
  0
POINT
  8
0
 10
-68.356247
 20
42.812504
  0
POINT
  8
0
 10
-57.856247
 20
42.812504
  0
LINE
  8
0
 10
-68.356239
 20
31.842827
 11
-58.856232
 21
37.327660
  0
LINE
  8
0
 10
-77.856239
 20
48.297325
 11
-68.356247
 21
53.782150
  0
LINE
  8
0
 10
-77.856247
 20
48.297340
 11
-77.856247
 21
37.327675
  0
LINE
  8
0
 10
-58.856247
 20
48.297333
 11
-58.856247
 21
37.327675
  0
LINE
  8
0
 10
-77.856247
 20
37.327682
 11
-68.356270
 21
31.842865
  0
LINE
  8
0
 10
-68.356247
 20
53.782185
 11
-58.856239
 21
48.297352
  0
LINE
  8
0
 10
-76.293503
 20
43.812504
 11
-60.418991
 21
43.812504
  0
LINE
  8
0
 10
-76.293503
 20
41.812504
 11
-60.418991
 21
41.812504
  0
LINE
  8
0
 10
-68.356239
 20
30.688114
 11
-57.856236
 21
36.750294
  0
LINE
  8
0
 10
-78.856239
 20
48.874680
 11
-68.356247
 21
54.936848
  0
LINE
  8
0
 10
-78.856247
 20
48.874687
 11
-78.856247
 21
36.750328
  0
LINE
  8
0
 10
-57.856247
 20
48.874687
 11
-57.856247
 21
36.750324
  0
LINE
  8
0
 10
-78.856262
 20
36.750340
 11
-68.356255
 21
30.688158
  0
LINE
  8
0
 10
-68.356239
 20
54.936882
 11
-57.856239
 21
48.874706
  0
CIRCLE
  8
0
 10
-68.356247
 20
42.812504
 40
9.500000
  0
CIRCLE
  8
0
 10
-68.356247
 20
42.812504
 40
8.000000
  0
CIRCLE
  8
0
 10
-68.356247
 20
42.812504
 40
6.917500
  0
ARC
  8
0
 10
-68.356247
 20
42.812504
 40
10.500000
 50
34.791283
 51
85.208740
  0
ARC
  8
0
 10
-68.356247
 20
42.812504
 40
10.500001
 50
334.791229
 51
25.208754
  0
ARC
  8
0
 10
-68.356247
 20
42.812504
 40
10.500001
 50
274.791229
 51
325.208740
  0
ARC
  8
0
 10
-68.356247
 20
42.812504
 40
10.500000
 50
214.791214
 51
265.208710
  0
ARC
  8
0
 10
-68.356247
 20
42.812504
 40
10.499999
 50
154.791245
 51
205.208740
  0
ARC
  8
0
 10
-68.356247
 20
42.812504
 40
10.499999
 50
94.791344
 51
145.208664
  0
POINT
  8
0
 10
54.381256
 20
42.812504
  0
POINT
  8
0
 10
94.381256
 20
42.812504
  0
LINE
  8
0
 10
86.851257
 20
56.668915
 11
86.851257
 21
28.956097
  0
LINE
  8
0
 10
44.851257
 20
54.573193
 11
44.851257
 21
31.051815
  0
LINE
  8
0
 10
45.850769
 20
55.766426
 11
60.851257
 21
56.235191
  0
LINE
  8
0
 10
44.851257
 20
54.573193
 11
59.851257
 21
55.041943
  0
LINE
  8
0
 10
60.851257
 20
56.235191
 11
60.851257
 21
29.389814
  0
LINE
  8
0
 10
59.851257
 20
56.203941
 11
59.851257
 21
29.421064
  0
LINE
  8
0
 10
59.851254
 20
55.041943
 11
60.534462
 21
56.225292
  0
LINE
  8
0
 10
59.851250
 20
30.583065
 11
60.534458
 21
29.399712
  0
LINE
  8
0
 10
45.850769
 20
29.858580
 11
60.851257
 21
29.389814
  0
LINE
  8
0
 10
44.851257
 20
31.051815
 11
59.851257
 21
30.583065
  0
LINE
  8
0
 10
45.850769
 20
55.766426
 11
45.850769
 21
29.858580
  0
LINE
  8
0
 10
60.851257
 20
56.235199
 11
62.101665
 21
58.400970
  0
LINE
  8
0
 10
62.101662
 20
27.224045
 11
60.851257
 21
29.389809
  0
LINE
  8
0
 10
62.101665
 20
58.400967
 11
85.645485
 21
58.400967
  0
LINE
  8
0
 10
62.101662
 20
27.224047
 11
85.645477
 21
27.224047
  0
LINE
  8
0
 10
62.101665
 20
50.606735
 11
85.645485
 21
50.606735
  0
LINE
  8
0
 10
62.101662
 20
35.018272
 11
85.645485
 21
35.018272
  0
LINE
  8
0
 10
86.851257
 20
56.312504
 11
85.645485
 21
58.400967
  0
LINE
  8
0
 10
85.645485
 20
27.224045
 11
86.851257
 21
29.312511
  0
LINE
  8
0
 10
91.851257
 20
54.812500
 11
91.851257
 21
30.812485
  0
LINE
  8
0
 10
86.851257
 20
56.668915
 11
90.779457
 21
56.668915
  0
LINE
  8
0
 10
86.851257
 20
49.740704
 11
90.779472
 21
49.740704
  0
LINE
  8
0
 10
86.851257
 20
35.884304
 11
90.779472
 21
35.884304
  0
LINE
  8
0
 10
86.851257
 20
28.956097
 11
90.779472
 21
28.956097
  0
LINE
  8
0
 10
90.779472
 20
28.956097
 11
91.851257
 21
30.812487
  0
LINE
  8
0
 10
91.851257
 20
54.812500
 11
90.779457
 21
56.668915
  0
LINE
  8
0
 10
94.381256
 20
51.812492
 11
94.381256
 21
43.812504
  0
LINE
  8
0
 10
91.851257
 20
52.812492
 11
93.381256
 21
52.812492
  0
LINE
  8
0
 10
91.851257
 20
51.459496
 11
94.381256
 21
51.459496
  0
LINE
  8
0
 10
91.851257
 20
34.165493
 11
94.381256
 21
34.165493
  0
LINE
  8
0
 10
91.851257
 20
32.812492
 11
93.381256
 21
32.812492
  0
LINE
  8
0
 10
92.381256
 20
43.812504
 11
94.381256
 21
43.812504
  0
LINE
  8
0
 10
92.381256
 20
41.812504
 11
94.381256
 21
41.812504
  0
LINE
  8
0
 10
92.381256
 20
43.812504
 11
92.381256
 21
41.812504
  0
LINE
  8
0
 10
93.381256
 20
52.812492
 11
94.381256
 21
51.812492
  0
LINE
  8
0
 10
94.381248
 20
33.812500
 11
93.381248
 21
32.812500
  0
LINE
  8
0
 10
93.381256
 20
52.812492
 11
93.381256
 21
43.812504
  0
LINE
  8
0
 10
93.381256
 20
41.812504
 11
93.381256
 21
32.812492
  0
LINE
  8
0
 10
94.381256
 20
41.812504
 11
94.381256
 21
33.812492
  0
LINE
  8
0
 10
45.850769
 20
55.766426
 11
44.851257
 21
54.573189
  0
LINE
  8
0
 10
45.850769
 20
29.858580
 11
44.851257
 21
31.051815
  0
ARC
  8
0
 10
85.717224
 20
32.420200
 40
6.134027
 50
325.616058
 51
34.383934
  0
ARC
  8
0
 10
68.922882
 20
42.812504
 40
22.928377
 50
342.412201
 51
17.587807
  0
CIRCLE
  8
0
 10
66.851257
 20
42.812504
 40
5.500000
  0
ARC
  8
0
 10
67.564629
 20
54.498993
 40
6.713371
 50
155.536560
 51
215.434799
  0
ARC
  8
0
 10
79.950546
 20
54.503853
 40
6.900714
 50
325.615662
 51
25.615641
  0
ARC
  8
0
 10
85.768578
 20
42.812500
 40
24.917322
 50
161.771729
 51
198.228241
  0
ARC
  8
0
 10
67.549492
 20
31.121161
 40
6.698237
 50
144.421936
 51
204.421768
  0
ARC
  8
0
 10
79.950562
 20
31.121162
 40
6.900696
 50
334.384369
 51
34.384342
  0
ARC
  8
0
 10
61.057076
 20
42.812504
 40
25.794184
 50
342.412018
 51
17.587992
  0
ARC
  8
0
 10
85.717255
 20
53.204800
 40
6.133998
 50
325.615967
 51
25.615755
  0
POINT
  8
0
 10
54.381256
 20
102.812500
  0
POINT
  8
0
 10
94.381256
 20
102.812500
  0
LINE
  8
0
 10
86.851257
 20
116.312500
 11
86.851257
 21
89.312500
  0
LINE
  8
0
 10
44.851257
 20
114.573181
 11
44.851257
 21
91.051811
  0
LINE
  8
0
 10
45.850769
 20
115.766434
 11
60.851257
 21
116.235199
  0
LINE
  8
0
 10
44.851257
 20
114.573181
 11
59.851254
 21
115.041931
  0
LINE
  8
0
 10
60.851257
 20
116.312500
 11
60.851257
 21
89.312500
  0
LINE
  8
0
 10
59.851257
 20
116.203941
 11
59.851257
 21
89.421059
  0
LINE
  8
0
 10
59.851250
 20
115.041939
 11
60.534462
 21
116.225296
  0
LINE
  8
0
 10
59.851254
 20
90.583061
 11
60.534462
 21
89.399712
  0
LINE
  8
0
 10
45.850769
 20
89.858582
 11
60.851261
 21
89.389816
  0
LINE
  8
0
 10
44.851257
 20
91.051811
 11
59.851254
 21
90.583061
  0
LINE
  8
0
 10
45.850769
 20
115.766434
 11
45.850769
 21
89.858582
  0
LINE
  8
0
 10
91.851257
 20
114.812500
 11
91.851257
 21
90.812500
  0
LINE
  8
0
 10
94.381256
 20
111.812492
 11
94.381256
 21
93.812492
  0
LINE
  8
0
 10
91.851257
 20
112.812492
 11
93.381256
 21
112.812492
  0
LINE
  8
0
 10
91.851257
 20
111.459488
 11
94.381256
 21
111.459488
  0
LINE
  8
0
 10
91.851257
 20
94.165489
 11
94.381256
 21
94.165489
  0
LINE
  8
0
 10
91.851257
 20
92.812492
 11
93.381256
 21
92.812492
  0
LINE
  8
0
 10
93.381256
 20
112.812492
 11
94.381256
 21
111.812485
  0
LINE
  8
0
 10
94.381256
 20
93.812492
 11
93.381256
 21
92.812485
  0
LINE
  8
0
 10
93.381256
 20
112.812492
 11
93.381256
 21
92.812492
  0
LINE
  8
0
 10
62.101665
 20
102.812500
 11
85.645485
 21
102.812500
  0
LINE
  8
0
 10
60.851257
 20
89.312500
 11
86.851257
 21
89.312500
  0
LINE
  8
0
 10
60.851257
 20
116.312500
 11
86.851257
 21
116.312500
  0
LINE
  8
0
 10
86.851257
 20
102.812500
 11
90.779472
 21
102.812500
  0
LINE
  8
0
 10
86.851257
 20
114.812500
 11
91.851257
 21
114.812500
  0
LINE
  8
0
 10
86.851257
 20
90.812500
 11
91.851257
 21
90.812500
  0
LINE
  8
0
 10
45.850769
 20
115.766434
 11
44.851257
 21
114.573189
  0
LINE
  8
0
 10
45.850769
 20
89.858582
 11
44.851257
 21
91.051811
  0
ARC
  8
0
 10
67.354912
 20
109.562500
 40
19.496347
 50
339.743805
 51
20.256207
  0
ARC
  8
0
 10
67.354912
 20
96.062500
 40
19.496347
 50
339.743805
 51
20.256207
  0
ARC
  8
0
 10
79.695511
 20
109.562500
 40
18.844254
 50
159.010376
 51
200.989609
  0
ARC
  8
0
 10
79.695511
 20
96.062500
 40
18.844254
 50
159.010376
 51
200.989609
  0
ARC
  8
0
 10
74.520981
 20
108.812500
 40
17.330271
 50
339.744019
 51
20.255981
  0
ARC
  8
0
 10
74.520981
 20
96.812500
 40
17.330271
 50
339.744019
 51
20.255981
  0
POINT
  8
0
 10
144.381256
 20
42.812504
  0
POINT
  8
0
 10
157.881256
 20
42.812504
  0
LINE
  8
0
 10
125.881256
 20
42.812504
 11
162.881256
 21
42.812504
  0
LINE
  8
0
 10
144.381256
 20
61.312504
 11
144.381256
 21
24.312511
  0
LINE
  8
0
 10
130.881256
 20
50.606731
 11
144.381256
 21
58.400955
  0
LINE
  8
0
 10
144.381256
 20
27.224030
 11
157.881256
 21
35.018261
  0
LINE
  8
0
 10
130.881256
 20
50.606735
 11
130.881256
 21
35.018272
  0
LINE
  8
0
 10
157.881256
 20
50.606735
 11
157.881256
 21
35.018272
  0
LINE
  8
0
 10
130.881256
 20
35.018276
 11
144.381256
 21
27.224049
  0
LINE
  8
0
 10
144.381256
 20
58.400963
 11
157.881256
 21
50.606735
  0
LINE
  8
0
 10
132.381241
 20
35.884304
 11
132.381241
 21
49.740704
  0
LINE
  8
0
 10
156.381256
 20
35.884293
 11
156.381256
 21
49.740715
  0
LINE
  8
0
 10
144.381256
 20
56.668915
 11
156.381256
 21
49.740715
  0
LINE
  8
0
 10
132.381241
 20
35.884308
 11
144.381256
 21
28.956100
  0
LINE
  8
0
 10
132.381256
 20
49.740704
 11
144.381256
 21
56.668911
  0
LINE
  8
0
 10
144.381256
 20
28.956079
 11
156.381256
 21
35.884277
  0
LINE
  8
0
 10
134.431381
 20
41.812504
 11
154.331131
 21
41.812504
  0
LINE
  8
0
 10
134.431381
 20
43.812504
 11
154.331116
 21
43.812504
  0
ARC
  8
0
 10
144.381256
 20
42.812508
 40
13.499998
 50
32.734001
 51
87.266014
  0
ARC
  8
0
 10
144.381256
 20
42.812508
 40
13.500000
 50
332.733948
 51
27.266043
  0
ARC
  8
0
 10
144.381256
 20
42.812508
 40
13.499997
 50
272.734039
 51
327.265961
  0
ARC
  8
0
 10
144.381256
 20
42.812508
 40
13.499996
 50
212.733994
 51
267.265961
  0
ARC
  8
0
 10
144.381256
 20
42.812508
 40
13.500001
 50
152.734085
 51
207.265900
  0
ARC
  8
0
 10
144.381256
 20
42.812508
 40
13.499997
 50
92.733986
 51
147.266037
  0
CIRCLE
  8
0
 10
144.381256
 20
42.812492
 40
12.000008
  0
CIRCLE
  8
0
 10
144.381256
 20
42.812492
 40
10.000000
  0
CIRCLE
  8
0
 10
144.381256
 20
42.812492
 40
8.647000
  0
POINT
  8
0
 10
-62.778744
 20
-57.187496
  0
POINT
  8
0
 10
-125.618744
 20
-57.187496
  0
LINE
  8
0
 10
-118.778748
 20
-43.187489
 11
-118.778748
 21
-71.187492
  0
LINE
  8
0
 10
-118.778748
 20
-43.187489
 11
-63.778744
 21
-43.187489
  0
LINE
  8
0
 10
-118.778748
 20
-71.187492
 11
-63.778744
 21
-71.187492
  0
LINE
  8
0
 10
-62.778744
 20
-44.187489
 11
-62.778744
 21
-70.187492
  0
LINE
  8
0
 10
-107.778740
 20
-43.187489
 11
-107.778740
 21
-71.187492
  0
LINE
  8
0
 10
-65.778748
 20
-43.187489
 11
-65.778748
 21
-71.187492
  0
LINE
  8
0
 10
-105.678741
 20
-44.684784
 11
-105.678741
 21
-54.190197
  0
LINE
  8
0
 10
-105.678741
 20
-54.190197
 11
-101.978745
 21
-54.290195
  0
LINE
  8
0
 10
-69.078728
 20
-43.695591
 11
-72.778725
 21
-43.795589
  0
LINE
  8
0
 10
-101.978737
 20
-44.584778
 11
-105.678741
 21
-44.684780
  0
LINE
  8
0
 10
-97.278740
 20
-44.457752
 11
-100.978737
 21
-44.557755
  0
LINE
  8
0
 10
-92.578735
 20
-44.330727
 11
-96.278732
 21
-44.430725
  0
LINE
  8
0
 10
-87.878738
 20
-44.203697
 11
-91.578735
 21
-44.303699
  0
LINE
  8
0
 10
-83.178734
 20
-44.076672
 11
-86.878738
 21
-44.176674
  0
LINE
  8
0
 10
-78.478729
 20
-43.949646
 11
-82.178726
 21
-44.049644
  0
LINE
  8
0
 10
-73.778725
 20
-43.822617
 11
-77.478729
 21
-43.922619
  0
LINE
  8
0
 10
-72.778732
 20
-55.079388
 11
-69.078735
 21
-55.179386
  0
LINE
  8
0
 10
-77.478729
 20
-54.952358
 11
-73.778732
 21
-55.052361
  0
LINE
  8
0
 10
-82.178734
 20
-54.825333
 11
-78.478729
 21
-54.925331
  0
LINE
  8
0
 10
-86.878738
 20
-54.698303
 11
-83.178741
 21
-54.798306
  0
LINE
  8
0
 10
-91.578735
 20
-54.571278
 11
-87.878738
 21
-54.671280
  0
LINE
  8
0
 10
-96.278740
 20
-54.444252
 11
-92.578735
 21
-54.544250
  0
LINE
  8
0
 10
-100.978745
 20
-54.317223
 11
-97.278740
 21
-54.417225
  0
LINE
  8
0
 10
-69.078735
 20
-43.695595
 11
-69.078735
 21
-55.179390
  0
LINE
  8
0
 10
-101.978745
 20
-44.584785
 11
-101.978745
 21
-54.290199
  0
LINE
  8
0
 10
-100.978745
 20
-44.557758
 11
-100.978745
 21
-54.317226
  0
LINE
  8
0
 10
-97.278740
 20
-44.457756
 11
-97.278740
 21
-54.417225
  0
LINE
  8
0
 10
-96.278740
 20
-44.430729
 11
-96.278740
 21
-54.444252
  0
LINE
  8
0
 10
-92.578735
 20
-44.330730
 11
-92.578735
 21
-54.544250
  0
LINE
  8
0
 10
-91.578735
 20
-44.303703
 11
-91.578735
 21
-54.571281
  0
LINE
  8
0
 10
-87.878738
 20
-44.203705
 11
-87.878738
 21
-54.671280
  0
LINE
  8
0
 10
-86.878738
 20
-44.176678
 11
-86.878738
 21
-54.698307
  0
LINE
  8
0
 10
-83.178741
 20
-44.076675
 11
-83.178741
 21
-54.798306
  0
LINE
  8
0
 10
-82.178741
 20
-44.049648
 11
-82.178741
 21
-54.825333
  0
LINE
  8
0
 10
-78.478729
 20
-43.949650
 11
-78.478729
 21
-54.925335
  0
LINE
  8
0
 10
-77.478729
 20
-43.922623
 11
-77.478729
 21
-54.952362
  0
LINE
  8
0
 10
-73.778732
 20
-43.822624
 11
-73.778732
 21
-55.052361
  0
LINE
  8
0
 10
-72.778732
 20
-43.795597
 11
-72.778732
 21
-55.079388
  0
LINE
  8
0
 10
-105.678741
 20
-69.690208
 11
-105.678741
 21
-60.184795
  0
LINE
  8
0
 10
-105.678741
 20
-60.184795
 11
-101.978745
 21
-60.084793
  0
LINE
  8
0
 10
-69.078735
 20
-70.679405
 11
-72.778732
 21
-70.579407
  0
LINE
  8
0
 10
-101.978745
 20
-69.790215
 11
-105.678741
 21
-69.690216
  0
LINE
  8
0
 10
-97.278740
 20
-69.917236
 11
-100.978745
 21
-69.817238
  0
LINE
  8
0
 10
-92.578735
 20
-70.044266
 11
-96.278740
 21
-69.944267
  0
LINE
  8
0
 10
-87.878738
 20
-70.171288
 11
-91.578743
 21
-70.071289
  0
LINE
  8
0
 10
-83.178741
 20
-70.298325
 11
-86.878738
 21
-70.198318
  0
LINE
  8
0
 10
-78.478729
 20
-70.425346
 11
-82.178734
 21
-70.325348
  0
LINE
  8
0
 10
-73.778732
 20
-70.552376
 11
-77.478729
 21
-70.452377
  0
LINE
  8
0
 10
-72.778725
 20
-59.295605
 11
-69.078728
 21
-59.195606
  0
LINE
  8
0
 10
-77.478729
 20
-59.422630
 11
-73.778732
 21
-59.322632
  0
LINE
  8
0
 10
-82.178734
 20
-59.549660
 11
-78.478729
 21
-59.449661
  0
LINE
  8
0
 10
-86.878738
 20
-59.676685
 11
-83.178734
 21
-59.576687
  0
LINE
  8
0
 10
-91.578735
 20
-59.803715
 11
-87.878738
 21
-59.703712
  0
LINE
  8
0
 10
-96.278740
 20
-59.930740
 11
-92.578735
 21
-59.830738
  0
LINE
  8
0
 10
-100.978745
 20
-60.057766
 11
-97.278740
 21
-59.957767
  0
LINE
  8
0
 10
-69.078735
 20
-70.679398
 11
-69.078735
 21
-59.195602
  0
LINE
  8
0
 10
-101.978745
 20
-69.790207
 11
-101.978745
 21
-60.084793
  0
LINE
  8
0
 10
-100.978745
 20
-69.817238
 11
-100.978745
 21
-60.057766
  0
LINE
  8
0
 10
-97.278740
 20
-69.917236
 11
-97.278740
 21
-59.957767
  0
LINE
  8
0
 10
-96.278740
 20
-69.944260
 11
-96.278740
 21
-59.930740
  0
LINE
  8
0
 10
-92.578735
 20
-70.044258
 11
-92.578735
 21
-59.830742
  0
LINE
  8
0
 10
-91.578735
 20
-70.071289
 11
-91.578735
 21
-59.803711
  0
LINE
  8
0
 10
-87.878738
 20
-70.171288
 11
-87.878738
 21
-59.703712
  0
LINE
  8
0
 10
-86.878738
 20
-70.198318
 11
-86.878738
 21
-59.676685
  0
LINE
  8
0
 10
-83.178741
 20
-70.298317
 11
-83.178741
 21
-59.576687
  0
LINE
  8
0
 10
-82.178741
 20
-70.325340
 11
-82.178741
 21
-59.549660
  0
LINE
  8
0
 10
-78.478729
 20
-70.425346
 11
-78.478729
 21
-59.449657
  0
LINE
  8
0
 10
-77.478729
 20
-70.452370
 11
-77.478729
 21
-59.422630
  0
LINE
  8
0
 10
-73.778732
 20
-70.552368
 11
-73.778732
 21
-59.322632
  0
LINE
  8
0
 10
-72.778732
 20
-70.579399
 11
-72.778732
 21
-59.295605
  0
LINE
  8
0
 10
-101.978745
 20
-46.585514
 11
-105.678741
 21
-46.685513
  0
LINE
  8
0
 10
-97.278740
 20
-46.458488
 11
-100.978745
 21
-46.558487
  0
LINE
  8
0
 10
-92.578735
 20
-46.331459
 11
-96.278740
 21
-46.431458
  0
LINE
  8
0
 10
-87.878738
 20
-46.204433
 11
-91.578735
 21
-46.304432
  0
LINE
  8
0
 10
-83.178741
 20
-46.077404
 11
-86.878738
 21
-46.177406
  0
LINE
  8
0
 10
-78.478729
 20
-45.950378
 11
-82.178734
 21
-46.050377
  0
LINE
  8
0
 10
-73.778732
 20
-45.823349
 11
-77.478729
 21
-45.923351
  0
LINE
  8
0
 10
-69.078728
 20
-45.696323
 11
-72.778732
 21
-45.796326
  0
LINE
  8
0
 10
-101.978745
 20
-67.789474
 11
-105.678741
 21
-67.689476
  0
LINE
  8
0
 10
-97.278748
 20
-67.916504
 11
-100.978745
 21
-67.816505
  0
LINE
  8
0
 10
-92.578735
 20
-68.043533
 11
-96.278740
 21
-67.943527
  0
LINE
  8
0
 10
-87.878738
 20
-68.170555
 11
-91.578735
 21
-68.070557
  0
LINE
  8
0
 10
-83.178741
 20
-68.297585
 11
-86.878738
 21
-68.197586
  0
LINE
  8
0
 10
-78.478729
 20
-68.424614
 11
-82.178734
 21
-68.324615
  0
LINE
  8
0
 10
-73.778732
 20
-68.551643
 11
-77.478729
 21
-68.451637
  0
LINE
  8
0
 10
-69.078735
 20
-68.678665
 11
-72.778732
 21
-68.578667
  0
LINE
  8
0
 10
-118.778748
 20
-67.898750
 11
-132.779236
 21
-67.461235
  0
LINE
  8
0
 10
-119.778748
 20
-47.669483
 11
-133.778748
 21
-48.106983
  0
LINE
  8
0
 10
-118.778748
 20
-46.476250
 11
-132.779236
 21
-46.913765
  0
LINE
  8
0
 10
-118.778748
 20
-46.572811
 11
-118.778748
 21
-67.802185
  0
LINE
  8
0
 10
-119.778748
 20
-46.507500
 11
-119.778748
 21
-67.867500
  0
LINE
  8
0
 10
-119.778748
 20
-47.669483
 11
-119.095543
 21
-46.486149
  0
LINE
  8
0
 10
-119.778748
 20
-66.705498
 11
-119.095535
 21
-67.888855
  0
LINE
  8
0
 10
-119.778748
 20
-66.705498
 11
-133.778748
 21
-66.267998
  0
LINE
  8
0
 10
-133.778748
 20
-48.106983
 11
-133.778748
 21
-66.267998
  0
LINE
  8
0
 10
-132.779236
 20
-46.913765
 11
-132.779236
 21
-67.461235
  0
LINE
  8
0
 10
-107.778740
 20
-50.259293
 11
-118.778748
 21
-50.259293
  0
LINE
  8
0
 10
-107.778740
 20
-64.115700
 11
-118.778748
 21
-64.115700
  0
LINE
  8
0
 10
-132.779236
 20
-46.913765
 11
-133.778748
 21
-48.106983
  0
LINE
  8
0
 10
-133.778748
 20
-66.268005
 11
-132.779236
 21
-67.461235
  0
ARC
  8
0
 10
-63.778744
 20
-44.187489
 40
1.000000
 50
0.000000
 51
90.000000
  0
ARC
  8
0
 10
-63.778744
 20
-70.187492
 40
1.000000
 50
270.000000
 51
0.000000
  0
POINT
  8
0
 10
54.381256
 20
-57.187496
  0
POINT
  8
0
 10
109.851257
 20
-57.187496
  0
LINE
  8
0
 10
44.851257
 20
-45.426811
 11
44.851257
 21
-68.948181
  0
LINE
  8
0
 10
45.850769
 20
-44.233574
 11
59.851257
 21
-43.796059
  0
LINE
  8
0
 10
44.851257
 20
-45.426811
 11
59.851254
 21
-44.958061
  0
LINE
  8
0
 10
59.851257
 20
-43.796059
 11
59.851257
 21
-70.578934
  0
LINE
  8
0
 10
58.851257
 20
-44.989311
 11
58.851257
 21
-69.385681
  0
LINE
  8
0
 10
58.851257
 20
-44.989311
 11
59.534466
 21
-43.805958
  0
LINE
  8
0
 10
58.851257
 20
-69.385689
 11
59.534466
 21
-70.569038
  0
LINE
  8
0
 10
45.850769
 20
-70.141418
 11
59.851257
 21
-70.578934
  0
LINE
  8
0
 10
44.851257
 20
-68.948181
 11
59.851254
 21
-69.416931
  0
LINE
  8
0
 10
45.850769
 20
-44.233574
 11
45.850769
 21
-70.141418
  0
LINE
  8
0
 10
59.851257
 20
-43.764801
 11
61.101665
 21
-41.599030
  0
LINE
  8
0
 10
61.101654
 20
-72.775963
 11
59.851250
 21
-70.610191
  0
LINE
  8
0
 10
61.101665
 20
-41.599033
 11
66.645477
 21
-41.599033
  0
LINE
  8
0
 10
61.101662
 20
-72.775955
 11
66.645477
 21
-72.775955
  0
LINE
  8
0
 10
61.101665
 20
-49.393265
 11
66.645485
 21
-49.393265
  0
LINE
  8
0
 10
61.101662
 20
-64.981728
 11
66.645485
 21
-64.981728
  0
LINE
  8
0
 10
67.851257
 20
-43.687496
 11
66.645477
 21
-41.599030
  0
LINE
  8
0
 10
66.645477
 20
-72.775955
 11
67.851257
 21
-70.687492
  0
LINE
  8
0
 10
67.851257
 20
-43.764809
 11
67.851257
 21
-70.610184
  0
LINE
  8
0
 10
67.851257
 20
-45.437496
 11
109.851257
 21
-45.437496
  0
LINE
  8
0
 10
67.851257
 20
-68.937500
 11
109.851257
 21
-68.937500
  0
LINE
  8
0
 10
109.851257
 20
-45.297569
 11
109.851257
 21
-68.948189
  0
LINE
  8
0
 10
45.850769
 20
-44.233574
 11
44.851257
 21
-45.426811
  0
LINE
  8
0
 10
45.850769
 20
-70.141418
 11
44.851257
 21
-68.948181
  0
ARC
  8
0
 10
42.057076
 20
-57.187496
 40
25.794176
 50
342.412018
 51
17.587992
  0
ARC
  8
0
 10
60.950558
 20
-68.878838
 40
6.900699
 50
334.384369
 51
34.384323
  0
ARC
  8
0
 10
84.768570
 20
-57.187500
 40
24.917315
 50
161.771729
 51
198.228241
  0
ARC
  8
0
 10
66.549492
 20
-68.878838
 40
6.698236
 50
144.421951
 51
204.421738
  0
ARC
  8
0
 10
66.564629
 20
-45.501011
 40
6.713373
 50
155.536545
 51
215.434769
  0
ARC
  8
0
 10
60.950546
 20
-45.496151
 40
6.900712
 50
325.615692
 51
25.615669
  0
ENDSEC
  0
EOF
