  0
SECTION
  2
HEADER
  0
ENDSEC
  0
SECTION
  2
TABLES
  0
TABLE
  2
LTYPE
 70
     4
  0
LTYPE
  2
CONTINUOUS
 70
    64
  3
Solid line
 72
    65
 73
     0
 40
0.000000
  0
LTYPE
  2
DASHED
 70
    64
  3
__ __ __ __ __ __ __ __ __ __ __ __ __ __ __
 72
    65
 73
     2
 40
3.500000
 49
2.000000
 49
-1.500000
  0
LTYPE
  2
CENTER
 70
    64
  3
____ _ ____ _ ____ _ ____ _ ____ _ ____ _ ____
 72
    65
 73
     4
 40
17.500000
 49
13.000000
 49
-1.500000
 49
1.500000
 49
-1.500000
  0
LTYPE
  2
PHANTOM
 70
    64
  3
_____ _ _ _____ _ _ _____ _ _ _____ _ _ ____  
 72
    65
 73
     6
 40
15.500000
 49
8.000000
 49
-1.500000
 49
1.500000
 49
-1.500000
 49
1.500000
 49
-1.500000
  0
LTYPE
  2
DASHED1
 70
    64
  3
__ __ __ __ __ __ __ __ __ __ __ __ __ __ __
 72
    65
 73
     2
 40
1.500000
 49
1.000000
 49
-0.500000
  0
LTYPE
  2
DASHED2
 70
    64
  3
__ __ __ __ __ __ __ __ __ __ __ __ __ __ __
 72
    65
 73
     2
 40
3.500000
 49
2.500000
 49
-1.000000
  0
LTYPE
  2
DASHED3
 70
    64
  3
__ __ __ __ __ __ __ __ __ __ __ __ __ __ __
 72
    65
 73
     2
 40
6.000000
 49
4.000000
 49
-2.000000
  0
LTYPE
  2
DASHED4
 70
    64
  3
__ __ __ __ __ __ __ __ __ __ __ __ __ __ __
 72
    65
 73
     2
 40
12.000000
 49
10.000000
 49
-2.000000
  0
LTYPE
  2
DASHED5
 70
    64
  3
__ __ __ __ __ __ __ __ __ __ __ __ __ __ __
 72
    65
 73
     2
 40
17.000000
 49
15.000000
 49
-2.000000
  0
LTYPE
  2
DASHED6
 70
    64
  3
__ __ __ __ __ __ __ __ __ __ __ __ __ __ __
 72
    65
 73
     2
 40
29.000000
 49
27.000000
 49
-2.000000
  0
LTYPE
  2
PHANTOM1
 70
    64
  3
_____ _ _ _____ _ _ _____ _ _ _____ _ _ ____  
 72
    65
 73
     6
 40
31.000000
 49
25.000000
 49
-1.500000
 49
1.000000
 49
-1.000000
 49
1.000000
 49
-1.500000
  0
LTYPE
  2
PHANTOM2
 70
    64
  3
_____ _ _ _____ _ _ _____ _ _ _____ _ _ ____  
 72
    65
 73
     6
 40
36.000000
 49
27.000000
 49
-1.500000
 49
2.500000
 49
-1.000000
 49
2.500000
 49
-1.500000
  0
LTYPE
  2
PHANTOM3
 70
    64
  3
_____ _ _ _____ _ _ _____ _ _ _____ _ _ ____  
 72
    65
 73
     6
 40
78.000000
 49
64.000000
 49
-2.000000
 49
4.000000
 49
-2.000000
 49
4.000000
 49
-2.000000
  0
LTYPE
  2
CENTER1
 70
    64
  3
____ _ ____ _ ____ _ ____ _ ____ _ ____ _ ____
 72
    65
 73
     4
 40
19.000000
 49
14.000000
 49
-1.000000
 49
3.000000
 49
-1.000000
  0
LTYPE
  2
CENTER2
 70
    64
  3
____ _ ____ _ ____ _ ____ _ ____ _ ____ _ ____
 72
    65
 73
     4
 40
28.500000
 49
25.000000
 49
-1.000000
 49
1.500000
 49
-1.000000
  0
LTYPE
  2
CENTER3
 70
    64
  3
____ _ ____ _ ____ _ ____ _ ____ _ ____ _ ____
 72
    65
 73
     4
 40
31.500000
 49
27.000000
 49
-1.000000
 49
2.500000
 49
-1.000000
  0
LTYPE
  2
CENTER4
 70
    64
  3
____ _ ____ _ ____ _ ____ _ ____ _ ____ _ ____
 72
    65
 73
     4
 40
50.000000
 49
45.000000
 49
-1.000000
 49
3.000000
 49
-1.000000
  0
LTYPE
  2
CENTER5
 70
    64
  3
____ _ ____ _ ____ _ ____ _ ____ _ ____ _ ____
 72
    65
 73
     4
 40
100.000000
 49
92.000000
 49
-2.000000
 49
4.000000
 49
-2.000000
  0
LTYPE
  2
SBK1
 70
    64
  3
______ _ _ _ ______ _ _ _ ______ _ _ _ _____  
 72
    65
 73
     8
 40
60.500000
 49
45.000000
 49
-2.000000
 49
2.500000
 49
-2.000000
 49
2.500000
 49
-2.000000
 49
2.500000
 49
-2.000000
  0
LTYPE
  2
SBK2
 70
    64
  3
______ _ _ _ ______ _ _ _ ______ _ _ _ _____  
 72
    65
 73
     8
 40
84.000000
 49
64.000000
 49
-2.000000
 49
4.000000
 49
-2.000000
 49
4.000000
 49
-2.000000
 49
4.000000
 49
-2.000000
  0
LTYPE
  2
STCH
 70
    64
  3
__ __ __ __ __ __ __ __ __ __ __ __ __ __ __
 72
    65
 73
     2
 40
3.000000
 49
1.000000
 49
-2.000000
  0
LTYPE
  2
MTCH
 70
    64
  3
_____ _ _ _____ _ _ _____ _ _ _____ _ _ ____  
 72
    65
 73
     6
 40
80.000000
 49
66.000000
 49
-2.000000
 49
4.000000
 49
-2.000000
 49
4.000000
 49
-2.000000
  0
ENDTAB
  0
TABLE
  2
LAYER
 70
     1
  0
LAYER
  2
0
 70
     0
 62
     7
  6
CONTINUOUS
  0
ENDTAB
  0
TABLE
  2
STYLE
 70
     1
  0
STYLE
  2
STANDARD
 70
     0
 40
0.000000
 41
1.000000
 50
0.000000
 71
     0
 42
0.200000
  3
txt
  4
BIGFONT
  0
ENDTAB
  0
TABLE
  2
VIEW
 70
     0
  0
ENDTAB
  0
ENDSEC
  0
SECTION
  2
BLOCKS
  0
ENDSEC
  0
SECTION
  2
ENTITIES
  0
LINE
  8
0
 10
-299.250000
 20
276.250000
 11
-299.250000
 21
261.250000
  0
LINE
  8
0
 10
299.799988
 20
276.250000
 11
299.799988
 21
261.250000
  0
LINE
  8
0
 10
-399.250000
 20
261.250000
 11
-299.250000
 21
261.250000
  0
LINE
  8
0
 10
299.799988
 20
-256.750000
 11
299.799988
 21
-276.750000
  0
LINE
  8
0
 10
299.799988
 20
261.250000
 11
399.799988
 21
261.250000
  0
LINE
  8
0
 10
299.799988
 20
-256.750000
 11
399.799988
 21
-256.750000
  0
LINE
  8
0
 10
-420.500000
 20
297.000000
 11
420.500000
 21
297.000000
  0
LINE
  8
0
 10
-420.500000
 20
-297.000000
 11
420.500000
 21
-297.000000
  0
LINE
  8
0
 10
420.500000
 20
297.000000
 11
420.500000
 21
-297.000000
  0
LINE
  8
0
 10
-420.500000
 20
297.000000
 11
-420.500000
 21
-297.000000
  0
LINE
  8
0
 10
399.799988
 20
276.250000
 11
399.799988
 21
-276.750000
  0
LINE
  8
0
 10
-399.250000
 20
276.250000
 11
-399.250000
 21
-276.750000
  0
LINE
  8
0
 10
-399.250000
 20
276.250000
 11
399.799988
 21
276.250000
  0
LINE
  8
0
 10
-399.250000
 20
-276.750000
 11
399.799988
 21
-276.750000
  0
TEXT
  8
0
 10
-374.142487
 20
262.549988
 40
8.000000
  1
630M*A
 50
0.000000
 41
1.052632
 51
0.000000
  7
STANDARD
  0
TEXT
  8
0
 10
305.721680
 20
264.529999
 40
5.800000
  1
DATE: MAY ,1992
 50
0.000000
 41
1.052632
 51
0.000000
  7
STANDARD
  0
TEXT
  8
0
 10
295.700867
 20
-272.049988
 40
7.000000
  1
ＫＯＧＡＮＥＩ，ＣＯＲＰ．
 50
0.000000
 41
0.902367
 51
15.000000
  7
STANDARD
  0
TEXT
  8
0
 10
-392.142517
 20
232.550003
 40
8.000000
  1
MODEL: 630M*A
 50
0.000000
 41
1.052632
 51
0.000000
  7
STANDARD
  0
POINT
  8
0
 10
20.000002
 20
39.999996
  0
POINT
  8
0
 10
264.000000
 20
39.999996
  0
LINE
  8
0
 10
76.999969
 20
23.201443
 11
76.999969
 21
175.081879
  0
LINE
  8
0
 10
71.999969
 20
61.999966
 11
71.999969
 21
119.999969
  0
LINE
  8
0
 10
81.999969
 20
61.999966
 11
81.999969
 21
119.999969
  0
LINE
  8
0
 10
70.999969
 20
61.999966
 11
70.999969
 21
119.999969
  0
LINE
  8
0
 10
82.999969
 20
61.999966
 11
82.999969
 21
119.999969
  0
LINE
  8
0
 10
94.249969
 20
68.999969
 11
94.249969
 21
79.999969
  0
LINE
  8
0
 10
88.750000
 20
74.500000
 11
99.750000
 21
74.500000
  0
LINE
  8
0
 10
72.000000
 20
111.000000
 11
82.000000
 21
111.000000
  0
LINE
  8
0
 10
72.000000
 20
71.000000
 11
82.000000
 21
71.000000
  0
LINE
  8
0
 10
73.000000
 20
121.000000
 11
81.000000
 21
121.000000
  0
LINE
  8
0
 10
73.000000
 20
60.999996
 11
81.000000
 21
60.999996
  0
LINE
  8
0
 10
73.000000
 20
122.000000
 11
81.000000
 21
122.000000
  0
LINE
  8
0
 10
73.000000
 20
59.999996
 11
81.000000
 21
59.999996
  0
LINE
  8
0
 10
95.499969
 20
121.499969
 11
95.499969
 21
128.499969
  0
LINE
  8
0
 10
89.699982
 20
128.500000
 11
95.500000
 21
128.500000
  0
LINE
  8
0
 10
89.699982
 20
121.499969
 11
89.699982
 21
128.499969
  0
LINE
  8
0
 10
89.699982
 20
121.500000
 11
95.500000
 21
121.500000
  0
LINE
  8
0
 10
64.299988
 20
60.499996
 11
58.500000
 21
60.499996
  0
LINE
  8
0
 10
64.299988
 20
60.499966
 11
64.299988
 21
53.499966
  0
LINE
  8
0
 10
64.299988
 20
53.499996
 11
58.500000
 21
53.499996
  0
LINE
  8
0
 10
58.499969
 20
60.499966
 11
58.499969
 21
53.499966
  0
LINE
  8
0
 10
122.149994
 20
16.499996
 11
122.149994
 21
15.799984
  0
LINE
  8
0
 10
117.849976
 20
16.499996
 11
117.849976
 21
15.799984
  0
LINE
  8
0
 10
117.849976
 20
15.799984
 11
122.149963
 21
15.799984
  0
LINE
  8
0
 10
56.000000
 20
50.499996
 11
98.000000
 21
50.499996
  0
LINE
  8
0
 10
56.000000
 20
131.500000
 11
98.000000
 21
131.500000
  0
LINE
  8
0
 10
57.500000
 20
40.499996
 11
96.500000
 21
40.499996
  0
LINE
  8
0
 10
57.500000
 20
141.500000
 11
96.500000
 21
141.500000
  0
LINE
  8
0
 10
64.000000
 20
165.500000
 11
90.000000
 21
165.500000
  0
LINE
  8
0
 10
97.999969
 20
41.999966
 11
97.999969
 21
139.999969
  0
LINE
  8
0
 10
55.999969
 20
30.999996
 11
55.999969
 21
143.500000
  0
LINE
  8
0
 10
60.999969
 20
141.499969
 11
60.999969
 21
162.499969
  0
LINE
  8
0
 10
92.999969
 20
141.499969
 11
92.999969
 21
162.499969
  0
LINE
  8
0
 10
94.250000
 20
70.500000
 11
98.000000
 21
70.500000
  0
LINE
  8
0
 10
94.250000
 20
78.500000
 11
98.000000
 21
78.500000
  0
LINE
  8
0
 10
94.249969
 20
112.999969
 11
94.249969
 21
101.999969
  0
LINE
  8
0
 10
88.750000
 20
107.500000
 11
99.750000
 21
107.500000
  0
LINE
  8
0
 10
94.250000
 20
111.500000
 11
98.000000
 21
111.500000
  0
LINE
  8
0
 10
94.250000
 20
103.500000
 11
98.000000
 21
103.500000
  0
LINE
  8
0
 10
59.749969
 20
68.999969
 11
59.749969
 21
79.999969
  0
LINE
  8
0
 10
65.250000
 20
74.500000
 11
54.250000
 21
74.500000
  0
LINE
  8
0
 10
59.750000
 20
70.500000
 11
56.000000
 21
70.500000
  0
LINE
  8
0
 10
59.750000
 20
78.500000
 11
56.000000
 21
78.500000
  0
LINE
  8
0
 10
59.750000
 20
111.500000
 11
56.000000
 21
111.500000
  0
LINE
  8
0
 10
59.750000
 20
103.500000
 11
56.000000
 21
103.500000
  0
LINE
  8
0
 10
22.862886
 20
91.000000
 11
262.364929
 21
91.000000
  0
LINE
  8
0
 10
61.249969
 20
73.633942
 11
61.249969
 21
75.365997
  0
LINE
  8
0
 10
58.249969
 20
73.633942
 11
58.249969
 21
75.365997
  0
LINE
  8
0
 10
61.249870
 20
75.366020
 11
59.749893
 21
76.232033
  0
LINE
  8
0
 10
59.749786
 20
72.767807
 11
58.249786
 21
73.633835
  0
LINE
  8
0
 10
59.750038
 20
72.767792
 11
61.250015
 21
73.633804
  0
LINE
  8
0
 10
59.750023
 20
76.231834
 11
58.250023
 21
75.365807
  0
LINE
  8
0
 10
94.250046
 20
76.231728
 11
92.750069
 21
75.365715
  0
LINE
  8
0
 10
94.250099
 20
72.767761
 11
95.750107
 21
73.633789
  0
LINE
  8
0
 10
95.749969
 20
73.633942
 11
95.749969
 21
75.365997
  0
LINE
  8
0
 10
92.749969
 20
73.633942
 11
92.749969
 21
75.365997
  0
LINE
  8
0
 10
95.749886
 20
75.365997
 11
94.249878
 21
76.232025
  0
LINE
  8
0
 10
94.249779
 20
72.767838
 11
92.749748
 21
73.633881
  0
LINE
  8
0
 10
94.250023
 20
105.767822
 11
95.750023
 21
106.633850
  0
LINE
  8
0
 10
94.249840
 20
105.767960
 11
92.749840
 21
106.633987
  0
LINE
  8
0
 10
92.749969
 20
106.633942
 11
92.749969
 21
108.365997
  0
LINE
  8
0
 10
94.250031
 20
109.231857
 11
92.750053
 21
108.365845
  0
LINE
  8
0
 10
95.749924
 20
108.365982
 11
94.249916
 21
109.232010
  0
LINE
  8
0
 10
95.749969
 20
106.633942
 11
95.749969
 21
108.365997
  0
LINE
  8
0
 10
16.000002
 20
48.999996
 11
26.999971
 21
48.999996
  0
LINE
  8
0
 10
20.000002
 20
35.499996
 11
15.000002
 21
35.499996
  0
LINE
  8
0
 10
20.000002
 20
44.499996
 11
15.000002
 21
44.499996
  0
LINE
  8
0
 10
20.000002
 20
47.071774
 11
20.000002
 21
33.303432
  0
LINE
  8
0
 10
14.000002
 20
46.999996
 11
14.000002
 21
45.499996
  0
LINE
  8
0
 10
14.000002
 20
34.499996
 11
14.000002
 21
32.999996
  0
LINE
  8
0
 10
16.000002
 20
136.000000
 11
26.999971
 21
136.000000
  0
LINE
  8
0
 10
16.000002
 20
154.000000
 11
26.999971
 21
154.000000
  0
LINE
  8
0
 10
20.000002
 20
140.500000
 11
15.000002
 21
140.500000
  0
LINE
  8
0
 10
20.000002
 20
149.500000
 11
15.000002
 21
149.500000
  0
LINE
  8
0
 10
20.000002
 20
152.071777
 11
20.000002
 21
138.303436
  0
LINE
  8
0
 10
14.000002
 20
152.000000
 11
14.000002
 21
150.500000
  0
LINE
  8
0
 10
27.999971
 20
196.000000
 11
27.999971
 21
33.999996
  0
LINE
  8
0
 10
42.999969
 20
199.000000
 11
42.999969
 21
143.500000
  0
LINE
  8
0
 10
14.000002
 20
139.500000
 11
14.000002
 21
138.000000
  0
LINE
  8
0
 10
13.478151
 20
145.000000
 11
31.456057
 21
145.000000
  0
LINE
  8
0
 10
256.000000
 20
196.000000
 11
256.000000
 21
33.999996
  0
LINE
  8
0
 10
98.999969
 20
143.500000
 11
98.999969
 21
30.999996
  0
LINE
  8
0
 10
253.000000
 20
199.000000
 11
31.000002
 21
199.000000
  0
LINE
  8
0
 10
270.000000
 20
139.500000
 11
270.000000
 21
138.000000
  0
LINE
  8
0
 10
270.521851
 20
145.000000
 11
252.543945
 21
145.000000
  0
LINE
  8
0
 10
270.000000
 20
152.000000
 11
270.000000
 21
150.500000
  0
LINE
  8
0
 10
264.000000
 20
152.071777
 11
264.000000
 21
138.303436
  0
LINE
  8
0
 10
264.000000
 20
149.500000
 11
269.000000
 21
149.500000
  0
LINE
  8
0
 10
264.000000
 20
140.500000
 11
269.000000
 21
140.500000
  0
LINE
  8
0
 10
268.000000
 20
154.000000
 11
264.236053
 21
154.000000
  0
LINE
  8
0
 10
268.000000
 20
136.000000
 11
257.000000
 21
136.000000
  0
LINE
  8
0
 10
270.000000
 20
34.499996
 11
270.000000
 21
32.999996
  0
LINE
  8
0
 10
270.390533
 20
39.999996
 11
252.543945
 21
39.999996
  0
LINE
  8
0
 10
270.000000
 20
46.999996
 11
270.000000
 21
45.499996
  0
LINE
  8
0
 10
264.000000
 20
47.071774
 11
264.000000
 21
33.303432
  0
LINE
  8
0
 10
263.999969
 20
44.499996
 11
268.999969
 21
44.499996
  0
LINE
  8
0
 10
263.999969
 20
35.499996
 11
268.999969
 21
35.499996
  0
LINE
  8
0
 10
267.999969
 20
48.999996
 11
257.000000
 21
48.999996
  0
LINE
  8
0
 10
240.999969
 20
199.000000
 11
240.999969
 21
143.500000
  0
LINE
  8
0
 10
98.999969
 20
143.500000
 11
92.999969
 21
143.500000
  0
LINE
  8
0
 10
60.999969
 20
143.500000
 11
42.999969
 21
143.500000
  0
LINE
  8
0
 10
205.999969
 20
23.246273
 11
205.999969
 21
174.005615
  0
LINE
  8
0
 10
157.999969
 20
61.999966
 11
157.999969
 21
119.999969
  0
LINE
  8
0
 10
167.999969
 20
61.999966
 11
167.999969
 21
119.999969
  0
LINE
  8
0
 10
156.999969
 20
61.999966
 11
156.999969
 21
119.999969
  0
LINE
  8
0
 10
168.999969
 20
61.999966
 11
168.999969
 21
119.999969
  0
LINE
  8
0
 10
188.750000
 20
101.999969
 11
188.750000
 21
112.999969
  0
LINE
  8
0
 10
146.999969
 20
19.499966
 11
146.999969
 21
40.499966
  0
LINE
  8
0
 10
178.999969
 20
19.499966
 11
178.999969
 21
40.499966
  0
LINE
  8
0
 10
183.250000
 20
107.499969
 11
194.250000
 21
107.499969
  0
LINE
  8
0
 10
158.000000
 20
111.000000
 11
168.000000
 21
111.000000
  0
LINE
  8
0
 10
158.000000
 20
71.000000
 11
168.000000
 21
71.000000
  0
LINE
  8
0
 10
159.000000
 20
121.000000
 11
167.000000
 21
121.000000
  0
LINE
  8
0
 10
159.000000
 20
60.999996
 11
167.000000
 21
60.999996
  0
LINE
  8
0
 10
159.000000
 20
122.000000
 11
167.000000
 21
122.000000
  0
LINE
  8
0
 10
159.000000
 20
59.999996
 11
167.000000
 21
59.999996
  0
LINE
  8
0
 10
181.499969
 20
121.499969
 11
181.499969
 21
128.499969
  0
LINE
  8
0
 10
175.699982
 20
128.500000
 11
181.500000
 21
128.500000
  0
LINE
  8
0
 10
175.699982
 20
121.499969
 11
175.699982
 21
128.499969
  0
LINE
  8
0
 10
175.699982
 20
121.500000
 11
181.500000
 21
121.500000
  0
LINE
  8
0
 10
150.299988
 20
60.499996
 11
144.500000
 21
60.499996
  0
LINE
  8
0
 10
150.299988
 20
60.499966
 11
150.299988
 21
53.499966
  0
LINE
  8
0
 10
150.299988
 20
53.499996
 11
144.500000
 21
53.499996
  0
LINE
  8
0
 10
144.499969
 20
60.499966
 11
144.499969
 21
53.499966
  0
LINE
  8
0
 10
142.000000
 20
50.499996
 11
184.000000
 21
50.499996
  0
LINE
  8
0
 10
142.000000
 20
131.500000
 11
184.000000
 21
131.500000
  0
LINE
  8
0
 10
143.500000
 20
40.499996
 11
182.500000
 21
40.499996
  0
LINE
  8
0
 10
143.500000
 20
141.500000
 11
182.500000
 21
141.500000
  0
LINE
  8
0
 10
150.000000
 20
165.500000
 11
176.000000
 21
165.500000
  0
LINE
  8
0
 10
150.000000
 20
16.499966
 11
176.000000
 21
16.499966
  0
LINE
  8
0
 10
183.999969
 20
41.999966
 11
183.999969
 21
139.999969
  0
LINE
  8
0
 10
141.999969
 20
41.999966
 11
141.999969
 21
139.999969
  0
LINE
  8
0
 10
146.999969
 20
141.499969
 11
146.999969
 21
162.499969
  0
LINE
  8
0
 10
178.999969
 20
141.499969
 11
178.999969
 21
162.499969
  0
LINE
  8
0
 10
180.250000
 20
70.500000
 11
184.000000
 21
70.500000
  0
LINE
  8
0
 10
180.250000
 20
78.500000
 11
184.000000
 21
78.500000
  0
LINE
  8
0
 10
180.249969
 20
112.999969
 11
180.249969
 21
101.999969
  0
LINE
  8
0
 10
174.750000
 20
107.500000
 11
185.750000
 21
107.500000
  0
LINE
  8
0
 10
180.250000
 20
111.500000
 11
184.000000
 21
111.500000
  0
LINE
  8
0
 10
180.250000
 20
103.500000
 11
184.000000
 21
103.500000
  0
LINE
  8
0
 10
145.749969
 20
68.999969
 11
145.749969
 21
79.999969
  0
LINE
  8
0
 10
151.250000
 20
74.500000
 11
140.250000
 21
74.500000
  0
LINE
  8
0
 10
145.750000
 20
70.500000
 11
142.000000
 21
70.500000
  0
LINE
  8
0
 10
145.750000
 20
78.500000
 11
142.000000
 21
78.500000
  0
LINE
  8
0
 10
145.749969
 20
112.999969
 11
145.749969
 21
101.999969
  0
LINE
  8
0
 10
151.250000
 20
107.500000
 11
140.250000
 21
107.500000
  0
LINE
  8
0
 10
145.750000
 20
111.500000
 11
142.000000
 21
111.500000
  0
LINE
  8
0
 10
145.750000
 20
103.500000
 11
142.000000
 21
103.500000
  0
LINE
  8
0
 10
147.249969
 20
73.633942
 11
147.249969
 21
75.365997
  0
LINE
  8
0
 10
144.249969
 20
73.633942
 11
144.249969
 21
75.365997
  0
LINE
  8
0
 10
147.249893
 20
75.365974
 11
145.749939
 21
76.231972
  0
LINE
  8
0
 10
145.749847
 20
72.767914
 11
144.249847
 21
73.633942
  0
LINE
  8
0
 10
145.750107
 20
72.767654
 11
147.250092
 21
73.633667
  0
LINE
  8
0
 10
145.750046
 20
76.231758
 11
144.250046
 21
75.365723
  0
LINE
  8
0
 10
188.750061
 20
109.231628
 11
187.250061
 21
108.365601
  0
LINE
  8
0
 10
188.750137
 20
105.767654
 11
190.250137
 21
106.633682
  0
LINE
  8
0
 10
190.250000
 20
106.633942
 11
190.250000
 21
108.365997
  0
LINE
  8
0
 10
187.250000
 20
106.633942
 11
187.250000
 21
108.365997
  0
LINE
  8
0
 10
190.249939
 20
108.365967
 11
188.749924
 21
109.231995
  0
LINE
  8
0
 10
188.749802
 20
105.767929
 11
187.249802
 21
106.633957
  0
LINE
  8
0
 10
145.750031
 20
109.231766
 11
144.250000
 21
108.365723
  0
LINE
  8
0
 10
145.750092
 20
105.767761
 11
147.250076
 21
106.633774
  0
LINE
  8
0
 10
147.249969
 20
106.633942
 11
147.249969
 21
108.365997
  0
LINE
  8
0
 10
144.249969
 20
106.633942
 11
144.249969
 21
108.365997
  0
LINE
  8
0
 10
147.249939
 20
108.365982
 11
145.749969
 21
109.231995
  0
LINE
  8
0
 10
145.749893
 20
105.767960
 11
144.249878
 21
106.633987
  0
LINE
  8
0
 10
180.250076
 20
105.767700
 11
181.750061
 21
106.633713
  0
LINE
  8
0
 10
180.249863
 20
105.768082
 11
178.749863
 21
106.634109
  0
LINE
  8
0
 10
178.749969
 20
106.633942
 11
178.749969
 21
108.365997
  0
LINE
  8
0
 10
180.250046
 20
109.231735
 11
178.750061
 21
108.365723
  0
LINE
  8
0
 10
181.749939
 20
108.365997
 11
180.249939
 21
109.232025
  0
LINE
  8
0
 10
181.749969
 20
106.633942
 11
181.749969
 21
108.365997
  0
LINE
  8
0
 10
227.999969
 20
143.500000
 11
227.999969
 21
30.999996
  0
LINE
  8
0
 10
267.999969
 20
30.999996
 11
178.999969
 21
30.999996
  0
LINE
  8
0
 10
240.999969
 20
143.500000
 11
178.999969
 21
143.500000
  0
LINE
  8
0
 10
146.999969
 20
143.500000
 11
141.999969
 21
143.500000
  0
LINE
  8
0
 10
146.999969
 20
30.999996
 11
141.999969
 21
30.999996
  0
LINE
  8
0
 10
119.999969
 20
10.287807
 11
119.999969
 21
174.364380
  0
LINE
  8
0
 10
114.999969
 20
61.999966
 11
114.999969
 21
119.999969
  0
LINE
  8
0
 10
124.999969
 20
61.999966
 11
124.999969
 21
119.999969
  0
LINE
  8
0
 10
113.999969
 20
61.999966
 11
113.999969
 21
119.999969
  0
LINE
  8
0
 10
125.999969
 20
61.999966
 11
125.999969
 21
119.999969
  0
LINE
  8
0
 10
137.249969
 20
68.999969
 11
137.249969
 21
79.999969
  0
LINE
  8
0
 10
103.999969
 20
19.499966
 11
103.999969
 21
40.499966
  0
LINE
  8
0
 10
135.999969
 20
19.499966
 11
135.999969
 21
40.499966
  0
LINE
  8
0
 10
131.750000
 20
74.500000
 11
142.750000
 21
74.500000
  0
LINE
  8
0
 10
115.000000
 20
111.000000
 11
125.000000
 21
111.000000
  0
LINE
  8
0
 10
115.000000
 20
71.000000
 11
125.000000
 21
71.000000
  0
LINE
  8
0
 10
116.000000
 20
121.000000
 11
124.000000
 21
121.000000
  0
LINE
  8
0
 10
116.000000
 20
60.999996
 11
124.000000
 21
60.999996
  0
LINE
  8
0
 10
116.000000
 20
122.000000
 11
124.000000
 21
122.000000
  0
LINE
  8
0
 10
116.000000
 20
59.999996
 11
124.000000
 21
59.999996
  0
LINE
  8
0
 10
138.499969
 20
121.499969
 11
138.499969
 21
128.499969
  0
LINE
  8
0
 10
132.699982
 20
128.500000
 11
138.500000
 21
128.500000
  0
LINE
  8
0
 10
132.699982
 20
121.499969
 11
132.699982
 21
128.499969
  0
LINE
  8
0
 10
132.699982
 20
121.500000
 11
138.500000
 21
121.500000
  0
LINE
  8
0
 10
107.299988
 20
60.499996
 11
101.500000
 21
60.499996
  0
LINE
  8
0
 10
107.299988
 20
60.499966
 11
107.299988
 21
53.499966
  0
LINE
  8
0
 10
107.299988
 20
53.499996
 11
101.500000
 21
53.499996
  0
LINE
  8
0
 10
101.499969
 20
60.499966
 11
101.499969
 21
53.499966
  0
LINE
  8
0
 10
99.000000
 20
50.499996
 11
141.000000
 21
50.499996
  0
LINE
  8
0
 10
99.000000
 20
131.500000
 11
141.000000
 21
131.500000
  0
LINE
  8
0
 10
100.500000
 20
40.499996
 11
139.500000
 21
40.499996
  0
LINE
  8
0
 10
100.500000
 20
141.500000
 11
139.500000
 21
141.500000
  0
LINE
  8
0
 10
107.000000
 20
165.500000
 11
133.000000
 21
165.500000
  0
LINE
  8
0
 10
107.000000
 20
16.499966
 11
133.000000
 21
16.499966
  0
LINE
  8
0
 10
140.999969
 20
41.999966
 11
140.999969
 21
139.999969
  0
LINE
  8
0
 10
98.999969
 20
41.999966
 11
98.999969
 21
139.999969
  0
LINE
  8
0
 10
103.999969
 20
141.499969
 11
103.999969
 21
162.499969
  0
LINE
  8
0
 10
135.999969
 20
141.499969
 11
135.999969
 21
162.499969
  0
LINE
  8
0
 10
137.250000
 20
70.500000
 11
141.000000
 21
70.500000
  0
LINE
  8
0
 10
137.250000
 20
78.500000
 11
141.000000
 21
78.500000
  0
LINE
  8
0
 10
137.249969
 20
112.999969
 11
137.249969
 21
101.999969
  0
LINE
  8
0
 10
131.750000
 20
107.500000
 11
142.750000
 21
107.500000
  0
LINE
  8
0
 10
137.250000
 20
111.500000
 11
141.000000
 21
111.500000
  0
LINE
  8
0
 10
137.250000
 20
103.500000
 11
141.000000
 21
103.500000
  0
LINE
  8
0
 10
102.749969
 20
68.999969
 11
102.749969
 21
79.999969
  0
LINE
  8
0
 10
108.250000
 20
74.500000
 11
97.250000
 21
74.500000
  0
LINE
  8
0
 10
102.750000
 20
70.500000
 11
99.000000
 21
70.500000
  0
LINE
  8
0
 10
102.750000
 20
78.500000
 11
99.000000
 21
78.500000
  0
LINE
  8
0
 10
102.749969
 20
112.999969
 11
102.749969
 21
101.999969
  0
LINE
  8
0
 10
108.250000
 20
107.500000
 11
97.250000
 21
107.500000
  0
LINE
  8
0
 10
102.750000
 20
111.500000
 11
99.000000
 21
111.500000
  0
LINE
  8
0
 10
102.750000
 20
103.500000
 11
99.000000
 21
103.500000
  0
LINE
  8
0
 10
104.249969
 20
73.633942
 11
104.249969
 21
75.365997
  0
LINE
  8
0
 10
101.249969
 20
73.633942
 11
101.249969
 21
75.365997
  0
LINE
  8
0
 10
104.249893
 20
75.365982
 11
102.749893
 21
76.232010
  0
LINE
  8
0
 10
102.749855
 20
72.767807
 11
101.249847
 21
73.633835
  0
LINE
  8
0
 10
102.750046
 20
72.767731
 11
104.250023
 21
73.633743
  0
LINE
  8
0
 10
102.750031
 20
76.231796
 11
101.250053
 21
75.365784
  0
LINE
  8
0
 10
137.250046
 20
76.231720
 11
135.750046
 21
75.365692
  0
LINE
  8
0
 10
137.250107
 20
72.767654
 11
138.750107
 21
73.633682
  0
LINE
  8
0
 10
138.749969
 20
73.633942
 11
138.749969
 21
75.365997
  0
LINE
  8
0
 10
135.749969
 20
73.633942
 11
135.749969
 21
75.365997
  0
LINE
  8
0
 10
138.749924
 20
75.365936
 11
137.249924
 21
76.231964
  0
LINE
  8
0
 10
137.249786
 20
72.767914
 11
135.749786
 21
73.633942
  0
LINE
  8
0
 10
102.750015
 20
109.231812
 11
101.250008
 21
108.365784
  0
LINE
  8
0
 10
102.750038
 20
105.767853
 11
104.250046
 21
106.633881
  0
LINE
  8
0
 10
104.249969
 20
106.633942
 11
104.249969
 21
108.365997
  0
LINE
  8
0
 10
101.249969
 20
106.633942
 11
101.249969
 21
108.365997
  0
LINE
  8
0
 10
104.249924
 20
108.366013
 11
102.749947
 21
109.232025
  0
LINE
  8
0
 10
102.749825
 20
105.767944
 11
101.249825
 21
106.633972
  0
LINE
  8
0
 10
137.250031
 20
105.767761
 11
138.750031
 21
106.633789
  0
LINE
  8
0
 10
137.249878
 20
105.768021
 11
135.749878
 21
106.634048
  0
LINE
  8
0
 10
135.749969
 20
106.633942
 11
135.749969
 21
108.365997
  0
LINE
  8
0
 10
137.250046
 20
109.231812
 11
135.750046
 21
108.365784
  0
LINE
  8
0
 10
138.749908
 20
108.365967
 11
137.249908
 21
109.231995
  0
LINE
  8
0
 10
138.749969
 20
106.633942
 11
138.749969
 21
108.365997
  0
LINE
  8
0
 10
184.999969
 20
143.500000
 11
184.999969
 21
30.999996
  0
LINE
  8
0
 10
141.999969
 20
30.999996
 11
135.999969
 21
30.999996
  0
LINE
  8
0
 10
141.999969
 20
143.500000
 11
135.999969
 21
143.500000
  0
LINE
  8
0
 10
103.999969
 20
143.500000
 11
98.999969
 21
143.500000
  0
LINE
  8
0
 10
103.999969
 20
30.999996
 11
16.000002
 21
30.999996
  0
LINE
  8
0
 10
59.749969
 20
112.999969
 11
59.749969
 21
101.999969
  0
LINE
  8
0
 10
59.749779
 20
105.767853
 11
58.249779
 21
106.633881
  0
LINE
  8
0
 10
65.250000
 20
107.500000
 11
54.250000
 21
107.500000
  0
LINE
  8
0
 10
58.249969
 20
106.633942
 11
58.249969
 21
108.365997
  0
LINE
  8
0
 10
59.749985
 20
109.231888
 11
58.249977
 21
108.365860
  0
LINE
  8
0
 10
61.249916
 20
108.366013
 11
59.749916
 21
109.232040
  0
LINE
  8
0
 10
61.249969
 20
106.633942
 11
61.249969
 21
108.365997
  0
LINE
  8
0
 10
59.750008
 20
105.767883
 11
61.250008
 21
106.633911
  0
LINE
  8
0
 10
79.149963
 20
166.200012
 11
74.849976
 21
166.200012
  0
LINE
  8
0
 10
79.149994
 20
165.500000
 11
79.149994
 21
166.200012
  0
LINE
  8
0
 10
74.849976
 20
165.500000
 11
74.849976
 21
166.200012
  0
LINE
  8
0
 10
165.149994
 20
16.499996
 11
165.149994
 21
15.799984
  0
LINE
  8
0
 10
160.850006
 20
16.499996
 11
160.850006
 21
15.799984
  0
LINE
  8
0
 10
160.850006
 20
15.799984
 11
165.149994
 21
15.799984
  0
LINE
  8
0
 10
165.149994
 20
166.199982
 11
160.850006
 21
166.199982
  0
LINE
  8
0
 10
165.149994
 20
165.499969
 11
165.149994
 21
166.199982
  0
LINE
  8
0
 10
160.850006
 20
165.499969
 11
160.850006
 21
166.199982
  0
LINE
  8
0
 10
122.149963
 20
166.200012
 11
117.849976
 21
166.200012
  0
LINE
  8
0
 10
122.149994
 20
165.500000
 11
122.149994
 21
166.200012
  0
LINE
  8
0
 10
117.849976
 20
165.500000
 11
117.849976
 21
166.200012
  0
LINE
  8
0
 10
42.999969
 20
197.000000
 11
240.999969
 21
197.000000
  0
LINE
  8
0
 10
42.999969
 20
194.500000
 11
240.999969
 21
194.500000
  0
LINE
  8
0
 10
42.999969
 20
191.000000
 11
240.999969
 21
191.000000
  0
LINE
  8
0
 10
42.999969
 20
186.500000
 11
240.999969
 21
186.500000
  0
LINE
  8
0
 10
42.999969
 20
181.500000
 11
240.999969
 21
181.500000
  0
LINE
  8
0
 10
42.999969
 20
176.500000
 11
240.999969
 21
176.500000
  0
LINE
  8
0
 10
42.999969
 20
171.500000
 11
240.999969
 21
171.500000
  0
LINE
  8
0
 10
42.999969
 20
166.500000
 11
240.999969
 21
166.500000
  0
LINE
  8
0
 10
42.999969
 20
161.500000
 11
60.999969
 21
161.500000
  0
LINE
  8
0
 10
42.999969
 20
156.500000
 11
60.999969
 21
156.500000
  0
LINE
  8
0
 10
178.999969
 20
156.500000
 11
240.999969
 21
156.500000
  0
LINE
  8
0
 10
178.999969
 20
161.500000
 11
240.999969
 21
161.500000
  0
LINE
  8
0
 10
135.999969
 20
156.500000
 11
146.999969
 21
156.500000
  0
LINE
  8
0
 10
135.999969
 20
161.500000
 11
146.999969
 21
161.500000
  0
LINE
  8
0
 10
92.999969
 20
156.500000
 11
103.999969
 21
156.500000
  0
LINE
  8
0
 10
92.999969
 20
161.500000
 11
103.999969
 21
161.500000
  0
LINE
  8
0
 10
162.999969
 20
11.172085
 11
162.999969
 21
174.005615
  0
LINE
  8
0
 10
141.999969
 20
143.500000
 11
141.999969
 21
30.999996
  0
LINE
  8
0
 10
184.999969
 20
45.999996
 11
184.999969
 21
136.000000
  0
LINE
  8
0
 10
226.999969
 20
45.999996
 11
226.999969
 21
136.000000
  0
LINE
  8
0
 10
184.999969
 20
45.999996
 11
226.999969
 21
45.999996
  0
LINE
  8
0
 10
184.999969
 20
136.000000
 11
226.999969
 21
136.000000
  0
LINE
  8
0
 10
180.249969
 20
68.999969
 11
180.249969
 21
79.999969
  0
LINE
  8
0
 10
174.750000
 20
74.500000
 11
185.750000
 21
74.500000
  0
LINE
  8
0
 10
180.249817
 20
72.768005
 11
178.749817
 21
73.634033
  0
LINE
  8
0
 10
180.250015
 20
76.231735
 11
178.750015
 21
75.365707
  0
LINE
  8
0
 10
180.250122
 20
72.767685
 11
181.750122
 21
73.633713
  0
LINE
  8
0
 10
181.749969
 20
73.633942
 11
181.749969
 21
75.365997
  0
LINE
  8
0
 10
178.749969
 20
73.633942
 11
178.749969
 21
75.365997
  0
LINE
  8
0
 10
181.749893
 20
75.366013
 11
180.249893
 21
76.232040
  0
LINE
  8
0
 10
223.250000
 20
68.999969
 11
223.250000
 21
79.999969
  0
LINE
  8
0
 10
217.750000
 20
74.499969
 11
228.750000
 21
74.499969
  0
LINE
  8
0
 10
223.249832
 20
72.767952
 11
221.749832
 21
73.633980
  0
LINE
  8
0
 10
223.250046
 20
76.231674
 11
221.750046
 21
75.365646
  0
LINE
  8
0
 10
223.250122
 20
72.767715
 11
224.750122
 21
73.633743
  0
LINE
  8
0
 10
224.750000
 20
73.633942
 11
224.750000
 21
75.365997
  0
LINE
  8
0
 10
221.750000
 20
73.633942
 11
221.750000
 21
75.365997
  0
LINE
  8
0
 10
224.749939
 20
75.365997
 11
223.249939
 21
76.232025
  0
LINE
  8
0
 10
188.749969
 20
68.999969
 11
188.749969
 21
79.999969
  0
LINE
  8
0
 10
183.249969
 20
74.499969
 11
194.249969
 21
74.499969
  0
LINE
  8
0
 10
188.749817
 20
72.767944
 11
187.249817
 21
73.633972
  0
LINE
  8
0
 10
188.750046
 20
76.231674
 11
187.250046
 21
75.365646
  0
LINE
  8
0
 10
188.750153
 20
72.767639
 11
190.250153
 21
73.633675
  0
LINE
  8
0
 10
190.249969
 20
73.633942
 11
190.249969
 21
75.365997
  0
LINE
  8
0
 10
187.249969
 20
73.633942
 11
187.249969
 21
75.365997
  0
LINE
  8
0
 10
190.249878
 20
75.366005
 11
188.749878
 21
76.232033
  0
LINE
  8
0
 10
223.250000
 20
101.999969
 11
223.250000
 21
112.999969
  0
LINE
  8
0
 10
217.750000
 20
107.499969
 11
228.750000
 21
107.499969
  0
LINE
  8
0
 10
223.249817
 20
105.767899
 11
221.749802
 21
106.633926
  0
LINE
  8
0
 10
223.250076
 20
109.231613
 11
221.750061
 21
108.365585
  0
LINE
  8
0
 10
223.250153
 20
105.767639
 11
224.750168
 21
106.633667
  0
LINE
  8
0
 10
224.750000
 20
106.633942
 11
224.750000
 21
108.365997
  0
LINE
  8
0
 10
221.750000
 20
106.633942
 11
221.750000
 21
108.365997
  0
LINE
  8
0
 10
224.749954
 20
108.365967
 11
223.249939
 21
109.231995
  0
LINE
  8
0
 10
30.542208
 20
39.999996
 11
10.887362
 21
39.999996
  0
LINE
  8
0
 10
184.999969
 20
105.249969
 11
186.069061
 21
105.249969
  0
LINE
  8
0
 10
184.999969
 20
109.749969
 11
186.069061
 21
109.749969
  0
LINE
  8
0
 10
226.999969
 20
105.249969
 11
225.930878
 21
105.249969
  0
LINE
  8
0
 10
226.999969
 20
109.749969
 11
225.930878
 21
109.749969
  0
LINE
  8
0
 10
184.999969
 20
76.750031
 11
186.069061
 21
76.750031
  0
LINE
  8
0
 10
184.999969
 20
72.250031
 11
186.069061
 21
72.250031
  0
LINE
  8
0
 10
226.999969
 20
76.750031
 11
225.930878
 21
76.750031
  0
LINE
  8
0
 10
226.999969
 20
72.250031
 11
225.930878
 21
72.250031
  0
LINE
  8
0
 10
50.700592
 20
151.694305
 11
50.700592
 21
149.299377
  0
LINE
  8
0
 10
51.299316
 20
151.694305
 11
51.299316
 21
149.299377
  0
LINE
  8
0
 10
48.305664
 20
148.700653
 11
50.700592
 21
148.700653
  0
LINE
  8
0
 10
48.305664
 20
149.299377
 11
50.700592
 21
149.299377
  0
LINE
  8
0
 10
50.700592
 20
146.305756
 11
51.299316
 21
146.305756
  0
LINE
  8
0
 10
50.700592
 20
151.694305
 11
51.299316
 21
151.694305
  0
LINE
  8
0
 10
48.305664
 20
149.299377
 11
48.305664
 21
148.700653
  0
LINE
  8
0
 10
53.694214
 20
149.299377
 11
53.694214
 21
148.700653
  0
LINE
  8
0
 10
51.299316
 20
148.700653
 11
53.694214
 21
148.700653
  0
LINE
  8
0
 10
51.299316
 20
148.700653
 11
51.299316
 21
146.305756
  0
LINE
  8
0
 10
51.299316
 20
149.299377
 11
53.694214
 21
149.299377
  0
LINE
  8
0
 10
50.700592
 20
148.700653
 11
50.700592
 21
146.305756
  0
LINE
  8
0
 10
44.099396
 20
149.000000
 11
57.994537
 21
149.000000
  0
LINE
  8
0
 10
50.999969
 20
155.946381
 11
50.999969
 21
141.891541
  0
LINE
  8
0
 10
232.700592
 20
151.694305
 11
232.700592
 21
149.299377
  0
LINE
  8
0
 10
233.299316
 20
151.694305
 11
233.299316
 21
149.299377
  0
LINE
  8
0
 10
230.305664
 20
148.700653
 11
232.700592
 21
148.700653
  0
LINE
  8
0
 10
230.305664
 20
149.299377
 11
232.700592
 21
149.299377
  0
LINE
  8
0
 10
232.700592
 20
146.305756
 11
233.299316
 21
146.305756
  0
LINE
  8
0
 10
232.700592
 20
151.694305
 11
233.299316
 21
151.694305
  0
LINE
  8
0
 10
230.305664
 20
149.299377
 11
230.305664
 21
148.700653
  0
LINE
  8
0
 10
235.694214
 20
149.299377
 11
235.694214
 21
148.700653
  0
LINE
  8
0
 10
233.299316
 20
148.700653
 11
235.694214
 21
148.700653
  0
LINE
  8
0
 10
233.299316
 20
148.700653
 11
233.299316
 21
146.305756
  0
LINE
  8
0
 10
233.299316
 20
149.299377
 11
235.694214
 21
149.299377
  0
LINE
  8
0
 10
232.700592
 20
148.700653
 11
232.700592
 21
146.305756
  0
LINE
  8
0
 10
226.099396
 20
149.000000
 11
239.994537
 21
149.000000
  0
LINE
  8
0
 10
232.999969
 20
155.946381
 11
232.999969
 21
141.891541
  0
LINE
  8
0
 10
272.778320
 20
174.000000
 11
251.022949
 21
174.000000
  0
LINE
  8
0
 10
259.000000
 20
195.000000
 11
259.000000
 21
153.000000
  0
LINE
  8
0
 10
265.000000
 20
192.000000
 11
265.000000
 21
156.000000
  0
LINE
  8
0
 10
262.000000
 20
153.000000
 11
259.000000
 21
153.000000
  0
LINE
  8
0
 10
262.000000
 20
195.000000
 11
259.000000
 21
195.000000
  0
LINE
  8
0
 10
257.500000
 20
151.500000
 11
256.000000
 21
151.500000
  0
LINE
  8
0
 10
257.500000
 20
196.500000
 11
256.000000
 21
196.500000
  0
LINE
  8
0
 10
265.000000
 20
190.813629
 11
259.000000
 21
190.813629
  0
LINE
  8
0
 10
265.000000
 20
186.500000
 11
259.000000
 21
186.500000
  0
LINE
  8
0
 10
265.000000
 20
176.992340
 11
259.000000
 21
176.992340
  0
LINE
  8
0
 10
265.000000
 20
157.186371
 11
259.000000
 21
157.186371
  0
LINE
  8
0
 10
265.000000
 20
161.500000
 11
259.000000
 21
161.500000
  0
LINE
  8
0
 10
265.000000
 20
171.007660
 11
259.000000
 21
171.007660
  0
LINE
  8
0
 10
48.249969
 20
145.170074
 11
48.249969
 21
143.500000
  0
LINE
  8
0
 10
53.749969
 20
145.170074
 11
53.749969
 21
143.500000
  0
LINE
  8
0
 10
230.249969
 20
145.170074
 11
230.249969
 21
143.500000
  0
LINE
  8
0
 10
235.749969
 20
145.170074
 11
235.749969
 21
143.500000
  0
ARC
  8
0
 10
81.000000
 20
119.999969
 40
2.000000
 50
0.000000
 51
90.000000
  0
ARC
  8
0
 10
73.000000
 20
119.999969
 40
2.000000
 50
90.000000
 51
180.000000
  0
ARC
  8
0
 10
73.000000
 20
61.999966
 40
2.000000
 50
179.999893
 51
270.000000
  0
ARC
  8
0
 10
81.000000
 20
61.999966
 40
2.000000
 50
270.000000
 51
359.999878
  0
ARC
  8
0
 10
81.000000
 20
119.999969
 40
1.000000
 50
0.000000
 51
90.000000
  0
ARC
  8
0
 10
73.000000
 20
119.999969
 40
1.000000
 50
90.000000
 51
180.000000
  0
ARC
  8
0
 10
73.000000
 20
61.999966
 40
1.000000
 50
180.000000
 51
270.000000
  0
ARC
  8
0
 10
81.000000
 20
61.999966
 40
1.000000
 50
270.000000
 51
0.000000
  0
ARC
  8
0
 10
90.000000
 20
162.499969
 40
3.000000
 50
0.000000
 51
90.000000
  0
ARC
  8
0
 10
64.000000
 20
162.499969
 40
3.000000
 50
90.000000
 51
180.000000
  0
ARC
  8
0
 10
57.500000
 20
139.999969
 40
1.500000
 50
90.000000
 51
180.000000
  0
ARC
  8
0
 10
57.500000
 20
41.999966
 40
1.500000
 50
180.000000
 51
270.000000
  0
ARC
  8
0
 10
96.500000
 20
41.999966
 40
1.500000
 50
270.000000
 51
0.000000
  0
ARC
  8
0
 10
96.500000
 20
139.999969
 40
1.500000
 50
0.000000
 51
90.000000
  0
CIRCLE
  8
0
 10
94.250000
 20
74.499969
 40
3.500000
  0
ARC
  8
0
 10
94.250000
 20
74.499969
 40
4.000000
 50
90.000000
 51
270.000000
  0
CIRCLE
  8
0
 10
94.250000
 20
107.499969
 40
3.500000
  0
ARC
  8
0
 10
94.250000
 20
107.499969
 40
4.000000
 50
90.000000
 51
270.000000
  0
CIRCLE
  8
0
 10
59.750000
 20
74.499969
 40
3.500000
  0
ARC
  8
0
 10
59.750000
 20
74.499969
 40
4.000000
 50
270.000000
 51
89.999893
  0
ARC
  8
0
 10
59.750000
 20
107.499969
 40
4.000000
 50
270.000000
 51
89.999893
  0
ARC
  8
0
 10
27.000002
 20
155.000000
 40
1.000000
 50
270.000000
 51
0.000000
  0
ARC
  8
0
 10
16.000002
 20
32.999996
 40
2.000000
 50
180.000000
 51
269.999939
  0
ARC
  8
0
 10
16.000002
 20
46.999996
 40
2.000000
 50
90.000053
 51
180.000000
  0
ARC
  8
0
 10
16.000002
 20
138.000000
 40
2.000000
 50
180.000000
 51
269.999939
  0
ARC
  8
0
 10
16.000002
 20
152.000000
 40
2.000000
 50
90.000053
 51
180.000000
  0
ARC
  8
0
 10
26.999971
 20
49.999996
 40
1.000000
 50
270.000000
 51
0.000000
  0
ARC
  8
0
 10
27.000002
 20
135.000000
 40
1.000000
 50
0.000000
 51
89.999893
  0
ARC
  8
0
 10
15.000002
 20
45.499996
 40
1.000000
 50
180.000000
 51
270.000000
  0
ARC
  8
0
 10
20.000002
 20
39.999996
 40
4.500000
 50
269.999939
 51
89.999924
  0
ARC
  8
0
 10
15.000002
 20
139.500000
 40
1.000000
 50
90.000000
 51
180.000000
  0
ARC
  8
0
 10
15.000002
 20
150.500000
 40
1.000000
 50
180.000000
 51
270.000000
  0
ARC
  8
0
 10
20.000002
 20
145.000000
 40
4.500000
 50
269.999939
 51
89.999924
  0
ARC
  8
0
 10
15.000002
 20
34.499996
 40
1.000000
 50
90.000000
 51
180.000000
  0
ARC
  8
0
 10
31.000002
 20
196.000000
 40
3.000000
 50
90.000038
 51
180.000000
  0
ARC
  8
0
 10
30.999971
 20
33.999996
 40
3.000000
 50
180.000076
 51
269.999969
  0
ARC
  8
0
 10
253.000000
 20
33.999996
 40
3.000000
 50
270.000000
 51
359.999939
  0
ARC
  8
0
 10
253.000000
 20
196.000000
 40
3.000000
 50
0.000000
 51
90.000000
  0
ARC
  8
0
 10
268.999969
 20
34.499996
 40
1.000000
 50
0.000000
 51
90.000000
  0
ARC
  8
0
 10
264.000000
 20
145.000000
 40
4.500000
 50
90.000000
 51
270.000000
  0
ARC
  8
0
 10
269.000000
 20
150.500000
 40
1.000000
 50
270.000000
 51
0.000000
  0
ARC
  8
0
 10
269.000000
 20
139.500000
 40
1.000000
 50
0.000000
 51
90.000000
  0
ARC
  8
0
 10
263.999969
 20
39.999996
 40
4.500000
 50
90.000000
 51
270.000000
  0
ARC
  8
0
 10
268.999969
 20
45.499996
 40
1.000000
 50
270.000000
 51
0.000000
  0
ARC
  8
0
 10
257.000000
 20
135.000000
 40
1.000000
 50
90.000000
 51
180.000000
  0
ARC
  8
0
 10
257.000000
 20
49.999996
 40
1.000000
 50
180.000000
 51
270.000000
  0
ARC
  8
0
 10
268.000000
 20
152.000000
 40
2.000000
 50
0.000000
 51
90.000000
  0
ARC
  8
0
 10
268.000000
 20
138.000000
 40
2.000000
 50
270.000000
 51
0.000000
  0
ARC
  8
0
 10
267.999969
 20
46.999996
 40
2.000000
 50
359.999878
 51
90.000000
  0
ARC
  8
0
 10
267.999969
 20
32.999996
 40
2.000000
 50
270.000000
 51
359.999878
  0
ARC
  8
0
 10
145.750000
 20
107.499969
 40
4.000000
 50
270.000000
 51
89.999779
  0
CIRCLE
  8
0
 10
145.750000
 20
107.499969
 40
3.500000
  0
ARC
  8
0
 10
167.000000
 20
119.999969
 40
2.000000
 50
0.000000
 51
90.000000
  0
ARC
  8
0
 10
159.000000
 20
119.999969
 40
2.000000
 50
90.000000
 51
180.000000
  0
ARC
  8
0
 10
159.000000
 20
61.999966
 40
2.000000
 50
179.999893
 51
270.000000
  0
ARC
  8
0
 10
167.000000
 20
61.999966
 40
2.000000
 50
270.000000
 51
359.999878
  0
ARC
  8
0
 10
167.000000
 20
119.999969
 40
1.000000
 50
0.000000
 51
90.000000
  0
ARC
  8
0
 10
159.000000
 20
119.999969
 40
1.000000
 50
90.000000
 51
180.000000
  0
ARC
  8
0
 10
159.000000
 20
61.999966
 40
1.000000
 50
180.000000
 51
270.000000
  0
ARC
  8
0
 10
167.000000
 20
61.999966
 40
1.000000
 50
270.000000
 51
0.000000
  0
ARC
  8
0
 10
176.000000
 20
162.499969
 40
3.000000
 50
0.000000
 51
90.000000
  0
ARC
  8
0
 10
150.000000
 20
162.499969
 40
3.000000
 50
90.000000
 51
180.000000
  0
ARC
  8
0
 10
150.000000
 20
19.499966
 40
3.000000
 50
179.999969
 51
270.000000
  0
ARC
  8
0
 10
176.000000
 20
19.499966
 40
3.000000
 50
270.000000
 51
359.999969
  0
ARC
  8
0
 10
143.500000
 20
139.999969
 40
1.500000
 50
90.000000
 51
180.000000
  0
ARC
  8
0
 10
143.500000
 20
41.999966
 40
1.500000
 50
180.000000
 51
270.000000
  0
ARC
  8
0
 10
182.500000
 20
41.999966
 40
1.500000
 50
270.000000
 51
0.000000
  0
ARC
  8
0
 10
182.500000
 20
139.999969
 40
1.500000
 50
0.000000
 51
90.000000
  0
CIRCLE
  8
0
 10
188.750000
 20
107.499969
 40
3.500000
  0
ARC
  8
0
 10
180.250000
 20
74.499969
 40
4.000000
 50
90.000000
 51
270.000000
  0
CIRCLE
  8
0
 10
180.250000
 20
107.499969
 40
3.500000
  0
ARC
  8
0
 10
180.250000
 20
107.499969
 40
4.000000
 50
90.000000
 51
270.000000
  0
CIRCLE
  8
0
 10
145.750000
 20
74.499969
 40
3.500000
  0
ARC
  8
0
 10
145.750000
 20
74.499969
 40
4.000000
 50
270.000000
 51
89.999779
  0
ARC
  8
0
 10
102.750000
 20
107.499969
 40
4.000000
 50
270.000000
 51
89.999893
  0
CIRCLE
  8
0
 10
102.750000
 20
107.499969
 40
3.500000
  0
ARC
  8
0
 10
124.000000
 20
119.999969
 40
2.000000
 50
0.000000
 51
90.000000
  0
ARC
  8
0
 10
116.000000
 20
119.999969
 40
2.000000
 50
90.000000
 51
180.000000
  0
ARC
  8
0
 10
116.000000
 20
61.999966
 40
2.000000
 50
179.999893
 51
270.000000
  0
ARC
  8
0
 10
124.000000
 20
61.999966
 40
2.000000
 50
270.000000
 51
359.999878
  0
ARC
  8
0
 10
124.000000
 20
119.999969
 40
1.000000
 50
0.000000
 51
90.000000
  0
ARC
  8
0
 10
116.000000
 20
119.999969
 40
1.000000
 50
90.000000
 51
180.000000
  0
ARC
  8
0
 10
116.000000
 20
61.999966
 40
1.000000
 50
180.000000
 51
270.000000
  0
ARC
  8
0
 10
124.000000
 20
61.999966
 40
1.000000
 50
270.000000
 51
0.000000
  0
ARC
  8
0
 10
133.000000
 20
162.499969
 40
3.000000
 50
0.000000
 51
90.000000
  0
ARC
  8
0
 10
107.000000
 20
162.499969
 40
3.000000
 50
90.000000
 51
180.000000
  0
ARC
  8
0
 10
107.000000
 20
19.499966
 40
3.000000
 50
179.999969
 51
270.000000
  0
ARC
  8
0
 10
133.000000
 20
19.499966
 40
3.000000
 50
270.000000
 51
359.999969
  0
ARC
  8
0
 10
100.500000
 20
139.999969
 40
1.500000
 50
90.000000
 51
180.000000
  0
ARC
  8
0
 10
100.500000
 20
41.999966
 40
1.500000
 50
180.000000
 51
270.000000
  0
ARC
  8
0
 10
139.500000
 20
41.999966
 40
1.500000
 50
270.000000
 51
0.000000
  0
ARC
  8
0
 10
139.500000
 20
139.999969
 40
1.500000
 50
0.000000
 51
90.000000
  0
CIRCLE
  8
0
 10
137.250000
 20
74.499969
 40
3.500000
  0
ARC
  8
0
 10
137.250000
 20
74.499969
 40
4.000000
 50
90.000000
 51
270.000000
  0
CIRCLE
  8
0
 10
137.250000
 20
107.499969
 40
3.500000
  0
ARC
  8
0
 10
137.250000
 20
107.499969
 40
4.000000
 50
90.000000
 51
270.000000
  0
CIRCLE
  8
0
 10
102.750000
 20
74.499969
 40
3.500000
  0
ARC
  8
0
 10
102.750000
 20
74.499969
 40
4.000000
 50
270.000000
 51
89.999893
  0
CIRCLE
  8
0
 10
59.750000
 20
107.499969
 40
3.500000
  0
CIRCLE
  8
0
 10
180.250000
 20
74.499969
 40
3.500000
  0
CIRCLE
  8
0
 10
223.250000
 20
74.499969
 40
3.500000
  0
CIRCLE
  8
0
 10
223.250000
 20
107.499969
 40
3.500000
  0
CIRCLE
  8
0
 10
188.750000
 20
74.500031
 40
3.500000
  0
CIRCLE
  8
0
 10
50.999969
 20
149.000000
 40
4.714968
  0
CIRCLE
  8
0
 10
232.999969
 20
149.000000
 40
4.714968
  0
ARC
  8
0
 10
257.500000
 20
153.000000
 40
1.500000
 50
270.000000
 51
0.000000
  0
ARC
  8
0
 10
257.500000
 20
195.000000
 40
1.500000
 50
0.000000
 51
90.000000
  0
ARC
  8
0
 10
262.000000
 20
156.000000
 40
3.000000
 50
270.000000
 51
0.000000
  0
ARC
  8
0
 10
262.000000
 20
192.000000
 40
3.000000
 50
0.000000
 51
90.000000
  0
TEXT
  8
0
 10
62.692745
 20
58.159966
 40
2.400000
  1
B
 50
180.000000
 41
1.052632
 51
0.000000
  7
STANDARD
  0
TEXT
  8
0
 10
91.307259
 20
123.839966
 40
2.400000
  1
A
 50
0.000000
 41
1.052632
 51
0.000000
  7
STANDARD
  0
TEXT
  8
0
 10
148.692749
 20
58.159966
 40
2.400000
  1
B
 50
180.000000
 41
1.052632
 51
0.000000
  7
STANDARD
  0
TEXT
  8
0
 10
177.307251
 20
123.839966
 40
2.400000
  1
A
 50
0.000000
 41
1.052632
 51
0.000000
  7
STANDARD
  0
TEXT
  8
0
 10
105.692741
 20
58.159966
 40
2.400000
  1
B
 50
180.000000
 41
1.052632
 51
0.000000
  7
STANDARD
  0
TEXT
  8
0
 10
134.307251
 20
123.839966
 40
2.400000
  1
A
 50
0.000000
 41
1.052632
 51
0.000000
  7
STANDARD
  0
POINT
  8
0
 10
20.000002
 20
-179.999969
  0
POINT
  8
0
 10
264.000000
 20
-179.999969
  0
LINE
  8
0
 10
219.750031
 20
-98.399963
 11
226.750031
 21
-98.399963
  0
LINE
  8
0
 10
223.250000
 20
-97.637421
 11
223.250000
 21
-104.005157
  0
LINE
  8
0
 10
226.750000
 20
-98.399963
 11
226.750000
 21
-102.399963
  0
LINE
  8
0
 10
219.750000
 20
-98.399963
 11
219.750000
 21
-102.399963
  0
LINE
  8
0
 10
57.500000
 20
-47.399963
 11
96.500000
 21
-47.399963
  0
LINE
  8
0
 10
56.000000
 20
-107.399963
 11
98.000000
 21
-107.399963
  0
LINE
  8
0
 10
56.000000
 20
-48.899963
 11
56.000000
 21
-108.999969
  0
LINE
  8
0
 10
98.000000
 20
-48.899963
 11
98.000000
 21
-108.999969
  0
LINE
  8
0
 10
185.000000
 20
-107.399963
 11
227.000000
 21
-107.399963
  0
LINE
  8
0
 10
56.000000
 20
-108.999969
 11
56.000000
 21
-135.749969
  0
LINE
  8
0
 10
56.000000
 20
-135.499969
 11
64.000000
 21
-135.499969
  0
LINE
  8
0
 10
56.000000
 20
-150.499969
 11
64.000000
 21
-150.499969
  0
LINE
  8
0
 10
51.000000
 20
-158.299957
 11
51.000000
 21
-161.699951
  0
LINE
  8
0
 10
34.000000
 20
-122.299957
 11
34.000000
 21
-125.699951
  0
LINE
  8
0
 10
34.000000
 20
-158.299957
 11
34.000000
 21
-161.699951
  0
LINE
  8
0
 10
35.000000
 20
-162.699951
 11
50.000000
 21
-162.699951
  0
LINE
  8
0
 10
35.000000
 20
-157.299957
 11
50.000000
 21
-157.299957
  0
LINE
  8
0
 10
35.000000
 20
-126.699951
 11
50.000000
 21
-126.699951
  0
LINE
  8
0
 10
35.000000
 20
-121.299957
 11
50.000000
 21
-121.299957
  0
LINE
  8
0
 10
48.999886
 20
-160.000153
 11
40.999847
 21
-158.000153
  0
LINE
  8
0
 10
40.999878
 20
-162.000259
 11
48.999886
 21
-160.000275
  0
LINE
  8
0
 10
41.000000
 20
-157.999969
 11
41.000000
 21
-161.999969
  0
LINE
  8
0
 10
51.000000
 20
-122.299957
 11
51.000000
 21
-125.699951
  0
LINE
  8
0
 10
48.999847
 20
-124.000153
 11
40.999844
 21
-122.000153
  0
LINE
  8
0
 10
40.999916
 20
-126.000290
 11
48.999924
 21
-124.000298
  0
LINE
  8
0
 10
41.000000
 20
-121.999939
 11
41.000000
 21
-125.999939
  0
LINE
  8
0
 10
15.000002
 20
-167.999969
 11
31.000002
 21
-167.999969
  0
LINE
  8
0
 10
14.000002
 20
-168.999969
 11
14.000002
 21
-179.999969
  0
LINE
  8
0
 10
14.000002
 20
-179.999969
 11
56.000000
 21
-179.999969
  0
LINE
  8
0
 10
28.000002
 20
-111.999969
 11
28.000002
 21
-166.999969
  0
LINE
  8
0
 10
56.000000
 20
-135.499969
 11
48.000000
 21
-135.499969
  0
LINE
  8
0
 10
56.000000
 20
-150.499969
 11
48.000000
 21
-150.499969
  0
LINE
  8
0
 10
48.000000
 20
-150.499969
 11
48.000000
 21
-135.499969
  0
LINE
  8
0
 10
256.000000
 20
-111.999969
 11
256.000000
 21
-166.999969
  0
LINE
  8
0
 10
253.000000
 20
-108.999969
 11
31.000002
 21
-108.999969
  0
LINE
  8
0
 10
270.000000
 20
-179.999969
 11
228.000000
 21
-179.999969
  0
LINE
  8
0
 10
270.000000
 20
-168.999969
 11
270.000000
 21
-179.999969
  0
LINE
  8
0
 10
269.000000
 20
-167.999969
 11
253.000000
 21
-167.999969
  0
LINE
  8
0
 10
90.999977
 20
-66.265793
 11
92.499954
 21
-67.131805
  0
LINE
  8
0
 10
91.000031
 20
-64.533936
 11
91.000031
 21
-66.265991
  0
LINE
  8
0
 10
92.499863
 20
-63.667618
 11
90.999863
 21
-64.533646
  0
LINE
  8
0
 10
92.500221
 20
-63.667290
 11
94.000198
 21
-64.533302
  0
LINE
  8
0
 10
94.000031
 20
-64.533936
 11
94.000031
 21
-66.265991
  0
LINE
  8
0
 10
92.499901
 20
-67.131897
 11
93.999908
 21
-66.265869
  0
LINE
  8
0
 10
54.499985
 20
-143.865845
 11
55.999992
 21
-144.731873
  0
LINE
  8
0
 10
54.500031
 20
-142.133942
 11
54.500031
 21
-143.865997
  0
LINE
  8
0
 10
55.999863
 20
-141.267639
 11
54.499863
 21
-142.133667
  0
LINE
  8
0
 10
56.000153
 20
-141.267288
 11
57.500130
 21
-142.133301
  0
LINE
  8
0
 10
57.500031
 20
-142.133942
 11
57.500031
 21
-143.865997
  0
LINE
  8
0
 10
55.999908
 20
-144.731949
 11
57.499916
 21
-143.865921
  0
LINE
  8
0
 10
61.500221
 20
-90.667267
 11
63.000198
 21
-91.533279
  0
LINE
  8
0
 10
63.000031
 20
-91.533936
 11
63.000031
 21
-93.265991
  0
LINE
  8
0
 10
61.499901
 20
-94.131920
 11
62.999908
 21
-93.265892
  0
LINE
  8
0
 10
59.999985
 20
-93.265854
 11
61.499992
 21
-94.131882
  0
LINE
  8
0
 10
60.000031
 20
-91.533936
 11
60.000031
 21
-93.265991
  0
LINE
  8
0
 10
61.499886
 20
-90.667656
 11
59.999878
 21
-91.533684
  0
LINE
  8
0
 10
56.000000
 20
-150.249969
 11
56.000000
 21
-179.999969
  0
LINE
  8
0
 10
228.000000
 20
-177.999969
 11
228.000000
 21
-179.999969
  0
LINE
  8
0
 10
48.000000
 20
-138.499969
 11
64.000000
 21
-138.499969
  0
LINE
  8
0
 10
48.000000
 20
-147.499969
 11
64.000000
 21
-147.499969
  0
LINE
  8
0
 10
77.000000
 20
-42.399963
 11
77.000000
 21
-187.036438
  0
LINE
  8
0
 10
120.000000
 20
-42.399963
 11
120.000000
 21
-189.265686
  0
LINE
  8
0
 10
206.000000
 20
-101.037659
 11
206.000000
 21
-187.482269
  0
LINE
  8
0
 10
55.500000
 20
-92.399963
 11
67.500000
 21
-92.399963
  0
LINE
  8
0
 10
86.500000
 20
-65.399963
 11
98.500000
 21
-65.399963
  0
LINE
  8
0
 10
61.500000
 20
-86.399963
 11
61.500000
 21
-98.399963
  0
LINE
  8
0
 10
92.500000
 20
-59.399963
 11
92.500000
 21
-71.399963
  0
LINE
  8
0
 10
56.000000
 20
-137.999969
 11
56.000000
 21
-147.999969
  0
LINE
  8
0
 10
51.000000
 20
-142.999969
 11
61.000000
 21
-142.999969
  0
LINE
  8
0
 10
264.000000
 20
-164.702148
 11
264.000000
 21
-182.907990
  0
LINE
  8
0
 10
20.000002
 20
-165.476868
 11
20.000002
 21
-184.070068
  0
LINE
  8
0
 10
185.000000
 20
-102.399963
 11
185.000000
 21
-108.999969
  0
LINE
  8
0
 10
227.000000
 20
-102.399963
 11
227.000000
 21
-108.999969
  0
LINE
  8
0
 10
185.000000
 20
-102.399963
 11
227.000000
 21
-102.399963
  0
LINE
  8
0
 10
185.250000
 20
-98.399963
 11
192.250000
 21
-98.399963
  0
LINE
  8
0
 10
188.750000
 20
-97.637421
 11
188.750000
 21
-104.005157
  0
LINE
  8
0
 10
192.250000
 20
-98.399963
 11
192.250000
 21
-102.399963
  0
LINE
  8
0
 10
185.250000
 20
-98.399963
 11
185.250000
 21
-102.399963
  0
LINE
  8
0
 10
50.700653
 20
-106.163696
 11
50.700653
 21
-107.802521
  0
LINE
  8
0
 10
50.700653
 20
-107.802521
 11
51.299377
 21
-107.802521
  0
LINE
  8
0
 10
51.299377
 20
-106.163696
 11
51.299377
 21
-107.802521
  0
LINE
  8
0
 10
46.285034
 20
-108.550934
 11
55.714966
 21
-108.550934
  0
LINE
  8
0
 10
55.714966
 20
-108.550934
 11
55.714966
 21
-108.999969
  0
LINE
  8
0
 10
46.285034
 20
-108.550934
 11
46.285034
 21
-108.999969
  0
LINE
  8
0
 10
51.000000
 20
-103.935425
 11
51.000000
 21
-112.008698
  0
LINE
  8
0
 10
232.700653
 20
-106.163696
 11
232.700653
 21
-107.802521
  0
LINE
  8
0
 10
232.700653
 20
-107.802521
 11
233.299377
 21
-107.802521
  0
LINE
  8
0
 10
233.299377
 20
-106.163696
 11
233.299377
 21
-107.802521
  0
LINE
  8
0
 10
228.285034
 20
-108.550934
 11
237.714966
 21
-108.550934
  0
LINE
  8
0
 10
237.714966
 20
-108.550934
 11
237.714966
 21
-108.999969
  0
LINE
  8
0
 10
228.285034
 20
-108.550934
 11
228.285034
 21
-108.999969
  0
LINE
  8
0
 10
233.000000
 20
-103.935425
 11
233.000000
 21
-112.008698
  0
LINE
  8
0
 10
272.778320
 20
-138.499969
 11
251.022949
 21
-138.499969
  0
LINE
  8
0
 10
259.000000
 20
-117.499969
 11
259.000000
 21
-159.499969
  0
LINE
  8
0
 10
265.000000
 20
-120.499969
 11
265.000000
 21
-156.499969
  0
LINE
  8
0
 10
262.000000
 20
-159.499969
 11
259.000000
 21
-159.499969
  0
LINE
  8
0
 10
262.000000
 20
-117.499969
 11
259.000000
 21
-117.499969
  0
LINE
  8
0
 10
257.500000
 20
-160.999969
 11
256.000000
 21
-160.999969
  0
LINE
  8
0
 10
257.500000
 20
-115.999969
 11
256.000000
 21
-115.999969
  0
LINE
  8
0
 10
265.000000
 20
-121.686340
 11
259.000000
 21
-121.686340
  0
LINE
  8
0
 10
265.000000
 20
-125.999969
 11
259.000000
 21
-125.999969
  0
LINE
  8
0
 10
265.000000
 20
-135.507629
 11
259.000000
 21
-135.507629
  0
LINE
  8
0
 10
265.000000
 20
-155.313599
 11
259.000000
 21
-155.313599
  0
LINE
  8
0
 10
265.000000
 20
-150.999969
 11
259.000000
 21
-150.999969
  0
LINE
  8
0
 10
265.000000
 20
-141.492310
 11
259.000000
 21
-141.492310
  0
LINE
  8
0
 10
163.000000
 20
-42.399963
 11
163.000000
 21
-189.265686
  0
LINE
  8
0
 10
236.000000
 20
-135.499969
 11
236.000000
 21
-150.499969
  0
ARC
  8
0
 10
96.500000
 20
-48.899963
 40
1.500000
 50
0.000000
 51
90.000000
  0
ARC
  8
0
 10
57.500000
 20
-48.899963
 40
1.500000
 50
90.000000
 51
180.000000
  0
ARC
  8
0
 10
50.000000
 20
-161.699951
 40
1.000000
 50
270.000000
 51
0.000000
  0
ARC
  8
0
 10
35.000000
 20
-161.699951
 40
1.000000
 50
180.000000
 51
270.000000
  0
ARC
  8
0
 10
31.000002
 20
-111.999969
 40
3.000000
 50
89.999962
 51
180.000000
  0
ARC
  8
0
 10
27.000002
 20
-166.999969
 40
1.000000
 50
270.000000
 51
0.000000
  0
ARC
  8
0
 10
15.000002
 20
-168.999969
 40
1.000000
 50
90.000000
 51
180.000000
  0
ARC
  8
0
 10
50.000000
 20
-122.299957
 40
1.000000
 50
0.000000
 51
90.000000
  0
ARC
  8
0
 10
35.000000
 20
-122.299957
 40
1.000000
 50
90.000000
 51
180.000000
  0
ARC
  8
0
 10
35.000000
 20
-125.699951
 40
1.000000
 50
180.000000
 51
270.000000
  0
ARC
  8
0
 10
50.000000
 20
-125.699951
 40
1.000000
 50
270.000000
 51
0.000000
  0
ARC
  8
0
 10
50.000000
 20
-158.299957
 40
1.000000
 50
0.000000
 51
90.000000
  0
ARC
  8
0
 10
35.000000
 20
-158.299957
 40
1.000000
 50
90.000000
 51
180.000000
  0
ARC
  8
0
 10
253.000000
 20
-111.999969
 40
3.000000
 50
0.000000
 51
90.000000
  0
ARC
  8
0
 10
257.000000
 20
-166.999969
 40
1.000000
 50
180.000000
 51
270.000000
  0
ARC
  8
0
 10
269.000000
 20
-168.999969
 40
1.000000
 50
0.000000
 51
90.000000
  0
CIRCLE
  8
0
 10
92.500000
 20
-65.399963
 40
3.500000
  0
CIRCLE
  8
0
 10
56.000000
 20
-142.999969
 40
3.500000
  0
CIRCLE
  8
0
 10
61.500000
 20
-92.399963
 40
3.500000
  0
CIRCLE
  8
0
 10
61.500000
 20
-92.399963
 40
4.000000
  0
CIRCLE
  8
0
 10
92.500000
 20
-65.399963
 40
4.000000
  0
ARC
  8
0
 10
51.000000
 20
-111.994751
 40
5.838734
 50
36.144608
 51
143.855347
  0
ARC
  8
0
 10
233.000000
 20
-111.994751
 40
5.838727
 50
36.144650
 51
143.855347
  0
ARC
  8
0
 10
257.500000
 20
-159.499969
 40
1.500000
 50
270.000000
 51
0.000000
  0
ARC
  8
0
 10
257.500000
 20
-117.499969
 40
1.500000
 50
0.000000
 51
90.000000
  0
ARC
  8
0
 10
262.000000
 20
-156.499969
 40
3.000000
 50
270.000000
 51
0.000000
  0
ARC
  8
0
 10
262.000000
 20
-120.499969
 40
3.000000
 50
0.000000
 51
90.000000
  0
TEXT
  8
0
 10
36.559406
 20
-124.777512
 40
2.000000
  1
A
 50
0.000000
 41
1.052632
 51
0.000000
  7
STANDARD
  0
TEXT
  8
0
 10
36.867756
 20
-160.700638
 40
2.000000
  1
B
 50
0.000000
 41
1.052632
 51
0.000000
  7
STANDARD
  0
POINT
  8
0
 10
99.000000
 20
-108.999969
  0
LINE
  8
0
 10
100.500000
 20
-47.399963
 11
139.500000
 21
-47.399963
  0
LINE
  8
0
 10
104.000000
 20
-102.399963
 11
136.000000
 21
-102.399963
  0
LINE
  8
0
 10
104.000000
 20
-57.399963
 11
136.000000
 21
-57.399963
  0
LINE
  8
0
 10
104.000000
 20
-87.399963
 11
136.000000
 21
-87.399963
  0
LINE
  8
0
 10
136.000000
 20
-48.899963
 11
136.000000
 21
-102.399963
  0
LINE
  8
0
 10
104.000000
 20
-48.899963
 11
104.000000
 21
-102.399963
  0
LINE
  8
0
 10
104.000000
 20
-95.899963
 11
107.500000
 21
-95.899963
  0
LINE
  8
0
 10
110.500000
 20
-98.899963
 11
110.500000
 21
-102.399963
  0
LINE
  8
0
 10
128.000000
 20
-98.899963
 11
137.000000
 21
-98.899963
  0
LINE
  8
0
 10
136.000000
 20
-95.899963
 11
132.500000
 21
-95.899963
  0
LINE
  8
0
 10
129.500000
 20
-98.899963
 11
129.500000
 21
-102.399963
  0
LINE
  8
0
 10
104.000000
 20
-58.799957
 11
136.000000
 21
-58.799957
  0
LINE
  8
0
 10
104.000000
 20
-60.799957
 11
136.000000
 21
-60.799957
  0
LINE
  8
0
 10
104.000000
 20
-62.399963
 11
120.000000
 21
-62.399963
  0
LINE
  8
0
 10
104.000000
 20
-64.399963
 11
120.000000
 21
-64.399963
  0
LINE
  8
0
 10
104.000000
 20
-65.999969
 11
136.000000
 21
-65.999969
  0
LINE
  8
0
 10
104.000000
 20
-67.999969
 11
136.000000
 21
-67.999969
  0
LINE
  8
0
 10
104.000000
 20
-69.599945
 11
136.000000
 21
-69.599945
  0
LINE
  8
0
 10
104.000000
 20
-71.599945
 11
136.000000
 21
-71.599945
  0
LINE
  8
0
 10
104.000000
 20
-73.199951
 11
136.000000
 21
-73.199951
  0
LINE
  8
0
 10
104.000000
 20
-75.199951
 11
136.000000
 21
-75.199951
  0
LINE
  8
0
 10
104.000000
 20
-76.799957
 11
136.000000
 21
-76.799957
  0
LINE
  8
0
 10
104.000000
 20
-78.799957
 11
136.000000
 21
-78.799957
  0
LINE
  8
0
 10
104.000000
 20
-80.399963
 11
136.000000
 21
-80.399963
  0
LINE
  8
0
 10
104.000000
 20
-82.399963
 11
136.000000
 21
-82.399963
  0
LINE
  8
0
 10
104.000000
 20
-83.999939
 11
136.000000
 21
-83.999939
  0
LINE
  8
0
 10
104.000000
 20
-85.999939
 11
136.000000
 21
-85.999939
  0
LINE
  8
0
 10
136.000000
 20
-62.399963
 11
136.000000
 21
-64.399963
  0
LINE
  8
0
 10
133.000000
 20
-62.399963
 11
133.000000
 21
-64.399963
  0
LINE
  8
0
 10
133.000000
 20
-62.399963
 11
136.000000
 21
-62.399963
  0
LINE
  8
0
 10
133.000000
 20
-64.399963
 11
136.000000
 21
-64.399963
  0
LINE
  8
0
 10
120.000000
 20
-62.399963
 11
120.000000
 21
-64.399963
  0
LINE
  8
0
 10
99.000000
 20
-107.399963
 11
141.000000
 21
-107.399963
  0
LINE
  8
0
 10
99.000000
 20
-48.899963
 11
99.000000
 21
-108.999969
  0
LINE
  8
0
 10
141.000000
 20
-48.899963
 11
141.000000
 21
-108.999969
  0
LINE
  8
0
 10
102.768196
 20
-92.399582
 11
103.634224
 21
-93.899590
  0
LINE
  8
0
 10
103.633972
 20
-93.899963
 11
104.000000
 21
-93.899963
  0
LINE
  8
0
 10
103.633972
 20
-90.899963
 11
104.000000
 21
-90.899963
  0
LINE
  8
0
 10
102.768021
 20
-92.399872
 11
103.634033
 21
-90.899887
  0
LINE
  8
0
 10
132.700012
 20
-97.199951
 11
132.700012
 21
-98.699951
  0
LINE
  8
0
 10
132.300018
 20
-97.199951
 11
132.300018
 21
-98.699951
  0
LINE
  8
0
 10
130.800018
 20
-99.099945
 11
132.300018
 21
-99.099945
  0
LINE
  8
0
 10
130.800018
 20
-98.699951
 11
132.300018
 21
-98.699951
  0
LINE
  8
0
 10
134.200012
 20
-98.699951
 11
134.200012
 21
-99.099945
  0
LINE
  8
0
 10
130.800018
 20
-98.699951
 11
130.800018
 21
-99.099945
  0
LINE
  8
0
 10
132.300018
 20
-97.199951
 11
132.700012
 21
-97.199951
  0
LINE
  8
0
 10
132.300018
 20
-100.599945
 11
132.700012
 21
-100.599945
  0
LINE
  8
0
 10
132.700012
 20
-99.099945
 11
134.200012
 21
-99.099945
  0
LINE
  8
0
 10
132.700012
 20
-98.699951
 11
134.200012
 21
-98.699951
  0
LINE
  8
0
 10
132.300018
 20
-99.099945
 11
132.300018
 21
-100.599945
  0
LINE
  8
0
 10
132.700012
 20
-99.099945
 11
132.700012
 21
-100.599945
  0
LINE
  8
0
 10
107.700012
 20
-99.099945
 11
107.700012
 21
-100.599945
  0
LINE
  8
0
 10
107.300018
 20
-99.099945
 11
107.300018
 21
-100.599945
  0
LINE
  8
0
 10
107.700012
 20
-97.199951
 11
107.700012
 21
-98.699951
  0
LINE
  8
0
 10
107.300018
 20
-97.199951
 11
107.300018
 21
-98.699951
  0
LINE
  8
0
 10
105.800018
 20
-99.099945
 11
107.300018
 21
-99.099945
  0
LINE
  8
0
 10
105.800018
 20
-98.699951
 11
107.300018
 21
-98.699951
  0
LINE
  8
0
 10
109.200012
 20
-98.699951
 11
109.200012
 21
-99.099945
  0
LINE
  8
0
 10
105.800018
 20
-98.699951
 11
105.800018
 21
-99.099945
  0
LINE
  8
0
 10
107.300018
 20
-97.199951
 11
107.700012
 21
-97.199951
  0
LINE
  8
0
 10
107.300018
 20
-100.599945
 11
107.700012
 21
-100.599945
  0
LINE
  8
0
 10
107.700012
 20
-99.099945
 11
109.200012
 21
-99.099945
  0
LINE
  8
0
 10
107.700012
 20
-98.699951
 11
109.200012
 21
-98.699951
  0
LINE
  8
0
 10
136.000000
 20
-63.899963
 11
136.366028
 21
-63.899963
  0
LINE
  8
0
 10
137.232391
 20
-65.399734
 11
136.366379
 21
-63.899757
  0
LINE
  8
0
 10
136.365906
 20
-66.899979
 11
137.231934
 21
-65.399979
  0
LINE
  8
0
 10
116.000000
 20
-91.499969
 11
124.000000
 21
-91.499969
  0
LINE
  8
0
 10
99.565765
 20
-92.399597
 11
104.000000
 21
-92.399597
  0
LINE
  8
0
 10
135.500000
 20
-65.399994
 11
140.304840
 21
-65.399994
  0
LINE
  8
0
 10
132.500031
 20
-95.234863
 11
132.500031
 21
-102.671478
  0
LINE
  8
0
 10
107.499969
 20
-95.234863
 11
107.499969
 21
-102.671478
  0
LINE
  8
0
 10
112.000000
 20
-98.899963
 11
103.000000
 21
-98.899963
  0
ARC
  8
0
 10
134.500000
 20
-48.899963
 40
1.500000
 50
0.000000
 51
90.000000
  0
ARC
  8
0
 10
105.500000
 20
-48.899963
 40
1.500000
 50
90.000000
 51
180.000000
  0
CIRCLE
  8
0
 10
107.500000
 20
-98.899963
 40
2.500000
  0
ARC
  8
0
 10
107.500000
 20
-98.899963
 40
3.000000
 50
0.000000
 51
90.000000
  0
CIRCLE
  8
0
 10
120.000000
 20
-91.499969
 40
2.150000
  0
CIRCLE
  8
0
 10
120.000000
 20
-91.499969
 40
1.500000
  0
CIRCLE
  8
0
 10
132.500000
 20
-98.899963
 40
2.500000
  0
ARC
  8
0
 10
132.500000
 20
-98.899963
 40
3.000000
 50
90.000000
 51
180.000000
  0
ARC
  8
0
 10
139.500000
 20
-48.899963
 40
1.500000
 50
0.000000
 51
90.000000
  0
ARC
  8
0
 10
100.500000
 20
-48.899963
 40
1.500000
 50
90.000000
 51
180.000000
  0
ARC
  8
0
 10
104.500000
 20
-92.399963
 40
3.500002
 50
98.213203
 51
261.786804
  0
ARC
  8
0
 10
135.500000
 20
-65.399963
 40
3.500000
 50
270.000000
 51
90.000000
  0
ARC
  8
0
 10
104.500000
 20
-92.399963
 40
4.000001
 50
97.180756
 51
262.819122
  0
ARC
  8
0
 10
135.500000
 20
-65.399963
 40
4.000000
 50
0.000000
 51
90.000000
  0
ARC
  8
0
 10
135.500000
 20
-65.399963
 40
4.000000
 50
270.000000
 51
0.000000
  0
TEXT
  8
0
 10
123.725090
 20
-63.479965
 40
1.200000
  1
AC200V
 50
0.000000
 41
0.844285
 51
0.000000
  7
STANDARD
  0
POINT
  8
0
 10
142.000000
 20
-108.999969
  0
LINE
  8
0
 10
143.500000
 20
-47.399963
 11
182.500000
 21
-47.399963
  0
LINE
  8
0
 10
147.000000
 20
-102.399963
 11
179.000000
 21
-102.399963
  0
LINE
  8
0
 10
147.000000
 20
-57.399963
 11
179.000000
 21
-57.399963
  0
LINE
  8
0
 10
147.000000
 20
-87.399963
 11
179.000000
 21
-87.399963
  0
LINE
  8
0
 10
179.000000
 20
-48.899963
 11
179.000000
 21
-102.399963
  0
LINE
  8
0
 10
147.000000
 20
-48.899963
 11
147.000000
 21
-102.399963
  0
LINE
  8
0
 10
147.000000
 20
-95.899963
 11
150.500000
 21
-95.899963
  0
LINE
  8
0
 10
153.500000
 20
-98.899963
 11
153.500000
 21
-102.399963
  0
LINE
  8
0
 10
171.000000
 20
-98.899963
 11
180.000000
 21
-98.899963
  0
LINE
  8
0
 10
179.000000
 20
-95.899963
 11
175.500000
 21
-95.899963
  0
LINE
  8
0
 10
172.500000
 20
-98.899963
 11
172.500000
 21
-102.399963
  0
LINE
  8
0
 10
147.000000
 20
-58.799957
 11
179.000000
 21
-58.799957
  0
LINE
  8
0
 10
147.000000
 20
-60.799957
 11
179.000000
 21
-60.799957
  0
LINE
  8
0
 10
147.000000
 20
-62.399963
 11
163.000000
 21
-62.399963
  0
LINE
  8
0
 10
147.000000
 20
-64.399963
 11
163.000000
 21
-64.399963
  0
LINE
  8
0
 10
147.000000
 20
-65.999969
 11
179.000000
 21
-65.999969
  0
LINE
  8
0
 10
147.000000
 20
-67.999969
 11
179.000000
 21
-67.999969
  0
LINE
  8
0
 10
147.000000
 20
-69.599945
 11
179.000000
 21
-69.599945
  0
LINE
  8
0
 10
147.000000
 20
-71.599945
 11
179.000000
 21
-71.599945
  0
LINE
  8
0
 10
147.000000
 20
-73.199951
 11
179.000000
 21
-73.199951
  0
LINE
  8
0
 10
147.000000
 20
-75.199951
 11
179.000000
 21
-75.199951
  0
LINE
  8
0
 10
147.000000
 20
-76.799957
 11
179.000000
 21
-76.799957
  0
LINE
  8
0
 10
147.000000
 20
-78.799957
 11
179.000000
 21
-78.799957
  0
LINE
  8
0
 10
147.000000
 20
-80.399963
 11
179.000000
 21
-80.399963
  0
LINE
  8
0
 10
147.000000
 20
-82.399963
 11
179.000000
 21
-82.399963
  0
LINE
  8
0
 10
147.000000
 20
-83.999939
 11
179.000000
 21
-83.999939
  0
LINE
  8
0
 10
147.000000
 20
-85.999939
 11
179.000000
 21
-85.999939
  0
LINE
  8
0
 10
179.000000
 20
-62.399963
 11
179.000000
 21
-64.399963
  0
LINE
  8
0
 10
176.000000
 20
-62.399963
 11
176.000000
 21
-64.399963
  0
LINE
  8
0
 10
176.000000
 20
-62.399963
 11
179.000000
 21
-62.399963
  0
LINE
  8
0
 10
176.000000
 20
-64.399963
 11
179.000000
 21
-64.399963
  0
LINE
  8
0
 10
163.000000
 20
-62.399963
 11
163.000000
 21
-64.399963
  0
LINE
  8
0
 10
142.000000
 20
-107.399963
 11
184.000000
 21
-107.399963
  0
LINE
  8
0
 10
142.000000
 20
-48.899963
 11
142.000000
 21
-108.999969
  0
LINE
  8
0
 10
184.000000
 20
-48.899963
 11
184.000000
 21
-108.999969
  0
LINE
  8
0
 10
145.768204
 20
-92.399582
 11
146.634232
 21
-93.899590
  0
LINE
  8
0
 10
146.633972
 20
-93.899963
 11
147.000000
 21
-93.899963
  0
LINE
  8
0
 10
146.633972
 20
-90.899963
 11
147.000000
 21
-90.899963
  0
LINE
  8
0
 10
145.768021
 20
-92.399872
 11
146.634033
 21
-90.899887
  0
LINE
  8
0
 10
175.700012
 20
-97.199951
 11
175.700012
 21
-98.699951
  0
LINE
  8
0
 10
175.300018
 20
-97.199951
 11
175.300018
 21
-98.699951
  0
LINE
  8
0
 10
173.800018
 20
-99.099945
 11
175.300018
 21
-99.099945
  0
LINE
  8
0
 10
173.800018
 20
-98.699951
 11
175.300018
 21
-98.699951
  0
LINE
  8
0
 10
177.200012
 20
-98.699951
 11
177.200012
 21
-99.099945
  0
LINE
  8
0
 10
173.800018
 20
-98.699951
 11
173.800018
 21
-99.099945
  0
LINE
  8
0
 10
175.300018
 20
-97.199951
 11
175.700012
 21
-97.199951
  0
LINE
  8
0
 10
175.300018
 20
-100.599945
 11
175.700012
 21
-100.599945
  0
LINE
  8
0
 10
175.700012
 20
-99.099945
 11
177.200012
 21
-99.099945
  0
LINE
  8
0
 10
175.700012
 20
-98.699951
 11
177.200012
 21
-98.699951
  0
LINE
  8
0
 10
175.300018
 20
-99.099945
 11
175.300018
 21
-100.599945
  0
LINE
  8
0
 10
175.700012
 20
-99.099945
 11
175.700012
 21
-100.599945
  0
LINE
  8
0
 10
150.700012
 20
-99.099945
 11
150.700012
 21
-100.599945
  0
LINE
  8
0
 10
150.300018
 20
-99.099945
 11
150.300018
 21
-100.599945
  0
LINE
  8
0
 10
150.700012
 20
-97.199951
 11
150.700012
 21
-98.699951
  0
LINE
  8
0
 10
150.300018
 20
-97.199951
 11
150.300018
 21
-98.699951
  0
LINE
  8
0
 10
148.800018
 20
-99.099945
 11
150.300018
 21
-99.099945
  0
LINE
  8
0
 10
148.800018
 20
-98.699951
 11
150.300018
 21
-98.699951
  0
LINE
  8
0
 10
152.200012
 20
-98.699951
 11
152.200012
 21
-99.099945
  0
LINE
  8
0
 10
148.800018
 20
-98.699951
 11
148.800018
 21
-99.099945
  0
LINE
  8
0
 10
150.300018
 20
-97.199951
 11
150.700012
 21
-97.199951
  0
LINE
  8
0
 10
150.300018
 20
-100.599945
 11
150.700012
 21
-100.599945
  0
LINE
  8
0
 10
150.700012
 20
-99.099945
 11
152.200012
 21
-99.099945
  0
LINE
  8
0
 10
150.700012
 20
-98.699951
 11
152.200012
 21
-98.699951
  0
LINE
  8
0
 10
179.000000
 20
-63.899963
 11
179.366028
 21
-63.899963
  0
LINE
  8
0
 10
180.232391
 20
-65.399734
 11
179.366379
 21
-63.899757
  0
LINE
  8
0
 10
179.365906
 20
-66.899979
 11
180.231934
 21
-65.399979
  0
LINE
  8
0
 10
159.000000
 20
-91.499969
 11
167.000000
 21
-91.499969
  0
LINE
  8
0
 10
142.565765
 20
-92.399597
 11
147.000000
 21
-92.399597
  0
LINE
  8
0
 10
178.500000
 20
-65.399994
 11
183.304840
 21
-65.399994
  0
LINE
  8
0
 10
175.500031
 20
-95.234863
 11
175.500031
 21
-102.671478
  0
LINE
  8
0
 10
150.499969
 20
-95.234863
 11
150.499969
 21
-102.671478
  0
LINE
  8
0
 10
155.000000
 20
-98.899963
 11
146.000000
 21
-98.899963
  0
ARC
  8
0
 10
177.500000
 20
-48.899963
 40
1.500000
 50
0.000000
 51
90.000000
  0
ARC
  8
0
 10
148.500000
 20
-48.899963
 40
1.500000
 50
90.000000
 51
180.000000
  0
CIRCLE
  8
0
 10
150.500000
 20
-98.899963
 40
2.500000
  0
ARC
  8
0
 10
150.500000
 20
-98.899963
 40
3.000000
 50
0.000000
 51
90.000000
  0
CIRCLE
  8
0
 10
163.000000
 20
-91.499969
 40
2.150000
  0
CIRCLE
  8
0
 10
163.000000
 20
-91.499969
 40
1.500000
  0
CIRCLE
  8
0
 10
175.500000
 20
-98.899963
 40
2.500000
  0
ARC
  8
0
 10
175.500000
 20
-98.899963
 40
3.000000
 50
90.000000
 51
180.000000
  0
ARC
  8
0
 10
182.500000
 20
-48.899963
 40
1.500000
 50
0.000000
 51
90.000000
  0
ARC
  8
0
 10
143.500000
 20
-48.899963
 40
1.500000
 50
90.000000
 51
180.000000
  0
ARC
  8
0
 10
147.500000
 20
-92.399963
 40
3.500002
 50
98.213203
 51
261.786804
  0
ARC
  8
0
 10
178.500000
 20
-65.399963
 40
3.500000
 50
270.000000
 51
90.000000
  0
ARC
  8
0
 10
147.500000
 20
-92.399963
 40
4.000001
 50
97.180756
 51
262.819244
  0
ARC
  8
0
 10
178.500000
 20
-65.399963
 40
4.000000
 50
0.000000
 51
90.000000
  0
ARC
  8
0
 10
178.500000
 20
-65.399963
 40
4.000000
 50
270.000000
 51
0.000000
  0
TEXT
  8
0
 10
166.725098
 20
-63.479965
 40
1.200000
  1
AC200V
 50
0.000000
 41
0.844285
 51
0.000000
  7
STANDARD
  0
POINT
  8
0
 10
56.000000
 20
-142.999969
  0
LINE
  8
0
 10
99.000000
 20
-177.999969
 11
56.000000
 21
-177.999969
  0
LINE
  8
0
 10
99.000000
 20
-108.999969
 11
99.000000
 21
-135.749969
  0
LINE
  8
0
 10
91.000000
 20
-150.499969
 11
91.000000
 21
-135.499969
  0
LINE
  8
0
 10
85.000000
 20
-117.291748
 11
85.000000
 21
-130.708160
  0
LINE
  8
0
 10
91.000000
 20
-135.499969
 11
107.000000
 21
-135.499969
  0
LINE
  8
0
 10
91.000000
 20
-150.499969
 11
107.000000
 21
-150.499969
  0
LINE
  8
0
 10
97.499985
 20
-143.865814
 11
98.999992
 21
-144.731842
  0
LINE
  8
0
 10
97.500031
 20
-142.133942
 11
97.500031
 21
-143.865997
  0
LINE
  8
0
 10
98.999863
 20
-141.267609
 11
97.499863
 21
-142.133636
  0
LINE
  8
0
 10
99.000229
 20
-141.267212
 11
100.500206
 21
-142.133209
  0
LINE
  8
0
 10
100.500031
 20
-142.133942
 11
100.500031
 21
-143.865997
  0
LINE
  8
0
 10
98.999893
 20
-144.731964
 11
100.499863
 21
-143.865952
  0
LINE
  8
0
 10
99.000000
 20
-150.249969
 11
99.000000
 21
-177.999969
  0
LINE
  8
0
 10
91.000000
 20
-138.499969
 11
107.000000
 21
-138.499969
  0
LINE
  8
0
 10
91.000000
 20
-147.499969
 11
107.000000
 21
-147.499969
  0
LINE
  8
0
 10
72.000000
 20
-146.999969
 11
72.000000
 21
-172.999969
  0
LINE
  8
0
 10
85.000000
 20
-110.999969
 11
85.000000
 21
-136.999969
  0
LINE
  8
0
 10
72.000000
 20
-123.999969
 11
98.000000
 21
-123.999969
  0
LINE
  8
0
 10
59.000031
 20
-159.999969
 11
85.000000
 21
-159.999969
  0
LINE
  8
0
 10
99.000000
 20
-137.999969
 11
99.000000
 21
-147.999969
  0
LINE
  8
0
 10
94.000000
 20
-142.999969
 11
104.000000
 21
-142.999969
  0
LINE
  8
0
 10
64.000000
 20
-135.499969
 11
64.000000
 21
-150.499969
  0
CIRCLE
  8
0
 10
99.000000
 20
-142.999969
 40
3.500000
  0
CIRCLE
  8
0
 10
85.000000
 20
-123.999969
 40
10.477499
  0
CIRCLE
  8
0
 10
85.000000
 20
-123.999969
 40
9.315500
  0
CIRCLE
  8
0
 10
72.000000
 20
-159.999969
 40
10.477499
  0
CIRCLE
  8
0
 10
72.000000
 20
-159.999969
 40
9.315500
  0
POINT
  8
0
 10
99.000000
 20
-142.999969
  0
LINE
  8
0
 10
142.000000
 20
-177.999969
 11
99.000000
 21
-177.999969
  0
LINE
  8
0
 10
142.000000
 20
-108.999969
 11
142.000000
 21
-135.749969
  0
LINE
  8
0
 10
134.000000
 20
-150.499969
 11
134.000000
 21
-135.499969
  0
LINE
  8
0
 10
128.000000
 20
-117.291748
 11
128.000000
 21
-130.708160
  0
LINE
  8
0
 10
134.000000
 20
-135.499969
 11
150.000000
 21
-135.499969
  0
LINE
  8
0
 10
134.000000
 20
-150.499969
 11
150.000000
 21
-150.499969
  0
LINE
  8
0
 10
140.499985
 20
-143.865814
 11
142.000000
 21
-144.731842
  0
LINE
  8
0
 10
140.500031
 20
-142.133942
 11
140.500031
 21
-143.865997
  0
LINE
  8
0
 10
141.999863
 20
-141.267609
 11
140.499863
 21
-142.133636
  0
LINE
  8
0
 10
142.000229
 20
-141.267212
 11
143.500214
 21
-142.133209
  0
LINE
  8
0
 10
143.500031
 20
-142.133942
 11
143.500031
 21
-143.865997
  0
LINE
  8
0
 10
141.999893
 20
-144.731964
 11
143.499863
 21
-143.865952
  0
LINE
  8
0
 10
142.000000
 20
-150.249969
 11
142.000000
 21
-177.999969
  0
LINE
  8
0
 10
134.000000
 20
-138.499969
 11
150.000000
 21
-138.499969
  0
LINE
  8
0
 10
134.000000
 20
-147.499969
 11
150.000000
 21
-147.499969
  0
LINE
  8
0
 10
115.000000
 20
-146.999969
 11
115.000000
 21
-172.999969
  0
LINE
  8
0
 10
128.000000
 20
-110.999969
 11
128.000000
 21
-136.999969
  0
LINE
  8
0
 10
115.000000
 20
-123.999969
 11
141.000000
 21
-123.999969
  0
LINE
  8
0
 10
102.000031
 20
-159.999969
 11
128.000000
 21
-159.999969
  0
LINE
  8
0
 10
142.000000
 20
-137.999969
 11
142.000000
 21
-147.999969
  0
LINE
  8
0
 10
137.000000
 20
-142.999969
 11
147.000000
 21
-142.999969
  0
LINE
  8
0
 10
107.000000
 20
-135.499969
 11
107.000000
 21
-150.499969
  0
CIRCLE
  8
0
 10
142.000000
 20
-142.999969
 40
3.500000
  0
CIRCLE
  8
0
 10
128.000000
 20
-123.999969
 40
10.477499
  0
CIRCLE
  8
0
 10
128.000000
 20
-123.999969
 40
9.315500
  0
CIRCLE
  8
0
 10
115.000000
 20
-159.999969
 40
10.477499
  0
CIRCLE
  8
0
 10
115.000000
 20
-159.999969
 40
9.315500
  0
POINT
  8
0
 10
142.000000
 20
-142.999969
  0
LINE
  8
0
 10
185.000000
 20
-177.999969
 11
142.000000
 21
-177.999969
  0
LINE
  8
0
 10
185.000000
 20
-108.999969
 11
185.000000
 21
-135.749969
  0
LINE
  8
0
 10
177.000000
 20
-150.499969
 11
177.000000
 21
-135.499969
  0
LINE
  8
0
 10
171.000000
 20
-117.291748
 11
171.000000
 21
-130.708160
  0
LINE
  8
0
 10
177.000000
 20
-135.499969
 11
193.000000
 21
-135.499969
  0
LINE
  8
0
 10
177.000000
 20
-150.499969
 11
193.000000
 21
-150.499969
  0
LINE
  8
0
 10
183.499985
 20
-143.865814
 11
185.000000
 21
-144.731842
  0
LINE
  8
0
 10
183.500031
 20
-142.133942
 11
183.500031
 21
-143.865997
  0
LINE
  8
0
 10
184.999863
 20
-141.267609
 11
183.499863
 21
-142.133636
  0
LINE
  8
0
 10
185.000229
 20
-141.267212
 11
186.500214
 21
-142.133209
  0
LINE
  8
0
 10
186.500031
 20
-142.133942
 11
186.500031
 21
-143.865997
  0
LINE
  8
0
 10
184.999893
 20
-144.731964
 11
186.499863
 21
-143.865952
  0
LINE
  8
0
 10
185.000000
 20
-150.249969
 11
185.000000
 21
-177.999969
  0
LINE
  8
0
 10
177.000000
 20
-138.499969
 11
193.000000
 21
-138.499969
  0
LINE
  8
0
 10
177.000000
 20
-147.499969
 11
193.000000
 21
-147.499969
  0
LINE
  8
0
 10
158.000000
 20
-146.999969
 11
158.000000
 21
-172.999969
  0
LINE
  8
0
 10
171.000000
 20
-110.999969
 11
171.000000
 21
-136.999969
  0
LINE
  8
0
 10
158.000000
 20
-123.999969
 11
184.000000
 21
-123.999969
  0
LINE
  8
0
 10
145.000031
 20
-159.999969
 11
171.000000
 21
-159.999969
  0
LINE
  8
0
 10
185.000000
 20
-137.999969
 11
185.000000
 21
-147.999969
  0
LINE
  8
0
 10
180.000000
 20
-142.999969
 11
190.000000
 21
-142.999969
  0
LINE
  8
0
 10
150.000000
 20
-135.499969
 11
150.000000
 21
-150.499969
  0
CIRCLE
  8
0
 10
185.000000
 20
-142.999969
 40
3.500000
  0
CIRCLE
  8
0
 10
171.000000
 20
-123.999969
 40
10.477499
  0
CIRCLE
  8
0
 10
171.000000
 20
-123.999969
 40
9.315500
  0
CIRCLE
  8
0
 10
158.000000
 20
-159.999969
 40
10.477499
  0
CIRCLE
  8
0
 10
158.000000
 20
-159.999969
 40
9.315500
  0
POINT
  8
0
 10
185.000000
 20
-142.999969
  0
LINE
  8
0
 10
228.000000
 20
-177.999969
 11
185.000000
 21
-177.999969
  0
LINE
  8
0
 10
228.000000
 20
-108.999969
 11
228.000000
 21
-135.749969
  0
LINE
  8
0
 10
220.000000
 20
-150.499969
 11
220.000000
 21
-135.499969
  0
LINE
  8
0
 10
214.000000
 20
-117.291748
 11
214.000000
 21
-130.708160
  0
LINE
  8
0
 10
220.000000
 20
-135.499969
 11
236.000000
 21
-135.499969
  0
LINE
  8
0
 10
220.000000
 20
-150.499969
 11
236.000000
 21
-150.499969
  0
LINE
  8
0
 10
226.499985
 20
-143.865814
 11
228.000000
 21
-144.731842
  0
LINE
  8
0
 10
226.500031
 20
-142.133942
 11
226.500031
 21
-143.865997
  0
LINE
  8
0
 10
227.999863
 20
-141.267609
 11
226.499863
 21
-142.133636
  0
LINE
  8
0
 10
228.000229
 20
-141.267212
 11
229.500214
 21
-142.133209
  0
LINE
  8
0
 10
229.500031
 20
-142.133942
 11
229.500031
 21
-143.865997
  0
LINE
  8
0
 10
227.999893
 20
-144.731964
 11
229.499863
 21
-143.865952
  0
LINE
  8
0
 10
228.000000
 20
-150.249969
 11
228.000000
 21
-177.999969
  0
LINE
  8
0
 10
220.000000
 20
-138.499969
 11
236.000000
 21
-138.499969
  0
LINE
  8
0
 10
220.000000
 20
-147.499969
 11
236.000000
 21
-147.499969
  0
LINE
  8
0
 10
201.000000
 20
-146.999969
 11
201.000000
 21
-172.999969
  0
LINE
  8
0
 10
214.000000
 20
-110.999969
 11
214.000000
 21
-136.999969
  0
LINE
  8
0
 10
201.000000
 20
-123.999969
 11
227.000000
 21
-123.999969
  0
LINE
  8
0
 10
188.000031
 20
-159.999969
 11
214.000000
 21
-159.999969
  0
LINE
  8
0
 10
228.000000
 20
-137.999969
 11
228.000000
 21
-147.999969
  0
LINE
  8
0
 10
223.000000
 20
-142.999969
 11
233.000000
 21
-142.999969
  0
LINE
  8
0
 10
193.000000
 20
-135.499969
 11
193.000000
 21
-150.499969
  0
CIRCLE
  8
0
 10
228.000000
 20
-142.999969
 40
3.500000
  0
CIRCLE
  8
0
 10
214.000000
 20
-123.999969
 40
10.477499
  0
CIRCLE
  8
0
 10
214.000000
 20
-123.999969
 40
9.315500
  0
CIRCLE
  8
0
 10
201.000000
 20
-159.999969
 40
10.477499
  0
CIRCLE
  8
0
 10
201.000000
 20
-159.999969
 40
9.315500
  0
POINT
  8
0
 10
-249.999954
 20
39.999996
  0
POINT
  8
0
 10
-117.399948
 20
39.999996
  0
LINE
  8
0
 10
-117.399948
 20
164.000000
 11
-117.399948
 21
17.999996
  0
LINE
  8
0
 10
-172.399948
 20
164.000000
 11
-172.399948
 21
141.500000
  0
LINE
  8
0
 10
-117.399948
 20
111.500000
 11
-145.399948
 21
111.500000
  0
LINE
  8
0
 10
-117.399948
 20
103.500000
 11
-145.399948
 21
103.500000
  0
LINE
  8
0
 10
-145.399948
 20
111.500000
 11
-145.399948
 21
103.500000
  0
LINE
  8
0
 10
-117.399948
 20
141.500000
 11
-177.399948
 21
141.500000
  0
LINE
  8
0
 10
-117.399948
 20
40.499996
 11
-177.399948
 21
40.499996
  0
LINE
  8
0
 10
-127.399948
 20
131.500000
 11
-127.399948
 21
50.499996
  0
LINE
  8
0
 10
-161.499954
 20
18.712841
 11
-161.499954
 21
12.887127
  0
LINE
  8
0
 10
-165.899948
 20
20.499996
 11
-172.399948
 21
20.499996
  0
LINE
  8
0
 10
-167.899948
 20
17.499996
 11
-169.899948
 21
17.499996
  0
LINE
  8
0
 10
-165.899948
 20
20.499996
 11
-165.899948
 21
16.499996
  0
LINE
  8
0
 10
-171.399948
 20
20.499996
 11
-171.399948
 21
18.999996
  0
LINE
  8
0
 10
-166.399948
 20
20.499996
 11
-166.399948
 21
18.999996
  0
LINE
  8
0
 10
-166.399948
 20
19.499996
 11
-171.399948
 21
19.499996
  0
LINE
  8
0
 10
-163.649948
 20
16.499996
 11
-163.649948
 21
15.799984
  0
LINE
  8
0
 10
-159.349960
 20
16.499996
 11
-159.349960
 21
15.799984
  0
LINE
  8
0
 10
-159.349960
 20
15.799984
 11
-163.649948
 21
15.799984
  0
LINE
  8
0
 10
-168.899948
 20
160.420135
 11
-168.899948
 21
166.245850
  0
LINE
  8
0
 10
-165.899948
 20
161.500000
 11
-172.399948
 21
161.500000
  0
LINE
  8
0
 10
-167.899948
 20
164.500000
 11
-169.899948
 21
164.500000
  0
LINE
  8
0
 10
-165.899948
 20
161.500000
 11
-165.899948
 21
165.500000
  0
LINE
  8
0
 10
-171.399948
 20
161.500000
 11
-171.399948
 21
163.000000
  0
LINE
  8
0
 10
-166.399948
 20
161.500000
 11
-166.399948
 21
163.000000
  0
LINE
  8
0
 10
-166.399948
 20
162.500000
 11
-171.399948
 21
162.500000
  0
LINE
  8
0
 10
-118.899948
 20
16.499996
 11
-170.899948
 21
16.499996
  0
LINE
  8
0
 10
-128.799942
 20
16.499996
 11
-128.799942
 21
40.499996
  0
LINE
  8
0
 10
-130.799942
 20
16.499996
 11
-130.799942
 21
40.499996
  0
LINE
  8
0
 10
-132.399948
 20
16.499996
 11
-132.399948
 21
40.499996
  0
LINE
  8
0
 10
-134.399948
 20
16.499996
 11
-134.399948
 21
40.499996
  0
LINE
  8
0
 10
-135.999954
 20
16.499996
 11
-135.999954
 21
40.499996
  0
LINE
  8
0
 10
-137.999954
 20
16.499996
 11
-137.999954
 21
40.499996
  0
LINE
  8
0
 10
-139.599960
 20
16.499996
 11
-139.599960
 21
40.499996
  0
LINE
  8
0
 10
-141.599960
 20
16.499996
 11
-141.599960
 21
40.499996
  0
LINE
  8
0
 10
-143.199936
 20
16.499996
 11
-143.199936
 21
40.499996
  0
LINE
  8
0
 10
-145.199936
 20
16.499996
 11
-145.199936
 21
40.499996
  0
LINE
  8
0
 10
-146.799942
 20
16.499996
 11
-146.799942
 21
40.499996
  0
LINE
  8
0
 10
-148.799942
 20
16.499996
 11
-148.799942
 21
40.499996
  0
LINE
  8
0
 10
-150.399948
 20
16.499996
 11
-150.399948
 21
40.499996
  0
LINE
  8
0
 10
-152.399948
 20
16.499996
 11
-152.399948
 21
40.499996
  0
LINE
  8
0
 10
-153.999954
 20
16.499996
 11
-153.999954
 21
40.499996
  0
LINE
  8
0
 10
-155.999954
 20
16.499996
 11
-155.999954
 21
40.499996
  0
LINE
  8
0
 10
-127.399948
 20
16.499996
 11
-127.399948
 21
40.499996
  0
LINE
  8
0
 10
-157.399948
 20
16.499996
 11
-157.399948
 21
40.499996
  0
LINE
  8
0
 10
-118.899948
 20
165.500000
 11
-170.899948
 21
165.500000
  0
LINE
  8
0
 10
-128.799942
 20
165.500000
 11
-128.799942
 21
141.500000
  0
LINE
  8
0
 10
-130.799942
 20
165.500000
 11
-130.799942
 21
141.500000
  0
LINE
  8
0
 10
-132.399948
 20
165.500000
 11
-132.399948
 21
141.500000
  0
LINE
  8
0
 10
-134.399948
 20
165.500000
 11
-134.399948
 21
141.500000
  0
LINE
  8
0
 10
-135.999954
 20
165.500000
 11
-135.999954
 21
141.500000
  0
LINE
  8
0
 10
-137.999954
 20
165.500000
 11
-137.999954
 21
141.500000
  0
LINE
  8
0
 10
-139.599960
 20
165.500000
 11
-139.599960
 21
141.500000
  0
LINE
  8
0
 10
-141.599960
 20
165.500000
 11
-141.599960
 21
141.500000
  0
LINE
  8
0
 10
-143.199936
 20
165.500000
 11
-143.199936
 21
141.500000
  0
LINE
  8
0
 10
-145.199936
 20
165.500000
 11
-145.199936
 21
141.500000
  0
LINE
  8
0
 10
-146.799942
 20
165.500000
 11
-146.799942
 21
141.500000
  0
LINE
  8
0
 10
-148.799942
 20
165.500000
 11
-148.799942
 21
141.500000
  0
LINE
  8
0
 10
-150.399948
 20
165.500000
 11
-150.399948
 21
141.500000
  0
LINE
  8
0
 10
-152.399948
 20
165.500000
 11
-152.399948
 21
141.500000
  0
LINE
  8
0
 10
-153.999954
 20
165.500000
 11
-153.999954
 21
141.500000
  0
LINE
  8
0
 10
-155.999954
 20
165.500000
 11
-155.999954
 21
141.500000
  0
LINE
  8
0
 10
-127.399948
 20
165.500000
 11
-127.399948
 21
141.500000
  0
LINE
  8
0
 10
-157.399948
 20
165.500000
 11
-157.399948
 21
141.500000
  0
LINE
  8
0
 10
-117.399948
 20
70.500000
 11
-145.399948
 21
70.500000
  0
LINE
  8
0
 10
-117.399948
 20
78.500000
 11
-145.399948
 21
78.500000
  0
LINE
  8
0
 10
-145.399948
 20
70.500000
 11
-145.399948
 21
78.500000
  0
LINE
  8
0
 10
-141.399948
 20
71.000000
 11
-141.399948
 21
78.000000
  0
LINE
  8
0
 10
-140.637405
 20
74.500000
 11
-147.005173
 21
74.500000
  0
LINE
  8
0
 10
-141.399948
 20
78.000000
 11
-145.399948
 21
78.000000
  0
LINE
  8
0
 10
-141.399948
 20
71.000000
 11
-145.399948
 21
71.000000
  0
LINE
  8
0
 10
-117.399948
 20
131.500000
 11
-177.399948
 21
131.500000
  0
LINE
  8
0
 10
-117.399948
 20
50.499996
 11
-177.399948
 21
50.499996
  0
LINE
  8
0
 10
-177.399948
 20
141.500000
 11
-177.399948
 21
40.499996
  0
LINE
  8
0
 10
-172.399948
 20
40.499996
 11
-172.399948
 21
17.999996
  0
LINE
  8
0
 10
-177.999954
 20
131.500000
 11
-177.999954
 21
50.499996
  0
LINE
  8
0
 10
-249.999954
 20
48.999996
 11
-249.999954
 21
30.999996
  0
LINE
  8
0
 10
-181.999954
 20
30.999996
 11
-249.999954
 21
30.999996
  0
LINE
  8
0
 10
-178.999954
 20
183.630890
 11
-178.999954
 21
33.999996
  0
LINE
  8
0
 10
-249.999954
 20
154.000000
 11
-249.999954
 21
136.000000
  0
LINE
  8
0
 10
-249.999832
 20
153.999725
 11
-239.378464
 21
165.121109
  0
LINE
  8
0
 10
-238.499954
 20
183.630890
 11
-238.499954
 21
167.242676
  0
LINE
  8
0
 10
-237.999954
 20
153.000000
 11
-237.999954
 21
137.000000
  0
LINE
  8
0
 10
-238.999954
 20
154.000000
 11
-249.999954
 21
154.000000
  0
LINE
  8
0
 10
-237.999954
 20
47.999996
 11
-237.999954
 21
31.999996
  0
LINE
  8
0
 10
-238.999954
 20
35.499996
 11
-249.999954
 21
35.499996
  0
LINE
  8
0
 10
-238.999954
 20
44.499996
 11
-249.999954
 21
44.499996
  0
LINE
  8
0
 10
-238.999954
 20
48.999996
 11
-249.999954
 21
48.999996
  0
LINE
  8
0
 10
-233.609970
 20
39.999996
 11
-253.152054
 21
39.999996
  0
LINE
  8
0
 10
-238.999954
 20
149.500000
 11
-249.999954
 21
149.500000
  0
LINE
  8
0
 10
-232.514175
 20
145.000000
 11
-252.969406
 21
145.000000
  0
LINE
  8
0
 10
-238.999954
 20
140.500000
 11
-249.999954
 21
140.500000
  0
LINE
  8
0
 10
-238.999954
 20
136.000000
 11
-249.999954
 21
136.000000
  0
LINE
  8
0
 10
-247.999954
 20
135.000000
 11
-247.999954
 21
49.999996
  0
LINE
  8
0
 10
-249.999954
 20
48.999996
 11
-249.999954
 21
30.999996
  0
LINE
  8
0
 10
-177.399948
 20
136.000000
 11
-178.999954
 21
136.000000
  0
LINE
  8
0
 10
-177.399948
 20
45.999996
 11
-178.999954
 21
45.999996
  0
LINE
  8
0
 10
-169.099960
 20
163.500000
 11
-169.099960
 21
164.500000
  0
LINE
  8
0
 10
-168.699966
 20
163.500000
 11
-168.699966
 21
164.500000
  0
LINE
  8
0
 10
-168.699966
 20
163.500000
 11
-169.099960
 21
163.500000
  0
LINE
  8
0
 10
-167.899948
 20
165.500000
 11
-169.899948
 21
165.500000
  0
LINE
  8
0
 10
-168.699966
 20
18.499996
 11
-168.699966
 21
17.499996
  0
LINE
  8
0
 10
-169.099960
 20
18.499996
 11
-169.099960
 21
17.499996
  0
LINE
  8
0
 10
-167.899948
 20
16.499996
 11
-169.899948
 21
16.499996
  0
LINE
  8
0
 10
-168.699966
 20
18.499996
 11
-169.099960
 21
18.499996
  0
LINE
  8
0
 10
-159.349960
 20
166.200012
 11
-163.649948
 21
166.200012
  0
LINE
  8
0
 10
-159.349960
 20
165.500000
 11
-159.349960
 21
166.200012
  0
LINE
  8
0
 10
-163.649948
 20
165.500000
 11
-163.649948
 21
166.200012
  0
LINE
  8
0
 10
-208.499954
 20
199.000000
 11
-208.499954
 21
149.000000
  0
LINE
  8
0
 10
-183.499954
 20
174.000000
 11
-233.499954
 21
174.000000
  0
LINE
  8
0
 10
-199.999954
 20
120.000000
 11
-225.999954
 21
120.000000
  0
LINE
  8
0
 10
-199.999954
 20
61.999996
 11
-225.999954
 21
61.999996
  0
LINE
  8
0
 10
-108.457016
 20
91.000000
 11
-255.160324
 21
91.000000
  0
LINE
  8
0
 10
-222.999954
 20
104.000000
 11
-222.999954
 21
78.000000
  0
LINE
  8
0
 10
-212.999954
 20
134.802124
 11
-212.999954
 21
48.999996
  0
LINE
  8
0
 10
-237.999954
 20
134.500000
 11
-237.999954
 21
118.500000
  0
LINE
  8
0
 10
-229.999954
 20
126.500000
 11
-245.999954
 21
126.500000
  0
LINE
  8
0
 10
-141.399948
 20
111.000000
 11
-141.399948
 21
104.000000
  0
LINE
  8
0
 10
-140.637405
 20
107.500000
 11
-147.005173
 21
107.500000
  0
LINE
  8
0
 10
-141.399948
 20
104.000000
 11
-145.399948
 21
104.000000
  0
LINE
  8
0
 10
-141.399948
 20
111.000000
 11
-145.399948
 21
111.000000
  0
LINE
  8
0
 10
-176.163681
 20
149.299347
 11
-177.802505
 21
149.299347
  0
LINE
  8
0
 10
-177.802505
 20
149.299347
 11
-177.802505
 21
148.700623
  0
LINE
  8
0
 10
-176.163681
 20
148.700623
 11
-177.802505
 21
148.700623
  0
LINE
  8
0
 10
-178.550919
 20
153.714966
 11
-178.550919
 21
144.285034
  0
LINE
  8
0
 10
-178.550919
 20
144.285034
 11
-178.999954
 21
144.285034
  0
LINE
  8
0
 10
-178.550919
 20
153.714966
 11
-178.999954
 21
153.714966
  0
LINE
  8
0
 10
-173.935410
 20
149.000000
 11
-182.008682
 21
149.000000
  0
LINE
  8
0
 10
-168.899948
 20
21.579861
 11
-168.899948
 21
15.754147
  0
LINE
  8
0
 10
-161.499954
 20
163.287140
 11
-161.499954
 21
169.112854
  0
ARC
  8
0
 10
-118.899948
 20
17.999996
 40
1.500000
 50
270.000000
 51
0.000000
  0
ARC
  8
0
 10
-118.899948
 20
164.000031
 40
1.500000
 50
0.000000
 51
90.000000
  0
ARC
  8
0
 10
-170.899918
 20
17.999996
 40
1.500000
 50
180.000000
 51
270.000000
  0
ARC
  8
0
 10
-170.899948
 20
164.000000
 40
1.500000
 50
90.000000
 51
180.000000
  0
ARC
  8
0
 10
-167.899918
 20
18.999996
 40
1.500000
 50
270.000000
 51
0.000000
  0
ARC
  8
0
 10
-169.899918
 20
18.999996
 40
1.500000
 50
180.000000
 51
270.000000
  0
ARC
  8
0
 10
-169.899948
 20
163.000000
 40
1.500000
 50
90.000000
 51
180.000000
  0
ARC
  8
0
 10
-167.899948
 20
163.000000
 40
1.500000
 50
0.000000
 51
90.000000
  0
ARC
  8
0
 10
-238.999954
 20
153.000000
 40
1.000000
 50
0.000000
 51
90.000000
  0
ARC
  8
0
 10
-181.999924
 20
33.999996
 40
3.000000
 50
270.000000
 51
0.000000
  0
CIRCLE
  8
0
 10
-208.499954
 20
174.000000
 40
20.955000
  0
CIRCLE
  8
0
 10
-208.499954
 20
174.000000
 40
19.476000
  0
CIRCLE
  8
0
 10
-237.999954
 20
126.500000
 40
4.278000
  0
CIRCLE
  8
0
 10
-237.999954
 20
126.500000
 40
4.863998
  0
CIRCLE
  8
0
 10
-212.999954
 20
120.000000
 40
9.315500
  0
CIRCLE
  8
0
 10
-212.999954
 20
120.000000
 40
10.477499
  0
CIRCLE
  8
0
 10
-212.999924
 20
61.999996
 40
9.315500
  0
CIRCLE
  8
0
 10
-212.999924
 20
61.999996
 40
10.477499
  0
CIRCLE
  8
0
 10
-222.999954
 20
91.000000
 40
9.315500
  0
CIRCLE
  8
0
 10
-222.999954
 20
91.000000
 40
10.477499
  0
ARC
  8
0
 10
-248.999924
 20
49.999996
 40
1.000000
 50
270.000000
 51
0.000000
  0
ARC
  8
0
 10
-248.999954
 20
135.000000
 40
1.000000
 50
0.000000
 51
90.000000
  0
ARC
  8
0
 10
-241.499954
 20
167.242676
 40
3.000003
 50
315.000000
 51
0.000000
  0
ARC
  8
0
 10
-223.499954
 20
183.630890
 40
15.000002
 50
92.916290
 51
180.000000
  0
ARC
  8
0
 10
-193.999954
 20
183.630890
 40
15.000000
 50
0.000000
 51
87.083710
  0
ARC
  8
0
 10
-208.999924
 20
-101.000031
 40
300.000000
 50
86.809952
 51
92.916252
  0
ARC
  8
0
 10
-238.999924
 20
34.499996
 40
1.000000
 50
0.000000
 51
90.000000
  0
ARC
  8
0
 10
-238.999924
 20
45.499996
 40
1.000000
 50
270.000000
 51
0.000000
  0
ARC
  8
0
 10
-238.999924
 20
31.999996
 40
1.000000
 50
270.000000
 51
0.000000
  0
ARC
  8
0
 10
-238.999924
 20
47.999996
 40
1.000000
 50
0.000000
 51
90.000000
  0
ARC
  8
0
 10
-238.999954
 20
150.500000
 40
1.000000
 50
270.000000
 51
0.000000
  0
ARC
  8
0
 10
-238.999954
 20
139.500000
 40
1.000000
 50
0.000000
 51
90.000000
  0
ARC
  8
0
 10
-238.999954
 20
137.000000
 40
1.000000
 50
270.000000
 51
0.000000
  0
ARC
  8
0
 10
-217.999924
 20
54.999996
 40
1.000000
 50
180.000000
 51
187.667435
  0
ARC
  8
0
 10
-118.899948
 20
41.999996
 40
1.500000
 50
270.000000
 51
0.000000
  0
ARC
  8
0
 10
-181.994736
 20
149.000000
 40
5.838740
 50
306.144562
 51
53.855350
  0
TEXT
  8
0
 10
-198.383102
 20
92.803719
 40
3.199999
  1
P
 50
270.100006
 41
1.052632
 51
0.000000
  7
STANDARD
  0
TEXT
  8
0
 10
-198.385895
 20
123.403717
 40
3.199999
  1
R1
 50
270.100006
 41
1.052632
 51
0.000000
  7
STANDARD
  0
TEXT
  8
0
 10
-198.385864
 20
65.403709
 40
3.199999
  1
R2
 50
270.100006
 41
1.052632
 51
0.000000
  7
STANDARD
  0
TEXT
  8
0
 10
-229.885895
 20
129.903702
 40
3.199999
  1
PR
 50
270.100006
 41
1.052632
 51
0.000000
  7
STANDARD
  0
ENDSEC
  0
EOF
