  0
SECTION
  2
HEADER
  0
ENDSEC
  0
SECTION
  2
TABLES
  0
TABLE
  2
LTYPE
 70
     4
  0
LTYPE
  2
CONTINUOUS
 70
    64
  3
Solid line
 72
    65
 73
     0
 40
0.000000
  0
LTYPE
  2
DASHED
 70
    64
  3
__ __ __ __ __ __ __ __ __ __ __ __ __ __ __
 72
    65
 73
     2
 40
3.500000
 49
2.000000
 49
-1.500000
  0
LTYPE
  2
CENTER
 70
    64
  3
____ _ ____ _ ____ _ ____ _ ____ _ ____ _ ____
 72
    65
 73
     4
 40
17.500000
 49
13.000000
 49
-1.500000
 49
1.500000
 49
-1.500000
  0
LTYPE
  2
PHANTOM
 70
    64
  3
_____ _ _ _____ _ _ _____ _ _ _____ _ _ ____  
 72
    65
 73
     6
 40
15.500000
 49
8.000000
 49
-1.500000
 49
1.500000
 49
-1.500000
 49
1.500000
 49
-1.500000
  0
LTYPE
  2
DASHED1
 70
    64
  3
__ __ __ __ __ __ __ __ __ __ __ __ __ __ __
 72
    65
 73
     2
 40
1.500000
 49
1.000000
 49
-0.500000
  0
LTYPE
  2
DASHED2
 70
    64
  3
__ __ __ __ __ __ __ __ __ __ __ __ __ __ __
 72
    65
 73
     2
 40
3.500000
 49
2.500000
 49
-1.000000
  0
LTYPE
  2
DASHED3
 70
    64
  3
__ __ __ __ __ __ __ __ __ __ __ __ __ __ __
 72
    65
 73
     2
 40
6.000000
 49
4.000000
 49
-2.000000
  0
LTYPE
  2
DASHED4
 70
    64
  3
__ __ __ __ __ __ __ __ __ __ __ __ __ __ __
 72
    65
 73
     2
 40
12.000000
 49
10.000000
 49
-2.000000
  0
LTYPE
  2
DASHED5
 70
    64
  3
__ __ __ __ __ __ __ __ __ __ __ __ __ __ __
 72
    65
 73
     2
 40
17.000000
 49
15.000000
 49
-2.000000
  0
LTYPE
  2
DASHED6
 70
    64
  3
__ __ __ __ __ __ __ __ __ __ __ __ __ __ __
 72
    65
 73
     2
 40
29.000000
 49
27.000000
 49
-2.000000
  0
LTYPE
  2
PHANTOM1
 70
    64
  3
_____ _ _ _____ _ _ _____ _ _ _____ _ _ ____  
 72
    65
 73
     6
 40
31.000000
 49
25.000000
 49
-1.500000
 49
1.000000
 49
-1.000000
 49
1.000000
 49
-1.500000
  0
LTYPE
  2
PHANTOM2
 70
    64
  3
_____ _ _ _____ _ _ _____ _ _ _____ _ _ ____  
 72
    65
 73
     6
 40
36.000000
 49
27.000000
 49
-1.500000
 49
2.500000
 49
-1.000000
 49
2.500000
 49
-1.500000
  0
LTYPE
  2
PHANTOM3
 70
    64
  3
_____ _ _ _____ _ _ _____ _ _ _____ _ _ ____  
 72
    65
 73
     6
 40
78.000000
 49
64.000000
 49
-2.000000
 49
4.000000
 49
-2.000000
 49
4.000000
 49
-2.000000
  0
LTYPE
  2
CENTER1
 70
    64
  3
____ _ ____ _ ____ _ ____ _ ____ _ ____ _ ____
 72
    65
 73
     4
 40
19.000000
 49
14.000000
 49
-1.000000
 49
3.000000
 49
-1.000000
  0
LTYPE
  2
CENTER2
 70
    64
  3
____ _ ____ _ ____ _ ____ _ ____ _ ____ _ ____
 72
    65
 73
     4
 40
28.500000
 49
25.000000
 49
-1.000000
 49
1.500000
 49
-1.000000
  0
LTYPE
  2
CENTER3
 70
    64
  3
____ _ ____ _ ____ _ ____ _ ____ _ ____ _ ____
 72
    65
 73
     4
 40
31.500000
 49
27.000000
 49
-1.000000
 49
2.500000
 49
-1.000000
  0
LTYPE
  2
CENTER4
 70
    64
  3
____ _ ____ _ ____ _ ____ _ ____ _ ____ _ ____
 72
    65
 73
     4
 40
50.000000
 49
45.000000
 49
-1.000000
 49
3.000000
 49
-1.000000
  0
LTYPE
  2
CENTER5
 70
    64
  3
____ _ ____ _ ____ _ ____ _ ____ _ ____ _ ____
 72
    65
 73
     4
 40
100.000000
 49
92.000000
 49
-2.000000
 49
4.000000
 49
-2.000000
  0
LTYPE
  2
SBK1
 70
    64
  3
______ _ _ _ ______ _ _ _ ______ _ _ _ _____  
 72
    65
 73
     8
 40
60.500000
 49
45.000000
 49
-2.000000
 49
2.500000
 49
-2.000000
 49
2.500000
 49
-2.000000
 49
2.500000
 49
-2.000000
  0
LTYPE
  2
SBK2
 70
    64
  3
______ _ _ _ ______ _ _ _ ______ _ _ _ _____  
 72
    65
 73
     8
 40
84.000000
 49
64.000000
 49
-2.000000
 49
4.000000
 49
-2.000000
 49
4.000000
 49
-2.000000
 49
4.000000
 49
-2.000000
  0
LTYPE
  2
STCH
 70
    64
  3
__ __ __ __ __ __ __ __ __ __ __ __ __ __ __
 72
    65
 73
     2
 40
3.000000
 49
1.000000
 49
-2.000000
  0
LTYPE
  2
MTCH
 70
    64
  3
_____ _ _ _____ _ _ _____ _ _ _____ _ _ ____  
 72
    65
 73
     6
 40
80.000000
 49
66.000000
 49
-2.000000
 49
4.000000
 49
-2.000000
 49
4.000000
 49
-2.000000
  0
ENDTAB
  0
TABLE
  2
LAYER
 70
     1
  0
LAYER
  2
0
 70
     0
 62
     7
  6
CONTINUOUS
  0
ENDTAB
  0
TABLE
  2
STYLE
 70
     1
  0
STYLE
  2
STANDARD
 70
     0
 40
0.000000
 41
1.000000
 50
0.000000
 71
     0
 42
0.200000
  3
txt
  4
BIGFONT
  0
ENDTAB
  0
TABLE
  2
VIEW
 70
     0
  0
ENDTAB
  0
ENDSEC
  0
SECTION
  2
BLOCKS
  0
ENDSEC
  0
SECTION
  2
ENTITIES
  0
LINE
  8
0
 10
-299.250000
 20
276.250000
 11
-299.250000
 21
261.250000
  0
LINE
  8
0
 10
299.799988
 20
276.250000
 11
299.799988
 21
261.250000
  0
LINE
  8
0
 10
-399.250000
 20
261.250000
 11
-299.250000
 21
261.250000
  0
LINE
  8
0
 10
299.799988
 20
-256.750000
 11
299.799988
 21
-276.750000
  0
LINE
  8
0
 10
299.799988
 20
261.250000
 11
399.799988
 21
261.250000
  0
LINE
  8
0
 10
299.799988
 20
-256.750000
 11
399.799988
 21
-256.750000
  0
LINE
  8
0
 10
-420.500000
 20
297.000000
 11
420.500000
 21
297.000000
  0
LINE
  8
0
 10
-420.500000
 20
-297.000000
 11
420.500000
 21
-297.000000
  0
LINE
  8
0
 10
420.500000
 20
297.000000
 11
420.500000
 21
-297.000000
  0
LINE
  8
0
 10
-420.500000
 20
297.000000
 11
-420.500000
 21
-297.000000
  0
LINE
  8
0
 10
399.799988
 20
276.250000
 11
399.799988
 21
-276.750000
  0
LINE
  8
0
 10
-399.250000
 20
276.250000
 11
-399.250000
 21
-276.750000
  0
LINE
  8
0
 10
-399.250000
 20
276.250000
 11
399.799988
 21
276.250000
  0
LINE
  8
0
 10
-399.250000
 20
-276.750000
 11
399.799988
 21
-276.750000
  0
TEXT
  8
0
 10
-390.142517
 20
262.549988
 40
8.000000
  1
630M*AT-39
 50
0.000000
 41
1.052632
 51
0.000000
  7
STANDARD
  0
TEXT
  8
0
 10
305.721680
 20
264.529999
 40
5.800000
  1
DATE: MAY ,1992
 50
0.000000
 41
1.052632
 51
0.000000
  7
STANDARD
  0
TEXT
  8
0
 10
295.700867
 20
-272.049988
 40
7.000000
  1
ＫＯＧＡＮＥＩ，ＣＯＲＰ．
 50
0.000000
 41
0.902367
 51
15.000000
  7
STANDARD
  0
TEXT
  8
0
 10
-388.142487
 20
232.550003
 40
8.000000
  1
MODEL: 630M*AT-39
 50
0.000000
 41
1.052632
 51
0.000000
  7
STANDARD
  0
POINT
  8
0
 10
-19.999996
 20
-69.999992
  0
POINT
  8
0
 10
224.000000
 20
-69.999992
  0
LINE
  8
0
 10
36.999973
 20
-86.798546
 11
36.999973
 21
62.853600
  0
LINE
  8
0
 10
31.999973
 20
-48.000023
 11
31.999973
 21
9.999977
  0
LINE
  8
0
 10
41.999973
 20
-48.000023
 11
41.999973
 21
9.999977
  0
LINE
  8
0
 10
30.999973
 20
-48.000023
 11
30.999973
 21
9.999977
  0
LINE
  8
0
 10
42.999973
 20
-48.000023
 11
42.999973
 21
9.999977
  0
LINE
  8
0
 10
54.249973
 20
-41.000023
 11
54.249973
 21
-30.000023
  0
LINE
  8
0
 10
48.750004
 20
-35.499992
 11
59.750004
 21
-35.499992
  0
LINE
  8
0
 10
32.000004
 20
1.000008
 11
42.000004
 21
1.000008
  0
LINE
  8
0
 10
32.000004
 20
-38.999992
 11
42.000004
 21
-38.999992
  0
LINE
  8
0
 10
33.000004
 20
11.000008
 11
41.000004
 21
11.000008
  0
LINE
  8
0
 10
33.000004
 20
-48.999992
 11
41.000004
 21
-48.999992
  0
LINE
  8
0
 10
33.000004
 20
12.000008
 11
41.000004
 21
12.000008
  0
LINE
  8
0
 10
33.000004
 20
-49.999992
 11
41.000004
 21
-49.999992
  0
LINE
  8
0
 10
55.499973
 20
11.499977
 11
55.499973
 21
18.499977
  0
LINE
  8
0
 10
49.699986
 20
18.500008
 11
55.500004
 21
18.500008
  0
LINE
  8
0
 10
49.699986
 20
11.499977
 11
49.699986
 21
18.499977
  0
LINE
  8
0
 10
49.699986
 20
11.500008
 11
55.500004
 21
11.500008
  0
LINE
  8
0
 10
24.299992
 20
-49.499992
 11
18.500004
 21
-49.499992
  0
LINE
  8
0
 10
24.299992
 20
-49.500023
 11
24.299992
 21
-56.500023
  0
LINE
  8
0
 10
24.299992
 20
-56.499992
 11
18.500004
 21
-56.499992
  0
LINE
  8
0
 10
18.499973
 20
-49.500023
 11
18.499973
 21
-56.500023
  0
LINE
  8
0
 10
82.149994
 20
-93.499992
 11
82.149994
 21
-94.200005
  0
LINE
  8
0
 10
77.849976
 20
-93.499992
 11
77.849976
 21
-94.200005
  0
LINE
  8
0
 10
77.849976
 20
-94.200005
 11
82.149963
 21
-94.200005
  0
LINE
  8
0
 10
16.000004
 20
-59.499992
 11
58.000004
 21
-59.499992
  0
LINE
  8
0
 10
16.000004
 20
21.500008
 11
58.000004
 21
21.500008
  0
LINE
  8
0
 10
17.500004
 20
-69.499992
 11
56.500004
 21
-69.499992
  0
LINE
  8
0
 10
17.500004
 20
31.500008
 11
56.500004
 21
31.500008
  0
LINE
  8
0
 10
24.000004
 20
55.500008
 11
50.000004
 21
55.500008
  0
LINE
  8
0
 10
57.999973
 20
-68.000023
 11
57.999973
 21
29.999977
  0
LINE
  8
0
 10
15.999973
 20
-78.999992
 11
15.999973
 21
44.000008
  0
LINE
  8
0
 10
20.999973
 20
31.499977
 11
20.999973
 21
52.499977
  0
LINE
  8
0
 10
52.999973
 20
31.499977
 11
52.999973
 21
52.499977
  0
LINE
  8
0
 10
54.250004
 20
-39.499992
 11
58.000004
 21
-39.499992
  0
LINE
  8
0
 10
54.250004
 20
-31.499992
 11
58.000004
 21
-31.499992
  0
LINE
  8
0
 10
54.249973
 20
2.999977
 11
54.249973
 21
-8.000023
  0
LINE
  8
0
 10
48.750004
 20
-2.499992
 11
59.750004
 21
-2.499992
  0
LINE
  8
0
 10
54.250004
 20
1.500008
 11
58.000004
 21
1.500008
  0
LINE
  8
0
 10
54.250004
 20
-6.499992
 11
58.000004
 21
-6.499992
  0
LINE
  8
0
 10
19.749973
 20
-41.000023
 11
19.749973
 21
-30.000023
  0
LINE
  8
0
 10
25.250004
 20
-35.499992
 11
14.250004
 21
-35.499992
  0
LINE
  8
0
 10
19.750004
 20
-39.499992
 11
16.000004
 21
-39.499992
  0
LINE
  8
0
 10
19.750004
 20
-31.499992
 11
16.000004
 21
-31.499992
  0
LINE
  8
0
 10
19.750004
 20
1.500008
 11
16.000004
 21
1.500008
  0
LINE
  8
0
 10
19.750004
 20
-6.499992
 11
16.000004
 21
-6.499992
  0
LINE
  8
0
 10
-17.137112
 20
-18.999992
 11
222.364929
 21
-18.999992
  0
LINE
  8
0
 10
21.249973
 20
-36.366051
 11
21.249973
 21
-34.633995
  0
LINE
  8
0
 10
18.249973
 20
-36.366051
 11
18.249973
 21
-34.633995
  0
LINE
  8
0
 10
21.249832
 20
-34.633957
 11
19.749855
 21
-33.767944
  0
LINE
  8
0
 10
19.749756
 20
-37.232166
 11
18.249752
 21
-36.366138
  0
LINE
  8
0
 10
19.750057
 20
-37.232189
 11
21.250034
 21
-36.366173
  0
LINE
  8
0
 10
19.749992
 20
-33.768173
 11
18.249989
 21
-34.634201
  0
LINE
  8
0
 10
54.250019
 20
-33.768276
 11
52.750042
 21
-34.634293
  0
LINE
  8
0
 10
54.250126
 20
-37.232216
 11
55.750126
 21
-36.366184
  0
LINE
  8
0
 10
55.749973
 20
-36.366051
 11
55.749973
 21
-34.633995
  0
LINE
  8
0
 10
52.749973
 20
-36.366051
 11
52.749973
 21
-34.633995
  0
LINE
  8
0
 10
55.749859
 20
-34.633972
 11
54.249859
 21
-33.767944
  0
LINE
  8
0
 10
54.249744
 20
-37.232128
 11
52.749714
 21
-36.366089
  0
LINE
  8
0
 10
54.250042
 20
-4.232140
 11
55.750042
 21
-3.366112
  0
LINE
  8
0
 10
54.249798
 20
-4.232018
 11
52.749798
 21
-3.365990
  0
LINE
  8
0
 10
52.749973
 20
-3.366051
 11
52.749973
 21
-1.633995
  0
LINE
  8
0
 10
54.250004
 20
-0.768150
 11
52.750027
 21
-1.634163
  0
LINE
  8
0
 10
55.749882
 20
-1.634010
 11
54.249874
 21
-0.767982
  0
LINE
  8
0
 10
55.749973
 20
-3.366051
 11
55.749973
 21
-1.633995
  0
LINE
  8
0
 10
-23.999996
 20
-60.999992
 11
-13.000027
 21
-60.999992
  0
LINE
  8
0
 10
-19.999996
 20
-74.499992
 11
-24.999996
 21
-74.499992
  0
LINE
  8
0
 10
-19.999996
 20
-65.499992
 11
-24.999996
 21
-65.499992
  0
LINE
  8
0
 10
-19.999996
 20
-62.928215
 11
-19.999996
 21
-76.696556
  0
LINE
  8
0
 10
-25.999996
 20
-62.999992
 11
-25.999996
 21
-64.499992
  0
LINE
  8
0
 10
-25.999996
 20
-75.499992
 11
-25.999996
 21
-76.999992
  0
LINE
  8
0
 10
-23.999996
 20
26.000008
 11
-13.000027
 21
26.000008
  0
LINE
  8
0
 10
-23.999996
 20
44.000008
 11
16.149967
 21
44.000008
  0
LINE
  8
0
 10
-19.999996
 20
30.500008
 11
-24.999996
 21
30.500008
  0
LINE
  8
0
 10
-19.999996
 20
39.500008
 11
-24.999996
 21
39.500008
  0
LINE
  8
0
 10
-19.999996
 20
42.071785
 11
-19.999996
 21
28.303444
  0
LINE
  8
0
 10
-25.999996
 20
42.000008
 11
-25.999996
 21
40.500008
  0
LINE
  8
0
 10
-12.000027
 20
41.000008
 11
-12.000027
 21
-75.999992
  0
LINE
  8
0
 10
-25.999996
 20
29.500008
 11
-25.999996
 21
28.000008
  0
LINE
  8
0
 10
-26.521847
 20
35.000008
 11
-8.543941
 21
35.000008
  0
LINE
  8
0
 10
216.000000
 20
41.000008
 11
216.000000
 21
-75.999992
  0
LINE
  8
0
 10
58.999973
 20
44.000008
 11
58.999973
 21
-78.999992
  0
LINE
  8
0
 10
230.000000
 20
29.500008
 11
230.000000
 21
28.000008
  0
LINE
  8
0
 10
230.521851
 20
35.000008
 11
212.543945
 21
35.000008
  0
LINE
  8
0
 10
230.000000
 20
42.000008
 11
230.000000
 21
40.500008
  0
LINE
  8
0
 10
224.000000
 20
42.071785
 11
224.000000
 21
28.303444
  0
LINE
  8
0
 10
224.000000
 20
39.500008
 11
229.000000
 21
39.500008
  0
LINE
  8
0
 10
224.000000
 20
30.500008
 11
229.000000
 21
30.500008
  0
LINE
  8
0
 10
228.000000
 20
44.000008
 11
187.849976
 21
44.000008
  0
LINE
  8
0
 10
228.000000
 20
26.000008
 11
217.000000
 21
26.000008
  0
LINE
  8
0
 10
230.000000
 20
-75.499992
 11
230.000000
 21
-76.999992
  0
LINE
  8
0
 10
230.390533
 20
-69.999992
 11
212.543945
 21
-69.999992
  0
LINE
  8
0
 10
230.000000
 20
-62.999992
 11
230.000000
 21
-64.499992
  0
LINE
  8
0
 10
224.000000
 20
-62.928215
 11
224.000000
 21
-76.696556
  0
LINE
  8
0
 10
223.999969
 20
-65.499992
 11
228.999969
 21
-65.499992
  0
LINE
  8
0
 10
223.999969
 20
-74.499992
 11
228.999969
 21
-74.499992
  0
LINE
  8
0
 10
227.999969
 20
-60.999992
 11
217.000000
 21
-60.999992
  0
LINE
  8
0
 10
58.999973
 20
33.500008
 11
52.999973
 21
33.500008
  0
LINE
  8
0
 10
165.999969
 20
-86.753716
 11
165.999969
 21
64.005623
  0
LINE
  8
0
 10
117.999969
 20
-48.000023
 11
117.999969
 21
9.999977
  0
LINE
  8
0
 10
127.999969
 20
-48.000023
 11
127.999969
 21
9.999977
  0
LINE
  8
0
 10
116.999969
 20
-48.000023
 11
116.999969
 21
9.999977
  0
LINE
  8
0
 10
128.999969
 20
-48.000023
 11
128.999969
 21
9.999977
  0
LINE
  8
0
 10
148.750000
 20
-8.000023
 11
148.750000
 21
2.999977
  0
LINE
  8
0
 10
106.999969
 20
-90.500023
 11
106.999969
 21
-69.500023
  0
LINE
  8
0
 10
138.999969
 20
-90.500023
 11
138.999969
 21
-69.500023
  0
LINE
  8
0
 10
143.250000
 20
-2.500023
 11
154.250000
 21
-2.500023
  0
LINE
  8
0
 10
118.000000
 20
1.000008
 11
128.000000
 21
1.000008
  0
LINE
  8
0
 10
118.000000
 20
-38.999992
 11
128.000000
 21
-38.999992
  0
LINE
  8
0
 10
119.000000
 20
11.000008
 11
127.000000
 21
11.000008
  0
LINE
  8
0
 10
119.000000
 20
-48.999992
 11
127.000000
 21
-48.999992
  0
LINE
  8
0
 10
119.000000
 20
12.000008
 11
127.000000
 21
12.000008
  0
LINE
  8
0
 10
119.000000
 20
-49.999992
 11
127.000000
 21
-49.999992
  0
LINE
  8
0
 10
141.499969
 20
11.499977
 11
141.499969
 21
18.499977
  0
LINE
  8
0
 10
135.699982
 20
18.500008
 11
141.500000
 21
18.500008
  0
LINE
  8
0
 10
135.699982
 20
11.499977
 11
135.699982
 21
18.499977
  0
LINE
  8
0
 10
135.699982
 20
11.500008
 11
141.500000
 21
11.500008
  0
LINE
  8
0
 10
110.299988
 20
-49.499992
 11
104.500000
 21
-49.499992
  0
LINE
  8
0
 10
110.299988
 20
-49.500023
 11
110.299988
 21
-56.500023
  0
LINE
  8
0
 10
110.299988
 20
-56.499992
 11
104.500000
 21
-56.499992
  0
LINE
  8
0
 10
104.499969
 20
-49.500023
 11
104.499969
 21
-56.500023
  0
LINE
  8
0
 10
102.000000
 20
-59.499992
 11
144.000000
 21
-59.499992
  0
LINE
  8
0
 10
102.000000
 20
21.500008
 11
144.000000
 21
21.500008
  0
LINE
  8
0
 10
103.500000
 20
-69.499992
 11
142.500000
 21
-69.499992
  0
LINE
  8
0
 10
103.500000
 20
31.500008
 11
142.500000
 21
31.500008
  0
LINE
  8
0
 10
110.000000
 20
55.500008
 11
136.000000
 21
55.500008
  0
LINE
  8
0
 10
110.000000
 20
-93.500023
 11
136.000000
 21
-93.500023
  0
LINE
  8
0
 10
143.999969
 20
-68.000023
 11
143.999969
 21
29.999977
  0
LINE
  8
0
 10
101.999969
 20
-68.000023
 11
101.999969
 21
29.999977
  0
LINE
  8
0
 10
106.999969
 20
31.499977
 11
106.999969
 21
52.499977
  0
LINE
  8
0
 10
138.999969
 20
31.499977
 11
138.999969
 21
52.499977
  0
LINE
  8
0
 10
140.250000
 20
-39.499992
 11
144.000000
 21
-39.499992
  0
LINE
  8
0
 10
140.250000
 20
-31.499992
 11
144.000000
 21
-31.499992
  0
LINE
  8
0
 10
140.249969
 20
2.999977
 11
140.249969
 21
-8.000023
  0
LINE
  8
0
 10
134.750000
 20
-2.499992
 11
145.750000
 21
-2.499992
  0
LINE
  8
0
 10
140.250000
 20
1.500008
 11
144.000000
 21
1.500008
  0
LINE
  8
0
 10
140.250000
 20
-6.499992
 11
144.000000
 21
-6.499992
  0
LINE
  8
0
 10
105.749969
 20
-41.000023
 11
105.749969
 21
-30.000023
  0
LINE
  8
0
 10
111.250000
 20
-35.499992
 11
100.250000
 21
-35.499992
  0
LINE
  8
0
 10
105.750000
 20
-39.499992
 11
102.000000
 21
-39.499992
  0
LINE
  8
0
 10
105.750000
 20
-31.499992
 11
102.000000
 21
-31.499992
  0
LINE
  8
0
 10
105.749969
 20
2.999977
 11
105.749969
 21
-8.000023
  0
LINE
  8
0
 10
111.250000
 20
-2.499992
 11
100.250000
 21
-2.499992
  0
LINE
  8
0
 10
105.750000
 20
1.500008
 11
102.000000
 21
1.500008
  0
LINE
  8
0
 10
105.750000
 20
-6.499992
 11
102.000000
 21
-6.499992
  0
LINE
  8
0
 10
107.249969
 20
-36.366051
 11
107.249969
 21
-34.633995
  0
LINE
  8
0
 10
104.249969
 20
-36.366051
 11
104.249969
 21
-34.633995
  0
LINE
  8
0
 10
107.249863
 20
-34.633976
 11
105.749908
 21
-33.767979
  0
LINE
  8
0
 10
105.749802
 20
-37.232056
 11
104.249786
 21
-36.366032
  0
LINE
  8
0
 10
105.750122
 20
-37.232319
 11
107.250092
 21
-36.366302
  0
LINE
  8
0
 10
105.750015
 20
-33.768253
 11
104.250015
 21
-34.634281
  0
LINE
  8
0
 10
148.750015
 20
-0.768379
 11
147.250015
 21
-1.634407
  0
LINE
  8
0
 10
148.750153
 20
-4.232323
 11
150.250168
 21
-3.366295
  0
LINE
  8
0
 10
150.250000
 20
-3.366051
 11
150.250000
 21
-1.633995
  0
LINE
  8
0
 10
147.250000
 20
-3.366051
 11
147.250000
 21
-1.633995
  0
LINE
  8
0
 10
150.249893
 20
-1.634033
 11
148.749893
 21
-0.768005
  0
LINE
  8
0
 10
148.749771
 20
-4.232040
 11
147.249771
 21
-3.366013
  0
LINE
  8
0
 10
105.750000
 20
-0.768242
 11
104.249969
 21
-1.634285
  0
LINE
  8
0
 10
105.750122
 20
-4.232208
 11
107.250092
 21
-3.366196
  0
LINE
  8
0
 10
107.249969
 20
-3.366051
 11
107.249969
 21
-1.633995
  0
LINE
  8
0
 10
104.249969
 20
-3.366051
 11
104.249969
 21
-1.633995
  0
LINE
  8
0
 10
107.249908
 20
-1.633972
 11
105.749924
 21
-0.767960
  0
LINE
  8
0
 10
105.749832
 20
-4.232002
 11
104.249832
 21
-3.365974
  0
LINE
  8
0
 10
140.250107
 20
-4.232285
 11
141.750076
 21
-3.366264
  0
LINE
  8
0
 10
140.249817
 20
-4.231918
 11
138.749817
 21
-3.365891
  0
LINE
  8
0
 10
138.749969
 20
-3.366051
 11
138.749969
 21
-1.633995
  0
LINE
  8
0
 10
140.250000
 20
-0.768272
 11
138.750031
 21
-1.634285
  0
LINE
  8
0
 10
141.749908
 20
-1.633957
 11
140.249908
 21
-0.767929
  0
LINE
  8
0
 10
141.749969
 20
-3.366051
 11
141.749969
 21
-1.633995
  0
LINE
  8
0
 10
187.999969
 20
44.000008
 11
187.999969
 21
-78.999992
  0
LINE
  8
0
 10
227.999969
 20
-78.999992
 11
138.999969
 21
-78.999992
  0
LINE
  8
0
 10
187.999969
 20
33.500008
 11
138.999969
 21
33.500008
  0
LINE
  8
0
 10
106.999969
 20
33.500008
 11
101.999969
 21
33.500008
  0
LINE
  8
0
 10
106.999969
 20
-78.999992
 11
101.999969
 21
-78.999992
  0
LINE
  8
0
 10
79.999969
 20
-99.712181
 11
79.999969
 21
61.044472
  0
LINE
  8
0
 10
74.999969
 20
-48.000023
 11
74.999969
 21
9.999977
  0
LINE
  8
0
 10
84.999969
 20
-48.000023
 11
84.999969
 21
9.999977
  0
LINE
  8
0
 10
73.999969
 20
-48.000023
 11
73.999969
 21
9.999977
  0
LINE
  8
0
 10
85.999969
 20
-48.000023
 11
85.999969
 21
9.999977
  0
LINE
  8
0
 10
97.249969
 20
-41.000023
 11
97.249969
 21
-30.000023
  0
LINE
  8
0
 10
63.999973
 20
-90.500023
 11
63.999973
 21
-69.500023
  0
LINE
  8
0
 10
95.999969
 20
-90.500023
 11
95.999969
 21
-69.500023
  0
LINE
  8
0
 10
91.750000
 20
-35.499992
 11
102.750000
 21
-35.499992
  0
LINE
  8
0
 10
75.000000
 20
1.000008
 11
85.000000
 21
1.000008
  0
LINE
  8
0
 10
75.000000
 20
-38.999992
 11
85.000000
 21
-38.999992
  0
LINE
  8
0
 10
76.000000
 20
11.000008
 11
84.000000
 21
11.000008
  0
LINE
  8
0
 10
76.000000
 20
-48.999992
 11
84.000000
 21
-48.999992
  0
LINE
  8
0
 10
76.000000
 20
12.000008
 11
84.000000
 21
12.000008
  0
LINE
  8
0
 10
76.000000
 20
-49.999992
 11
84.000000
 21
-49.999992
  0
LINE
  8
0
 10
98.499969
 20
11.499977
 11
98.499969
 21
18.499977
  0
LINE
  8
0
 10
92.699982
 20
18.500008
 11
98.500000
 21
18.500008
  0
LINE
  8
0
 10
92.699982
 20
11.499977
 11
92.699982
 21
18.499977
  0
LINE
  8
0
 10
92.699982
 20
11.500008
 11
98.500000
 21
11.500008
  0
LINE
  8
0
 10
67.299988
 20
-49.499992
 11
61.500004
 21
-49.499992
  0
LINE
  8
0
 10
67.299988
 20
-49.500023
 11
67.299988
 21
-56.500023
  0
LINE
  8
0
 10
67.299988
 20
-56.499992
 11
61.500004
 21
-56.499992
  0
LINE
  8
0
 10
61.499973
 20
-49.500023
 11
61.499973
 21
-56.500023
  0
LINE
  8
0
 10
59.000004
 20
-59.499992
 11
101.000000
 21
-59.499992
  0
LINE
  8
0
 10
59.000004
 20
21.500008
 11
101.000000
 21
21.500008
  0
LINE
  8
0
 10
60.500004
 20
-69.499992
 11
99.500000
 21
-69.499992
  0
LINE
  8
0
 10
60.500004
 20
31.500008
 11
99.500000
 21
31.500008
  0
LINE
  8
0
 10
67.000000
 20
55.500008
 11
93.000000
 21
55.500008
  0
LINE
  8
0
 10
67.000000
 20
-93.500023
 11
93.000000
 21
-93.500023
  0
LINE
  8
0
 10
100.999969
 20
-68.000023
 11
100.999969
 21
29.999977
  0
LINE
  8
0
 10
58.999973
 20
-68.000023
 11
58.999973
 21
29.999977
  0
LINE
  8
0
 10
63.999973
 20
31.499977
 11
63.999973
 21
52.499977
  0
LINE
  8
0
 10
95.999969
 20
31.499977
 11
95.999969
 21
52.499977
  0
LINE
  8
0
 10
97.250000
 20
-39.499992
 11
101.000000
 21
-39.499992
  0
LINE
  8
0
 10
97.250000
 20
-31.499992
 11
101.000000
 21
-31.499992
  0
LINE
  8
0
 10
97.249969
 20
2.999977
 11
97.249969
 21
-8.000023
  0
LINE
  8
0
 10
91.750000
 20
-2.499992
 11
102.750000
 21
-2.499992
  0
LINE
  8
0
 10
97.250000
 20
1.500008
 11
101.000000
 21
1.500008
  0
LINE
  8
0
 10
97.250000
 20
-6.499992
 11
101.000000
 21
-6.499992
  0
LINE
  8
0
 10
62.749973
 20
-41.000023
 11
62.749973
 21
-30.000023
  0
LINE
  8
0
 10
68.250000
 20
-35.499992
 11
57.250004
 21
-35.499992
  0
LINE
  8
0
 10
62.750004
 20
-39.499992
 11
59.000004
 21
-39.499992
  0
LINE
  8
0
 10
62.750004
 20
-31.499992
 11
59.000004
 21
-31.499992
  0
LINE
  8
0
 10
62.749973
 20
2.999977
 11
62.749973
 21
-8.000023
  0
LINE
  8
0
 10
68.250000
 20
-2.499992
 11
57.250004
 21
-2.499992
  0
LINE
  8
0
 10
62.750004
 20
1.500008
 11
59.000004
 21
1.500008
  0
LINE
  8
0
 10
62.750004
 20
-6.499992
 11
59.000004
 21
-6.499992
  0
LINE
  8
0
 10
64.249969
 20
-36.366051
 11
64.249969
 21
-34.633995
  0
LINE
  8
0
 10
61.249973
 20
-36.366051
 11
61.249973
 21
-34.633995
  0
LINE
  8
0
 10
64.249878
 20
-34.634010
 11
62.749874
 21
-33.767982
  0
LINE
  8
0
 10
62.749821
 20
-37.232174
 11
61.249813
 21
-36.366150
  0
LINE
  8
0
 10
62.750072
 20
-37.232246
 11
64.250046
 21
-36.366234
  0
LINE
  8
0
 10
62.750004
 20
-33.768211
 11
61.250027
 21
-34.634224
  0
LINE
  8
0
 10
97.250015
 20
-33.768291
 11
95.750015
 21
-34.634319
  0
LINE
  8
0
 10
97.250137
 20
-37.232327
 11
98.750137
 21
-36.366299
  0
LINE
  8
0
 10
98.749969
 20
-36.366051
 11
98.749969
 21
-34.633995
  0
LINE
  8
0
 10
95.749969
 20
-36.366051
 11
95.749969
 21
-34.633995
  0
LINE
  8
0
 10
98.749893
 20
-34.634022
 11
97.249878
 21
-33.767994
  0
LINE
  8
0
 10
97.249741
 20
-37.232056
 11
95.749725
 21
-36.366028
  0
LINE
  8
0
 10
62.749989
 20
-0.768204
 11
61.249989
 21
-1.634232
  0
LINE
  8
0
 10
62.750065
 20
-4.232124
 11
64.250061
 21
-3.366096
  0
LINE
  8
0
 10
64.249969
 20
-3.366051
 11
64.249969
 21
-1.633995
  0
LINE
  8
0
 10
61.249973
 20
-3.366051
 11
61.249973
 21
-1.633995
  0
LINE
  8
0
 10
64.249878
 20
-1.633980
 11
62.749905
 21
-0.767967
  0
LINE
  8
0
 10
62.749790
 20
-4.232056
 11
61.249783
 21
-3.366028
  0
LINE
  8
0
 10
97.250061
 20
-4.232208
 11
98.750061
 21
-3.366180
  0
LINE
  8
0
 10
97.249847
 20
-4.231956
 11
95.749847
 21
-3.365929
  0
LINE
  8
0
 10
95.749969
 20
-3.366051
 11
95.749969
 21
-1.633995
  0
LINE
  8
0
 10
97.250015
 20
-0.768196
 11
95.750000
 21
-1.634224
  0
LINE
  8
0
 10
98.749878
 20
-1.633987
 11
97.249878
 21
-0.767960
  0
LINE
  8
0
 10
98.749969
 20
-3.366051
 11
98.749969
 21
-1.633995
  0
LINE
  8
0
 10
144.999969
 20
44.000008
 11
144.999969
 21
-78.999992
  0
LINE
  8
0
 10
101.999969
 20
-78.999992
 11
95.999969
 21
-78.999992
  0
LINE
  8
0
 10
101.999969
 20
33.500008
 11
95.999969
 21
33.500008
  0
LINE
  8
0
 10
63.999973
 20
33.500008
 11
58.999973
 21
33.500008
  0
LINE
  8
0
 10
63.999973
 20
-78.999992
 11
-23.999996
 21
-78.999992
  0
LINE
  8
0
 10
19.749973
 20
2.999977
 11
19.749973
 21
-8.000023
  0
LINE
  8
0
 10
19.749771
 20
-4.232132
 11
18.249767
 21
-3.366104
  0
LINE
  8
0
 10
25.250004
 20
-2.499992
 11
14.250004
 21
-2.499992
  0
LINE
  8
0
 10
18.249973
 20
-3.366051
 11
18.249973
 21
-1.633995
  0
LINE
  8
0
 10
19.749954
 20
-0.768120
 11
18.249950
 21
-1.634148
  0
LINE
  8
0
 10
21.249889
 20
-1.634003
 11
19.749886
 21
-0.767975
  0
LINE
  8
0
 10
21.249973
 20
-3.366051
 11
21.249973
 21
-1.633995
  0
LINE
  8
0
 10
19.750031
 20
-4.232094
 11
21.250031
 21
-3.366058
  0
LINE
  8
0
 10
39.149967
 20
56.200020
 11
34.849979
 21
56.200020
  0
LINE
  8
0
 10
39.149998
 20
55.500008
 11
39.149998
 21
56.200020
  0
LINE
  8
0
 10
34.849979
 20
55.500008
 11
34.849979
 21
56.200020
  0
LINE
  8
0
 10
125.149994
 20
-93.499992
 11
125.149994
 21
-94.200005
  0
LINE
  8
0
 10
120.850006
 20
-93.499992
 11
120.850006
 21
-94.200005
  0
LINE
  8
0
 10
120.850006
 20
-94.200005
 11
125.149994
 21
-94.200005
  0
LINE
  8
0
 10
125.149994
 20
56.199989
 11
120.850006
 21
56.199989
  0
LINE
  8
0
 10
125.149994
 20
55.499977
 11
125.149994
 21
56.199989
  0
LINE
  8
0
 10
120.850006
 20
55.499977
 11
120.850006
 21
56.199989
  0
LINE
  8
0
 10
82.149963
 20
56.200020
 11
77.849976
 21
56.200020
  0
LINE
  8
0
 10
82.149994
 20
55.500008
 11
82.149994
 21
56.200020
  0
LINE
  8
0
 10
77.849976
 20
55.500008
 11
77.849976
 21
56.200020
  0
LINE
  8
0
 10
122.999969
 20
-98.827904
 11
122.999969
 21
61.768120
  0
LINE
  8
0
 10
101.999969
 20
44.000008
 11
101.999969
 21
-78.999992
  0
LINE
  8
0
 10
144.999969
 20
-63.999992
 11
144.999969
 21
26.000008
  0
LINE
  8
0
 10
186.999969
 20
-63.999992
 11
186.999969
 21
26.000008
  0
LINE
  8
0
 10
144.999969
 20
-63.999992
 11
186.999969
 21
-63.999992
  0
LINE
  8
0
 10
144.999969
 20
26.000008
 11
186.999969
 21
26.000008
  0
LINE
  8
0
 10
140.249969
 20
-41.000023
 11
140.249969
 21
-30.000023
  0
LINE
  8
0
 10
134.750000
 20
-35.499992
 11
145.750000
 21
-35.499992
  0
LINE
  8
0
 10
140.249771
 20
-37.231995
 11
138.749771
 21
-36.365967
  0
LINE
  8
0
 10
140.249985
 20
-33.768291
 11
138.749985
 21
-34.634319
  0
LINE
  8
0
 10
140.250153
 20
-37.232277
 11
141.750153
 21
-36.366249
  0
LINE
  8
0
 10
141.749969
 20
-36.366051
 11
141.749969
 21
-34.633995
  0
LINE
  8
0
 10
138.749969
 20
-36.366051
 11
138.749969
 21
-34.633995
  0
LINE
  8
0
 10
141.749878
 20
-34.633953
 11
140.249863
 21
-33.767925
  0
LINE
  8
0
 10
183.250000
 20
-41.000023
 11
183.250000
 21
-30.000023
  0
LINE
  8
0
 10
177.750000
 20
-35.500023
 11
188.750000
 21
-35.500023
  0
LINE
  8
0
 10
183.249771
 20
-37.232018
 11
181.749771
 21
-36.365993
  0
LINE
  8
0
 10
183.250015
 20
-33.768341
 11
181.750000
 21
-34.634369
  0
LINE
  8
0
 10
183.250153
 20
-37.232262
 11
184.750153
 21
-36.366234
  0
LINE
  8
0
 10
184.750000
 20
-36.366051
 11
184.750000
 21
-34.633995
  0
LINE
  8
0
 10
181.750000
 20
-36.366051
 11
181.750000
 21
-34.633995
  0
LINE
  8
0
 10
184.749908
 20
-34.633976
 11
183.249908
 21
-33.767948
  0
LINE
  8
0
 10
148.749969
 20
-41.000023
 11
148.749969
 21
-30.000023
  0
LINE
  8
0
 10
143.249969
 20
-35.500023
 11
154.249969
 21
-35.500023
  0
LINE
  8
0
 10
148.749771
 20
-37.232052
 11
147.249756
 21
-36.366024
  0
LINE
  8
0
 10
148.750000
 20
-33.768337
 11
147.250000
 21
-34.634365
  0
LINE
  8
0
 10
148.750168
 20
-37.232327
 11
150.250168
 21
-36.366299
  0
LINE
  8
0
 10
150.249969
 20
-36.366051
 11
150.249969
 21
-34.633995
  0
LINE
  8
0
 10
147.249969
 20
-36.366051
 11
147.249969
 21
-34.633995
  0
LINE
  8
0
 10
150.249832
 20
-34.633995
 11
148.749832
 21
-33.767967
  0
LINE
  8
0
 10
183.250000
 20
-8.000023
 11
183.250000
 21
2.999977
  0
LINE
  8
0
 10
177.750000
 20
-2.500023
 11
188.750000
 21
-2.500023
  0
LINE
  8
0
 10
183.249771
 20
-4.232048
 11
181.749756
 21
-3.366020
  0
LINE
  8
0
 10
183.250031
 20
-0.768394
 11
181.750031
 21
-1.634422
  0
LINE
  8
0
 10
183.250183
 20
-4.232330
 11
184.750183
 21
-3.366302
  0
LINE
  8
0
 10
184.750000
 20
-3.366051
 11
184.750000
 21
-1.633995
  0
LINE
  8
0
 10
181.750000
 20
-3.366051
 11
181.750000
 21
-1.633995
  0
LINE
  8
0
 10
184.749893
 20
-1.634010
 11
183.249893
 21
-0.767982
  0
LINE
  8
0
 10
-9.457790
 20
-69.999992
 11
-29.112637
 21
-69.999992
  0
LINE
  8
0
 10
16.149967
 20
34.299995
 11
20.999973
 21
34.299995
  0
LINE
  8
0
 10
20.999973
 20
33.500008
 11
15.999973
 21
33.500008
  0
LINE
  8
0
 10
52.999973
 20
34.299995
 11
58.849979
 21
34.299995
  0
LINE
  8
0
 10
59.149967
 20
34.299995
 11
63.999973
 21
34.299995
  0
LINE
  8
0
 10
95.999969
 20
34.299995
 11
101.849976
 21
34.299995
  0
LINE
  8
0
 10
102.149963
 20
34.299995
 11
106.999969
 21
34.299995
  0
LINE
  8
0
 10
138.999969
 20
34.299995
 11
144.849976
 21
34.299995
  0
LINE
  8
0
 10
145.149963
 20
34.299995
 11
187.849976
 21
34.299995
  0
LINE
  8
0
 10
144.999969
 20
-4.750023
 11
146.069061
 21
-4.750023
  0
LINE
  8
0
 10
144.999969
 20
-0.250023
 11
146.069061
 21
-0.250023
  0
LINE
  8
0
 10
186.999969
 20
-4.750023
 11
185.930878
 21
-4.750023
  0
LINE
  8
0
 10
186.999969
 20
-0.250023
 11
185.930878
 21
-0.250023
  0
LINE
  8
0
 10
144.999969
 20
-33.249962
 11
146.069061
 21
-33.249962
  0
LINE
  8
0
 10
144.999969
 20
-37.749962
 11
146.069061
 21
-37.749962
  0
LINE
  8
0
 10
186.999969
 20
-33.249962
 11
185.930878
 21
-33.249962
  0
LINE
  8
0
 10
186.999969
 20
-37.749962
 11
185.930878
 21
-37.749962
  0
LINE
  8
0
 10
37.499973
 20
63.826454
 11
37.499973
 21
100.967049
  0
LINE
  8
0
 10
19.149967
 20
66.000008
 11
55.849979
 21
66.000008
  0
LINE
  8
0
 10
26.749973
 20
97.200020
 11
48.249973
 21
97.200020
  0
LINE
  8
0
 10
23.749973
 20
91.200020
 11
27.833683
 21
91.200020
  0
LINE
  8
0
 10
23.749973
 20
88.200020
 11
26.732548
 21
88.200020
  0
LINE
  8
0
 10
23.749973
 20
86.700020
 11
26.525578
 21
86.700020
  0
LINE
  8
0
 10
23.749973
 20
85.200020
 11
26.525578
 21
85.200020
  0
LINE
  8
0
 10
23.749973
 20
83.700020
 11
26.732548
 21
83.700020
  0
LINE
  8
0
 10
23.749973
 20
80.700020
 11
27.833683
 21
80.700020
  0
LINE
  8
0
 10
23.749973
 20
79.200020
 11
28.814518
 21
79.200020
  0
LINE
  8
0
 10
23.749973
 20
77.700020
 11
30.224155
 21
77.700020
  0
LINE
  8
0
 10
23.749973
 20
76.200020
 11
32.407108
 21
76.200020
  0
LINE
  8
0
 10
23.749973
 20
66.700020
 11
51.249973
 21
66.700020
  0
LINE
  8
0
 10
23.999973
 20
66.700020
 11
23.999973
 21
66.000008
  0
LINE
  8
0
 10
50.999973
 20
66.700020
 11
50.999973
 21
66.000008
  0
LINE
  8
0
 10
23.749973
 20
94.200020
 11
23.749973
 21
66.700020
  0
LINE
  8
0
 10
51.249973
 20
94.200020
 11
51.249973
 21
66.700020
  0
LINE
  8
0
 10
23.749973
 20
92.700020
 11
28.814518
 21
92.700020
  0
LINE
  8
0
 10
37.499992
 20
96.949959
 11
39.599983
 21
95.737541
  0
LINE
  8
0
 10
35.399990
 20
95.737587
 11
37.499985
 21
96.950020
  0
LINE
  8
0
 10
39.849644
 20
95.051613
 11
39.599964
 21
95.737602
  0
LINE
  8
0
 10
35.284946
 20
95.085274
 11
35.399956
 21
95.737541
  0
LINE
  8
0
 10
47.026249
 20
91.450020
 11
47.026249
 21
89.025154
  0
LINE
  8
0
 10
44.926273
 20
92.662407
 11
47.026264
 21
91.449974
  0
LINE
  8
0
 10
46.557056
 20
88.465919
 11
47.026295
 21
89.025139
  0
LINE
  8
0
 10
44.303829
 20
92.435951
 11
44.926205
 21
92.662483
  0
LINE
  8
0
 10
47.026264
 20
80.450020
 11
44.926266
 21
79.237587
  0
LINE
  8
0
 10
47.026249
 20
82.874886
 11
47.026249
 21
80.450020
  0
LINE
  8
0
 10
44.207302
 20
79.364281
 11
44.926228
 21
79.237526
  0
LINE
  8
0
 10
46.518871
 20
83.300606
 11
47.026226
 21
82.874886
  0
LINE
  8
0
 10
37.499992
 20
74.950005
 11
35.399998
 21
76.162437
  0
LINE
  8
0
 10
39.599976
 20
76.162453
 11
37.499981
 21
74.950020
  0
LINE
  8
0
 10
35.150234
 20
76.848457
 11
35.399910
 21
76.162468
  0
LINE
  8
0
 10
39.714962
 20
76.814705
 11
39.599953
 21
76.162437
  0
LINE
  8
0
 10
27.973698
 20
80.450020
 11
27.973698
 21
82.874886
  0
LINE
  8
0
 10
30.073708
 20
79.237572
 11
27.973721
 21
80.450005
  0
LINE
  8
0
 10
28.442955
 20
83.434151
 11
27.973713
 21
82.874931
  0
LINE
  8
0
 10
30.696041
 20
79.464119
 11
30.073658
 21
79.237602
  0
LINE
  8
0
 10
27.973705
 20
91.450020
 11
30.073700
 21
92.662453
  0
LINE
  8
0
 10
27.973698
 20
89.025154
 11
27.973698
 21
91.450020
  0
LINE
  8
0
 10
30.792603
 20
92.535637
 11
30.073681
 21
92.662407
  0
LINE
  8
0
 10
28.481064
 20
88.599403
 11
27.973694
 21
89.025124
  0
LINE
  8
0
 10
46.185459
 20
92.700020
 11
51.249973
 21
92.700020
  0
LINE
  8
0
 10
47.166294
 20
91.200020
 11
51.249973
 21
91.200020
  0
LINE
  8
0
 10
48.267399
 20
88.200020
 11
51.249973
 21
88.200020
  0
LINE
  8
0
 10
48.474369
 20
86.700020
 11
51.249973
 21
86.700020
  0
LINE
  8
0
 10
48.474369
 20
85.200020
 11
51.249973
 21
85.200020
  0
LINE
  8
0
 10
48.267399
 20
83.700020
 11
51.249973
 21
83.700020
  0
LINE
  8
0
 10
47.166294
 20
80.700020
 11
51.249973
 21
80.700020
  0
LINE
  8
0
 10
46.185459
 20
79.200020
 11
51.249973
 21
79.200020
  0
LINE
  8
0
 10
44.775791
 20
77.700020
 11
51.249973
 21
77.700020
  0
LINE
  8
0
 10
42.592869
 20
76.200020
 11
51.249973
 21
76.200020
  0
LINE
  8
0
 10
24.641453
 20
85.950020
 11
49.951054
 21
85.950020
  0
LINE
  8
0
 10
16.149967
 20
34.299995
 11
16.149967
 21
63.000008
  0
LINE
  8
0
 10
58.849979
 20
34.299995
 11
58.849979
 21
63.000008
  0
LINE
  8
0
 10
80.499969
 20
63.826454
 11
80.499969
 21
100.967049
  0
LINE
  8
0
 10
62.149967
 20
66.000008
 11
98.849976
 21
66.000008
  0
LINE
  8
0
 10
69.749969
 20
97.200020
 11
91.249969
 21
97.200020
  0
LINE
  8
0
 10
66.749969
 20
91.200020
 11
70.833679
 21
91.200020
  0
LINE
  8
0
 10
66.749969
 20
88.200020
 11
69.732544
 21
88.200020
  0
LINE
  8
0
 10
66.749969
 20
86.700020
 11
69.525574
 21
86.700020
  0
LINE
  8
0
 10
66.749969
 20
85.200020
 11
69.525574
 21
85.200020
  0
LINE
  8
0
 10
66.749969
 20
83.700020
 11
69.732544
 21
83.700020
  0
LINE
  8
0
 10
66.749969
 20
80.700020
 11
70.833679
 21
80.700020
  0
LINE
  8
0
 10
66.749969
 20
79.200020
 11
71.814514
 21
79.200020
  0
LINE
  8
0
 10
66.749969
 20
77.700020
 11
73.224152
 21
77.700020
  0
LINE
  8
0
 10
66.749969
 20
76.200020
 11
75.407104
 21
76.200020
  0
LINE
  8
0
 10
66.749969
 20
66.700020
 11
94.249969
 21
66.700020
  0
LINE
  8
0
 10
66.999969
 20
66.700020
 11
66.999969
 21
66.000008
  0
LINE
  8
0
 10
93.999969
 20
66.700020
 11
93.999969
 21
66.000008
  0
LINE
  8
0
 10
66.749969
 20
94.200020
 11
66.749969
 21
66.700020
  0
LINE
  8
0
 10
94.249969
 20
94.200020
 11
94.249969
 21
66.700020
  0
LINE
  8
0
 10
66.749969
 20
92.700020
 11
71.814514
 21
92.700020
  0
LINE
  8
0
 10
80.500000
 20
96.949959
 11
82.599991
 21
95.737526
  0
LINE
  8
0
 10
78.399994
 20
95.737587
 11
80.500000
 21
96.950020
  0
LINE
  8
0
 10
82.849640
 20
95.051613
 11
82.599960
 21
95.737602
  0
LINE
  8
0
 10
78.284943
 20
95.085274
 11
78.399948
 21
95.737541
  0
LINE
  8
0
 10
90.026245
 20
91.450020
 11
90.026245
 21
89.025154
  0
LINE
  8
0
 10
87.926270
 20
92.662392
 11
90.026276
 21
91.449959
  0
LINE
  8
0
 10
89.557053
 20
88.465904
 11
90.026291
 21
89.025139
  0
LINE
  8
0
 10
87.303833
 20
92.435951
 11
87.926208
 21
92.662468
  0
LINE
  8
0
 10
90.026276
 20
80.450035
 11
87.926270
 21
79.237602
  0
LINE
  8
0
 10
90.026245
 20
82.874886
 11
90.026245
 21
80.450020
  0
LINE
  8
0
 10
87.207306
 20
79.364281
 11
87.926224
 21
79.237526
  0
LINE
  8
0
 10
89.518875
 20
83.300621
 11
90.026245
 21
82.874886
  0
LINE
  8
0
 10
80.499985
 20
74.950005
 11
78.399994
 21
76.162437
  0
LINE
  8
0
 10
82.599991
 20
76.162468
 11
80.499985
 21
74.950035
  0
LINE
  8
0
 10
78.150238
 20
76.848457
 11
78.399918
 21
76.162468
  0
LINE
  8
0
 10
82.714966
 20
76.814690
 11
82.599945
 21
76.162422
  0
LINE
  8
0
 10
70.973694
 20
80.450020
 11
70.973694
 21
82.874886
  0
LINE
  8
0
 10
73.073700
 20
79.237572
 11
70.973724
 21
80.450005
  0
LINE
  8
0
 10
71.442947
 20
83.434135
 11
70.973709
 21
82.874916
  0
LINE
  8
0
 10
73.696045
 20
79.464134
 11
73.073669
 21
79.237602
  0
LINE
  8
0
 10
70.973709
 20
91.450020
 11
73.073715
 21
92.662453
  0
LINE
  8
0
 10
70.973694
 20
89.025154
 11
70.973694
 21
91.450020
  0
LINE
  8
0
 10
73.792603
 20
92.535622
 11
73.073685
 21
92.662392
  0
LINE
  8
0
 10
71.481064
 20
88.599388
 11
70.973694
 21
89.025124
  0
LINE
  8
0
 10
89.185455
 20
92.700020
 11
94.249969
 21
92.700020
  0
LINE
  8
0
 10
90.166290
 20
91.200020
 11
94.249969
 21
91.200020
  0
LINE
  8
0
 10
91.267395
 20
88.200020
 11
94.249969
 21
88.200020
  0
LINE
  8
0
 10
91.474365
 20
86.700020
 11
94.249969
 21
86.700020
  0
LINE
  8
0
 10
91.474365
 20
85.200020
 11
94.249969
 21
85.200020
  0
LINE
  8
0
 10
91.267395
 20
83.700020
 11
94.249969
 21
83.700020
  0
LINE
  8
0
 10
90.166290
 20
80.700020
 11
94.249969
 21
80.700020
  0
LINE
  8
0
 10
89.185455
 20
79.200020
 11
94.249969
 21
79.200020
  0
LINE
  8
0
 10
87.775787
 20
77.700020
 11
94.249969
 21
77.700020
  0
LINE
  8
0
 10
85.592865
 20
76.200020
 11
94.249969
 21
76.200020
  0
LINE
  8
0
 10
67.641449
 20
85.950020
 11
92.951050
 21
85.950020
  0
LINE
  8
0
 10
59.149967
 20
34.299995
 11
59.149967
 21
63.000008
  0
LINE
  8
0
 10
101.849976
 20
34.299995
 11
101.849976
 21
63.000008
  0
LINE
  8
0
 10
123.499969
 20
63.826454
 11
123.499969
 21
100.967049
  0
LINE
  8
0
 10
105.149963
 20
66.000008
 11
141.849976
 21
66.000008
  0
LINE
  8
0
 10
112.749969
 20
97.200020
 11
134.249969
 21
97.200020
  0
LINE
  8
0
 10
109.749969
 20
91.200020
 11
113.833679
 21
91.200020
  0
LINE
  8
0
 10
109.749969
 20
88.200020
 11
112.732544
 21
88.200020
  0
LINE
  8
0
 10
109.749969
 20
86.700020
 11
112.525574
 21
86.700020
  0
LINE
  8
0
 10
109.749969
 20
85.200020
 11
112.525574
 21
85.200020
  0
LINE
  8
0
 10
109.749969
 20
83.700020
 11
112.732544
 21
83.700020
  0
LINE
  8
0
 10
109.749969
 20
80.700020
 11
113.833679
 21
80.700020
  0
LINE
  8
0
 10
109.749969
 20
79.200020
 11
114.814514
 21
79.200020
  0
LINE
  8
0
 10
109.749969
 20
77.700020
 11
116.224152
 21
77.700020
  0
LINE
  8
0
 10
109.749969
 20
76.200020
 11
118.407104
 21
76.200020
  0
LINE
  8
0
 10
109.749969
 20
66.700020
 11
137.249969
 21
66.700020
  0
LINE
  8
0
 10
109.999969
 20
66.700020
 11
109.999969
 21
66.000008
  0
LINE
  8
0
 10
136.999969
 20
66.700020
 11
136.999969
 21
66.000008
  0
LINE
  8
0
 10
109.749969
 20
94.200020
 11
109.749969
 21
66.700020
  0
LINE
  8
0
 10
137.249969
 20
94.200020
 11
137.249969
 21
66.700020
  0
LINE
  8
0
 10
109.749969
 20
92.700020
 11
114.814514
 21
92.700020
  0
LINE
  8
0
 10
123.499985
 20
96.949959
 11
125.599976
 21
95.737526
  0
LINE
  8
0
 10
121.399994
 20
95.737587
 11
123.499985
 21
96.950020
  0
LINE
  8
0
 10
125.849640
 20
95.051613
 11
125.599960
 21
95.737602
  0
LINE
  8
0
 10
121.284943
 20
95.085274
 11
121.399948
 21
95.737541
  0
LINE
  8
0
 10
133.026245
 20
91.450020
 11
133.026245
 21
89.025154
  0
LINE
  8
0
 10
130.926270
 20
92.662392
 11
133.026260
 21
91.449959
  0
LINE
  8
0
 10
132.557053
 20
88.465919
 11
133.026291
 21
89.025139
  0
LINE
  8
0
 10
130.303833
 20
92.435936
 11
130.926208
 21
92.662468
  0
LINE
  8
0
 10
133.026260
 20
80.450035
 11
130.926270
 21
79.237602
  0
LINE
  8
0
 10
133.026245
 20
82.874886
 11
133.026245
 21
80.450020
  0
LINE
  8
0
 10
130.207291
 20
79.364296
 11
130.926208
 21
79.237526
  0
LINE
  8
0
 10
132.518860
 20
83.300621
 11
133.026230
 21
82.874886
  0
LINE
  8
0
 10
123.499985
 20
74.950005
 11
121.399994
 21
76.162437
  0
LINE
  8
0
 10
125.599976
 20
76.162468
 11
123.499985
 21
74.950035
  0
LINE
  8
0
 10
121.150238
 20
76.848457
 11
121.399918
 21
76.162468
  0
LINE
  8
0
 10
125.714951
 20
76.814690
 11
125.599945
 21
76.162422
  0
LINE
  8
0
 10
113.973694
 20
80.450020
 11
113.973694
 21
82.874886
  0
LINE
  8
0
 10
116.073700
 20
79.237572
 11
113.973709
 21
80.450005
  0
LINE
  8
0
 10
114.442947
 20
83.434135
 11
113.973694
 21
82.874916
  0
LINE
  8
0
 10
116.696045
 20
79.464119
 11
116.073669
 21
79.237602
  0
LINE
  8
0
 10
113.973709
 20
91.450020
 11
116.073700
 21
92.662453
  0
LINE
  8
0
 10
113.973694
 20
89.025154
 11
113.973694
 21
91.450020
  0
LINE
  8
0
 10
116.792572
 20
92.535637
 11
116.073654
 21
92.662392
  0
LINE
  8
0
 10
114.481064
 20
88.599403
 11
113.973694
 21
89.025139
  0
LINE
  8
0
 10
132.185455
 20
92.700020
 11
137.249969
 21
92.700020
  0
LINE
  8
0
 10
133.166290
 20
91.200020
 11
137.249969
 21
91.200020
  0
LINE
  8
0
 10
134.267395
 20
88.200020
 11
137.249969
 21
88.200020
  0
LINE
  8
0
 10
134.474365
 20
86.700020
 11
137.249969
 21
86.700020
  0
LINE
  8
0
 10
134.474365
 20
85.200020
 11
137.249969
 21
85.200020
  0
LINE
  8
0
 10
134.267395
 20
83.700020
 11
137.249969
 21
83.700020
  0
LINE
  8
0
 10
133.166290
 20
80.700020
 11
137.249969
 21
80.700020
  0
LINE
  8
0
 10
132.185455
 20
79.200020
 11
137.249969
 21
79.200020
  0
LINE
  8
0
 10
130.775787
 20
77.700020
 11
137.249969
 21
77.700020
  0
LINE
  8
0
 10
128.592865
 20
76.200020
 11
137.249969
 21
76.200020
  0
LINE
  8
0
 10
110.641449
 20
85.950020
 11
135.951050
 21
85.950020
  0
LINE
  8
0
 10
102.149963
 20
34.299995
 11
102.149963
 21
63.000008
  0
LINE
  8
0
 10
144.849976
 20
34.299995
 11
144.849976
 21
63.000008
  0
LINE
  8
0
 10
166.499969
 20
63.826454
 11
166.499969
 21
100.967049
  0
LINE
  8
0
 10
148.149963
 20
66.000008
 11
184.849976
 21
66.000008
  0
LINE
  8
0
 10
155.749969
 20
97.200020
 11
177.249969
 21
97.200020
  0
LINE
  8
0
 10
152.749969
 20
91.200020
 11
156.833679
 21
91.200020
  0
LINE
  8
0
 10
152.749969
 20
88.200020
 11
155.732544
 21
88.200020
  0
LINE
  8
0
 10
152.749969
 20
86.700020
 11
155.525574
 21
86.700020
  0
LINE
  8
0
 10
152.749969
 20
85.200020
 11
155.525574
 21
85.200020
  0
LINE
  8
0
 10
152.749969
 20
83.700020
 11
155.732544
 21
83.700020
  0
LINE
  8
0
 10
152.749969
 20
80.700020
 11
156.833679
 21
80.700020
  0
LINE
  8
0
 10
152.749969
 20
79.200020
 11
157.814514
 21
79.200020
  0
LINE
  8
0
 10
152.749969
 20
77.700020
 11
159.224152
 21
77.700020
  0
LINE
  8
0
 10
152.749969
 20
76.200020
 11
161.407104
 21
76.200020
  0
LINE
  8
0
 10
152.749969
 20
66.700020
 11
180.249969
 21
66.700020
  0
LINE
  8
0
 10
152.999969
 20
66.700020
 11
152.999969
 21
66.000008
  0
LINE
  8
0
 10
179.999969
 20
66.700020
 11
179.999969
 21
66.000008
  0
LINE
  8
0
 10
152.749969
 20
94.200020
 11
152.749969
 21
66.700020
  0
LINE
  8
0
 10
180.249969
 20
94.200020
 11
180.249969
 21
66.700020
  0
LINE
  8
0
 10
152.749969
 20
92.700020
 11
157.814514
 21
92.700020
  0
LINE
  8
0
 10
166.499985
 20
96.949959
 11
168.599976
 21
95.737541
  0
LINE
  8
0
 10
164.399994
 20
95.737587
 11
166.499985
 21
96.950020
  0
LINE
  8
0
 10
168.849640
 20
95.051613
 11
168.599960
 21
95.737602
  0
LINE
  8
0
 10
164.284943
 20
95.085274
 11
164.399948
 21
95.737541
  0
LINE
  8
0
 10
176.026245
 20
91.450020
 11
176.026245
 21
89.025154
  0
LINE
  8
0
 10
173.926270
 20
92.662407
 11
176.026260
 21
91.449974
  0
LINE
  8
0
 10
175.557053
 20
88.465919
 11
176.026291
 21
89.025139
  0
LINE
  8
0
 10
173.303833
 20
92.435951
 11
173.926208
 21
92.662468
  0
LINE
  8
0
 10
176.026260
 20
80.450035
 11
173.926270
 21
79.237602
  0
LINE
  8
0
 10
176.026245
 20
82.874886
 11
176.026245
 21
80.450020
  0
LINE
  8
0
 10
173.207291
 20
79.364296
 11
173.926208
 21
79.237526
  0
LINE
  8
0
 10
175.518860
 20
83.300606
 11
176.026215
 21
82.874886
  0
LINE
  8
0
 10
166.499985
 20
74.950005
 11
164.399979
 21
76.162437
  0
LINE
  8
0
 10
168.599976
 20
76.162468
 11
166.499985
 21
74.950035
  0
LINE
  8
0
 10
164.150238
 20
76.848457
 11
164.399918
 21
76.162468
  0
LINE
  8
0
 10
168.714951
 20
76.814690
 11
168.599945
 21
76.162422
  0
LINE
  8
0
 10
156.973694
 20
80.450020
 11
156.973694
 21
82.874886
  0
LINE
  8
0
 10
159.073700
 20
79.237572
 11
156.973709
 21
80.450005
  0
LINE
  8
0
 10
157.442947
 20
83.434151
 11
156.973709
 21
82.874931
  0
LINE
  8
0
 10
159.696045
 20
79.464134
 11
159.073669
 21
79.237602
  0
LINE
  8
0
 10
156.973709
 20
91.450020
 11
159.073700
 21
92.662453
  0
LINE
  8
0
 10
156.973694
 20
89.025154
 11
156.973694
 21
91.450020
  0
LINE
  8
0
 10
159.792587
 20
92.535637
 11
159.073669
 21
92.662392
  0
LINE
  8
0
 10
157.481049
 20
88.599403
 11
156.973694
 21
89.025139
  0
LINE
  8
0
 10
175.185455
 20
92.700020
 11
180.249969
 21
92.700020
  0
LINE
  8
0
 10
176.166290
 20
91.200020
 11
180.249969
 21
91.200020
  0
LINE
  8
0
 10
177.267395
 20
88.200020
 11
180.249969
 21
88.200020
  0
LINE
  8
0
 10
177.474365
 20
86.700020
 11
180.249969
 21
86.700020
  0
LINE
  8
0
 10
177.474365
 20
85.200020
 11
180.249969
 21
85.200020
  0
LINE
  8
0
 10
177.267395
 20
83.700020
 11
180.249969
 21
83.700020
  0
LINE
  8
0
 10
176.166290
 20
80.700020
 11
180.249969
 21
80.700020
  0
LINE
  8
0
 10
175.185455
 20
79.200020
 11
180.249969
 21
79.200020
  0
LINE
  8
0
 10
173.775787
 20
77.700020
 11
180.249969
 21
77.700020
  0
LINE
  8
0
 10
171.592865
 20
76.200020
 11
180.249969
 21
76.200020
  0
LINE
  8
0
 10
153.641449
 20
85.950020
 11
178.951050
 21
85.950020
  0
LINE
  8
0
 10
145.149963
 20
34.299995
 11
145.149963
 21
63.000008
  0
LINE
  8
0
 10
187.849976
 20
34.299995
 11
187.849976
 21
63.000008
  0
ARC
  8
0
 10
41.000004
 20
9.999977
 40
2.000000
 50
0.000000
 51
90.000000
  0
ARC
  8
0
 10
33.000004
 20
9.999977
 40
2.000000
 50
90.000000
 51
180.000000
  0
ARC
  8
0
 10
33.000004
 20
-48.000023
 40
2.000000
 50
180.000000
 51
270.000000
  0
ARC
  8
0
 10
41.000004
 20
-48.000023
 40
2.000000
 50
270.000000
 51
0.000000
  0
ARC
  8
0
 10
41.000004
 20
9.999977
 40
1.000000
 50
0.000000
 51
90.000000
  0
ARC
  8
0
 10
33.000004
 20
9.999977
 40
1.000000
 50
90.000000
 51
180.000000
  0
ARC
  8
0
 10
33.000004
 20
-48.000023
 40
1.000000
 50
180.000000
 51
270.000000
  0
ARC
  8
0
 10
41.000004
 20
-48.000023
 40
1.000000
 50
270.000000
 51
0.000000
  0
ARC
  8
0
 10
50.000004
 20
52.499977
 40
3.000000
 50
0.000000
 51
90.000000
  0
ARC
  8
0
 10
24.000004
 20
52.499977
 40
3.000000
 50
90.000076
 51
180.000000
  0
ARC
  8
0
 10
17.500004
 20
29.999977
 40
1.500000
 50
90.000000
 51
180.000000
  0
ARC
  8
0
 10
17.500004
 20
-68.000023
 40
1.500000
 50
180.000000
 51
270.000000
  0
ARC
  8
0
 10
56.500004
 20
-68.000023
 40
1.500000
 50
270.000000
 51
0.000000
  0
ARC
  8
0
 10
56.500004
 20
29.999977
 40
1.500000
 50
0.000000
 51
90.000000
  0
CIRCLE
  8
0
 10
54.250004
 20
-35.500023
 40
3.500000
  0
ARC
  8
0
 10
54.250004
 20
-35.500023
 40
4.000000
 50
90.000000
 51
270.000000
  0
CIRCLE
  8
0
 10
54.250004
 20
-2.500023
 40
3.500000
  0
ARC
  8
0
 10
54.250004
 20
-2.500023
 40
4.000000
 50
90.000000
 51
270.000000
  0
CIRCLE
  8
0
 10
19.750004
 20
-35.500023
 40
3.500000
  0
ARC
  8
0
 10
19.750004
 20
-35.500023
 40
4.000000
 50
269.999939
 51
89.999947
  0
ARC
  8
0
 10
19.750004
 20
-2.500023
 40
4.000000
 50
269.999939
 51
89.999947
  0
ARC
  8
0
 10
-23.999996
 20
-76.999992
 40
2.000000
 50
180.000000
 51
269.999939
  0
ARC
  8
0
 10
-23.999996
 20
-62.999992
 40
2.000000
 50
90.000053
 51
180.000000
  0
ARC
  8
0
 10
-23.999996
 20
28.000008
 40
2.000000
 50
180.000000
 51
269.999939
  0
ARC
  8
0
 10
-23.999996
 20
42.000008
 40
2.000000
 50
90.000053
 51
180.000000
  0
ARC
  8
0
 10
-13.000027
 20
-59.999992
 40
1.000000
 50
270.000000
 51
0.000000
  0
ARC
  8
0
 10
-12.999996
 20
25.000008
 40
1.000000
 50
0.000000
 51
89.999893
  0
ARC
  8
0
 10
-24.999996
 20
-64.499992
 40
1.000000
 50
180.000000
 51
270.000000
  0
ARC
  8
0
 10
-19.999996
 20
-69.999992
 40
4.500000
 50
269.999939
 51
89.999924
  0
ARC
  8
0
 10
-24.999996
 20
29.500008
 40
1.000000
 50
90.000000
 51
180.000000
  0
ARC
  8
0
 10
-24.999996
 20
40.500008
 40
1.000000
 50
180.000000
 51
270.000000
  0
ARC
  8
0
 10
-19.999996
 20
35.000008
 40
4.500000
 50
269.999939
 51
89.999924
  0
ARC
  8
0
 10
-24.999996
 20
-75.499992
 40
1.000000
 50
90.000000
 51
180.000000
  0
ARC
  8
0
 10
-9.000027
 20
-75.999992
 40
3.000000
 50
180.000000
 51
269.999969
  0
ARC
  8
0
 10
213.000000
 20
-75.999992
 40
3.000000
 50
270.000000
 51
359.999847
  0
ARC
  8
0
 10
228.999969
 20
-75.499992
 40
1.000000
 50
0.000000
 51
90.000000
  0
ARC
  8
0
 10
224.000000
 20
35.000008
 40
4.500000
 50
90.000000
 51
270.000000
  0
ARC
  8
0
 10
229.000000
 20
40.500008
 40
1.000000
 50
270.000000
 51
0.000000
  0
ARC
  8
0
 10
229.000000
 20
29.500008
 40
1.000000
 50
0.000000
 51
90.000000
  0
ARC
  8
0
 10
223.999969
 20
-69.999992
 40
4.500000
 50
90.000000
 51
270.000000
  0
ARC
  8
0
 10
228.999969
 20
-64.499992
 40
1.000000
 50
270.000000
 51
0.000000
  0
ARC
  8
0
 10
217.000000
 20
25.000008
 40
1.000000
 50
90.000000
 51
180.000000
  0
ARC
  8
0
 10
217.000000
 20
-59.999992
 40
1.000000
 50
180.000000
 51
270.000000
  0
ARC
  8
0
 10
228.000000
 20
42.000008
 40
2.000000
 50
0.000000
 51
90.000000
  0
ARC
  8
0
 10
228.000000
 20
28.000008
 40
2.000000
 50
270.000000
 51
0.000000
  0
ARC
  8
0
 10
227.999969
 20
-62.999992
 40
2.000000
 50
359.999878
 51
90.000000
  0
ARC
  8
0
 10
227.999969
 20
-76.999992
 40
2.000000
 50
270.000000
 51
0.000000
  0
ARC
  8
0
 10
105.750000
 20
-2.500023
 40
4.000000
 50
270.000000
 51
89.999779
  0
CIRCLE
  8
0
 10
105.750000
 20
-2.500023
 40
3.500000
  0
ARC
  8
0
 10
127.000000
 20
9.999977
 40
2.000000
 50
0.000000
 51
90.000000
  0
ARC
  8
0
 10
119.000000
 20
9.999977
 40
2.000000
 50
90.000000
 51
180.000000
  0
ARC
  8
0
 10
119.000000
 20
-48.000023
 40
2.000000
 50
180.000000
 51
270.000000
  0
ARC
  8
0
 10
127.000000
 20
-48.000023
 40
2.000000
 50
270.000000
 51
0.000000
  0
ARC
  8
0
 10
127.000000
 20
9.999977
 40
1.000000
 50
0.000000
 51
90.000000
  0
ARC
  8
0
 10
119.000000
 20
9.999977
 40
1.000000
 50
90.000000
 51
180.000000
  0
ARC
  8
0
 10
119.000000
 20
-48.000023
 40
1.000000
 50
180.000000
 51
270.000000
  0
ARC
  8
0
 10
127.000000
 20
-48.000023
 40
1.000000
 50
270.000000
 51
0.000000
  0
ARC
  8
0
 10
136.000000
 20
52.499977
 40
3.000000
 50
0.000000
 51
90.000000
  0
ARC
  8
0
 10
110.000000
 20
52.499977
 40
3.000000
 50
90.000000
 51
180.000000
  0
ARC
  8
0
 10
110.000000
 20
-90.500023
 40
3.000000
 50
180.000000
 51
270.000000
  0
ARC
  8
0
 10
136.000000
 20
-90.500023
 40
3.000000
 50
270.000000
 51
0.000000
  0
ARC
  8
0
 10
103.500000
 20
29.999977
 40
1.500000
 50
90.000000
 51
180.000000
  0
ARC
  8
0
 10
103.500000
 20
-68.000023
 40
1.500000
 50
180.000000
 51
270.000000
  0
ARC
  8
0
 10
142.500000
 20
-68.000023
 40
1.500000
 50
270.000000
 51
0.000000
  0
ARC
  8
0
 10
142.500000
 20
29.999977
 40
1.500000
 50
0.000000
 51
90.000000
  0
CIRCLE
  8
0
 10
148.750000
 20
-2.500023
 40
3.500000
  0
ARC
  8
0
 10
140.250000
 20
-35.500023
 40
4.000000
 50
90.000000
 51
270.000000
  0
CIRCLE
  8
0
 10
140.250000
 20
-2.500023
 40
3.500000
  0
ARC
  8
0
 10
140.250000
 20
-2.500023
 40
4.000000
 50
90.000000
 51
270.000000
  0
CIRCLE
  8
0
 10
105.750000
 20
-35.500023
 40
3.500000
  0
ARC
  8
0
 10
105.750000
 20
-35.500023
 40
4.000000
 50
270.000000
 51
89.999779
  0
ARC
  8
0
 10
62.750004
 20
-2.500023
 40
4.000000
 50
270.000000
 51
89.999893
  0
CIRCLE
  8
0
 10
62.750004
 20
-2.500023
 40
3.500000
  0
ARC
  8
0
 10
84.000000
 20
9.999977
 40
2.000000
 50
0.000000
 51
90.000000
  0
ARC
  8
0
 10
76.000000
 20
9.999977
 40
2.000000
 50
90.000000
 51
180.000000
  0
ARC
  8
0
 10
76.000000
 20
-48.000023
 40
2.000000
 50
180.000000
 51
270.000000
  0
ARC
  8
0
 10
84.000000
 20
-48.000023
 40
2.000000
 50
270.000000
 51
0.000000
  0
ARC
  8
0
 10
84.000000
 20
9.999977
 40
1.000000
 50
0.000000
 51
90.000000
  0
ARC
  8
0
 10
76.000000
 20
9.999977
 40
1.000000
 50
90.000000
 51
180.000000
  0
ARC
  8
0
 10
76.000000
 20
-48.000023
 40
1.000000
 50
180.000000
 51
270.000000
  0
ARC
  8
0
 10
84.000000
 20
-48.000023
 40
1.000000
 50
270.000000
 51
0.000000
  0
ARC
  8
0
 10
93.000000
 20
52.499977
 40
3.000000
 50
0.000000
 51
90.000000
  0
ARC
  8
0
 10
67.000000
 20
52.499977
 40
3.000000
 50
90.000000
 51
180.000000
  0
ARC
  8
0
 10
67.000000
 20
-90.500023
 40
3.000000
 50
180.000000
 51
270.000000
  0
ARC
  8
0
 10
93.000000
 20
-90.500023
 40
3.000000
 50
270.000000
 51
0.000000
  0
ARC
  8
0
 10
60.500004
 20
29.999977
 40
1.500000
 50
90.000000
 51
180.000000
  0
ARC
  8
0
 10
60.500004
 20
-68.000023
 40
1.500000
 50
180.000000
 51
270.000000
  0
ARC
  8
0
 10
99.500000
 20
-68.000023
 40
1.500000
 50
270.000000
 51
0.000000
  0
ARC
  8
0
 10
99.500000
 20
29.999977
 40
1.500000
 50
0.000000
 51
90.000000
  0
CIRCLE
  8
0
 10
97.250000
 20
-35.500023
 40
3.500000
  0
ARC
  8
0
 10
97.250000
 20
-35.500023
 40
4.000000
 50
90.000000
 51
270.000000
  0
CIRCLE
  8
0
 10
97.250000
 20
-2.500023
 40
3.500000
  0
ARC
  8
0
 10
97.250000
 20
-2.500023
 40
4.000000
 50
90.000000
 51
270.000000
  0
CIRCLE
  8
0
 10
62.750004
 20
-35.500023
 40
3.500000
  0
ARC
  8
0
 10
62.750004
 20
-35.500023
 40
4.000000
 50
270.000000
 51
89.999893
  0
CIRCLE
  8
0
 10
19.750004
 20
-2.500023
 40
3.500000
  0
CIRCLE
  8
0
 10
140.250000
 20
-35.500023
 40
3.500000
  0
CIRCLE
  8
0
 10
183.250000
 20
-35.500023
 40
3.500000
  0
CIRCLE
  8
0
 10
148.749969
 20
-35.500023
 40
3.500000
  0
CIRCLE
  8
0
 10
183.250000
 20
-2.500023
 40
3.500000
  0
ARC
  8
0
 10
-9.000027
 20
41.000008
 40
3.000000
 50
89.999985
 51
180.000000
  0
ARC
  8
0
 10
213.000000
 20
41.000008
 40
3.000000
 50
0.000000
 51
90.000000
  0
ARC
  8
0
 10
19.149967
 20
63.000008
 40
3.000000
 50
90.000000
 51
180.000000
  0
ARC
  8
0
 10
55.849979
 20
63.000008
 40
3.000000
 50
0.000000
 51
90.000000
  0
ARC
  8
0
 10
26.749973
 20
94.200020
 40
3.000000
 50
90.000000
 51
180.000000
  0
ARC
  8
0
 10
48.249973
 20
94.200020
 40
3.000000
 50
0.000000
 51
90.000000
  0
CIRCLE
  8
0
 10
37.499973
 20
85.950020
 40
11.000000
  0
CIRCLE
  8
0
 10
37.499973
 20
85.950020
 40
6.500000
  0
ARC
  8
0
 10
37.499973
 20
85.950020
 40
9.400002
 50
0.000000
 51
15.524313
  0
CIRCLE
  8
0
 10
37.499973
 20
85.950020
 40
3.799999
  0
ARC
  8
0
 10
37.499973
 20
85.950020
 40
9.399994
 50
43.629177
 51
75.524353
  0
ARC
  8
0
 10
37.499973
 20
85.950020
 40
9.399994
 50
103.629211
 51
135.095428
  0
ARC
  8
0
 10
37.499973
 20
85.950020
 40
9.400000
 50
163.629196
 51
195.524414
  0
ARC
  8
0
 10
37.499973
 20
85.950020
 40
9.399994
 50
223.629181
 51
255.524216
  0
ARC
  8
0
 10
37.499973
 20
85.950020
 40
9.399994
 50
283.629211
 51
315.524231
  0
ARC
  8
0
 10
37.499973
 20
85.950020
 40
9.400001
 50
343.629578
 51
0.000000
  0
ARC
  8
0
 10
62.149967
 20
63.000008
 40
3.000000
 50
90.000000
 51
180.000000
  0
ARC
  8
0
 10
98.849976
 20
63.000008
 40
3.000000
 50
0.000000
 51
90.000000
  0
ARC
  8
0
 10
69.749969
 20
94.200020
 40
3.000000
 50
90.000000
 51
180.000000
  0
ARC
  8
0
 10
91.249969
 20
94.200020
 40
3.000000
 50
0.000000
 51
90.000000
  0
CIRCLE
  8
0
 10
80.499969
 20
85.950020
 40
11.000000
  0
CIRCLE
  8
0
 10
80.499969
 20
85.950020
 40
6.500000
  0
ARC
  8
0
 10
80.499969
 20
85.950020
 40
9.400009
 50
0.000000
 51
15.524301
  0
CIRCLE
  8
0
 10
80.499969
 20
85.950020
 40
3.799999
  0
ARC
  8
0
 10
80.499969
 20
85.950020
 40
9.399994
 50
43.629177
 51
75.524376
  0
ARC
  8
0
 10
80.499969
 20
85.950020
 40
9.399995
 50
103.629234
 51
135.095428
  0
ARC
  8
0
 10
80.499969
 20
85.950020
 40
9.400002
 50
163.629196
 51
195.524414
  0
ARC
  8
0
 10
80.499969
 20
85.950020
 40
9.399994
 50
223.629181
 51
255.524261
  0
ARC
  8
0
 10
80.499969
 20
85.950020
 40
9.399995
 50
283.629242
 51
315.524231
  0
ARC
  8
0
 10
80.499969
 20
85.950020
 40
9.400001
 50
343.629578
 51
0.000000
  0
ARC
  8
0
 10
105.149963
 20
63.000008
 40
3.000000
 50
90.000000
 51
180.000000
  0
ARC
  8
0
 10
141.849976
 20
63.000008
 40
3.000000
 50
0.000000
 51
90.000000
  0
ARC
  8
0
 10
112.749969
 20
94.200020
 40
3.000000
 50
90.000000
 51
180.000000
  0
ARC
  8
0
 10
134.249969
 20
94.200020
 40
3.000000
 50
0.000000
 51
90.000000
  0
CIRCLE
  8
0
 10
123.499969
 20
85.950020
 40
11.000000
  0
CIRCLE
  8
0
 10
123.499969
 20
85.950020
 40
6.500000
  0
ARC
  8
0
 10
123.499969
 20
85.950020
 40
9.399994
 50
0.000000
 51
15.524325
  0
CIRCLE
  8
0
 10
123.499969
 20
85.950020
 40
3.799999
  0
ARC
  8
0
 10
123.499969
 20
85.950020
 40
9.399994
 50
43.629177
 51
75.524376
  0
ARC
  8
0
 10
123.499969
 20
85.950020
 40
9.399995
 50
103.629234
 51
135.095428
  0
ARC
  8
0
 10
123.499969
 20
85.950020
 40
9.400002
 50
163.629196
 51
195.524414
  0
ARC
  8
0
 10
123.499969
 20
85.950020
 40
9.399994
 50
223.629181
 51
255.524170
  0
ARC
  8
0
 10
123.499969
 20
85.950020
 40
9.399995
 50
283.629242
 51
315.524231
  0
ARC
  8
0
 10
123.499969
 20
85.950020
 40
9.400001
 50
343.629578
 51
0.000000
  0
ARC
  8
0
 10
148.149963
 20
63.000008
 40
3.000000
 50
90.000000
 51
180.000000
  0
ARC
  8
0
 10
184.849976
 20
63.000008
 40
3.000000
 50
0.000000
 51
90.000000
  0
ARC
  8
0
 10
155.749969
 20
94.200020
 40
3.000000
 50
90.000000
 51
180.000000
  0
ARC
  8
0
 10
177.249969
 20
94.200020
 40
3.000000
 50
0.000000
 51
90.000000
  0
CIRCLE
  8
0
 10
166.499969
 20
85.950020
 40
11.000000
  0
CIRCLE
  8
0
 10
166.499969
 20
85.950020
 40
6.500000
  0
ARC
  8
0
 10
166.499969
 20
85.950020
 40
9.399994
 50
0.000000
 51
15.524325
  0
CIRCLE
  8
0
 10
166.499969
 20
85.950020
 40
3.799999
  0
ARC
  8
0
 10
166.499969
 20
85.950020
 40
9.399994
 50
43.629177
 51
75.524376
  0
ARC
  8
0
 10
166.499969
 20
85.950020
 40
9.399995
 50
103.629234
 51
135.095428
  0
ARC
  8
0
 10
166.499969
 20
85.950020
 40
9.400002
 50
163.629196
 51
195.524414
  0
ARC
  8
0
 10
166.499969
 20
85.950020
 40
9.399994
 50
223.629181
 51
255.524170
  0
ARC
  8
0
 10
166.499969
 20
85.950020
 40
9.399995
 50
283.629242
 51
315.524231
  0
ARC
  8
0
 10
166.499969
 20
85.950020
 40
9.400001
 50
343.629578
 51
0.000000
  0
TEXT
  8
0
 10
22.692747
 20
-51.840023
 40
2.400000
  1
B
 50
180.000000
 41
1.052632
 51
0.000000
  7
STANDARD
  0
TEXT
  8
0
 10
51.307259
 20
13.839977
 40
2.400000
  1
A
 50
0.000000
 41
1.052632
 51
0.000000
  7
STANDARD
  0
TEXT
  8
0
 10
108.692741
 20
-51.840023
 40
2.400000
  1
B
 50
180.000000
 41
1.052632
 51
0.000000
  7
STANDARD
  0
TEXT
  8
0
 10
137.307251
 20
13.839977
 40
2.400000
  1
A
 50
0.000000
 41
1.052632
 51
0.000000
  7
STANDARD
  0
TEXT
  8
0
 10
65.692741
 20
-51.840023
 40
2.400000
  1
B
 50
180.000000
 41
1.052632
 51
0.000000
  7
STANDARD
  0
TEXT
  8
0
 10
94.307259
 20
13.839977
 40
2.400000
  1
A
 50
0.000000
 41
1.052632
 51
0.000000
  7
STANDARD
  0
POINT
  8
0
 10
-19.999996
 20
239.999954
  0
POINT
  8
0
 10
224.000000
 20
239.999954
  0
LINE
  8
0
 10
179.749908
 20
158.400101
 11
186.749908
 21
158.400101
  0
LINE
  8
0
 10
183.249908
 20
157.637405
 11
183.249908
 21
164.005325
  0
LINE
  8
0
 10
186.749908
 20
158.400101
 11
186.749908
 21
162.400101
  0
LINE
  8
0
 10
179.749908
 20
158.400101
 11
179.749908
 21
162.400101
  0
LINE
  8
0
 10
187.999908
 20
204.731995
 11
189.499908
 21
203.865967
  0
LINE
  8
0
 10
189.499908
 20
202.133987
 11
189.499908
 21
203.866165
  0
LINE
  8
0
 10
188.000229
 20
201.267120
 11
189.500351
 21
202.133209
  0
LINE
  8
0
 10
144.999969
 20
167.400101
 11
157.999969
 21
167.400101
  0
LINE
  8
0
 10
15.999973
 20
168.999954
 11
15.999973
 21
195.749954
  0
LINE
  8
0
 10
-25.000027
 20
227.999954
 11
-9.000027
 21
227.999954
  0
LINE
  8
0
 10
-26.000027
 20
228.999954
 11
-26.000027
 21
239.999954
  0
LINE
  8
0
 10
-26.000027
 20
239.999954
 11
15.999973
 21
239.999954
  0
LINE
  8
0
 10
-12.000027
 20
171.999954
 11
-12.000027
 21
226.999954
  0
LINE
  8
0
 10
15.999973
 20
195.499954
 11
7.999973
 21
195.499954
  0
LINE
  8
0
 10
15.999973
 20
210.499954
 11
7.999973
 21
210.499954
  0
LINE
  8
0
 10
7.999973
 20
210.499954
 11
7.999973
 21
195.499954
  0
LINE
  8
0
 10
195.999908
 20
210.499954
 11
195.999908
 21
195.499954
  0
LINE
  8
0
 10
187.999908
 20
210.499954
 11
195.999908
 21
210.499954
  0
LINE
  8
0
 10
187.999908
 20
195.499954
 11
195.999908
 21
195.499954
  0
LINE
  8
0
 10
215.999908
 20
171.999954
 11
215.999908
 21
226.999954
  0
LINE
  8
0
 10
212.999908
 20
168.999954
 11
174.999969
 21
168.999954
  0
LINE
  8
0
 10
229.999908
 20
239.999954
 11
187.999908
 21
239.999954
  0
LINE
  8
0
 10
229.999908
 20
228.999954
 11
229.999908
 21
239.999954
  0
LINE
  8
0
 10
228.999908
 20
227.999954
 11
212.999908
 21
227.999954
  0
LINE
  8
0
 10
143.499969
 20
203.865936
 11
144.999969
 21
204.731964
  0
LINE
  8
0
 10
143.500000
 20
202.133987
 11
143.500000
 21
203.866165
  0
LINE
  8
0
 10
144.999802
 20
201.267715
 11
143.499817
 21
202.133728
  0
LINE
  8
0
 10
15.999973
 20
210.249954
 11
15.999973
 21
239.999954
  0
LINE
  8
0
 10
195.249908
 20
195.749954
 11
195.249908
 21
210.249954
  0
LINE
  8
0
 10
187.999908
 20
207.499954
 11
195.249908
 21
207.499954
  0
LINE
  8
0
 10
187.999908
 20
198.499954
 11
195.249908
 21
198.499954
  0
LINE
  8
0
 10
8.749973
 20
198.499954
 11
15.999973
 21
198.499954
  0
LINE
  8
0
 10
8.749973
 20
207.499954
 11
15.999973
 21
207.499954
  0
LINE
  8
0
 10
8.749973
 20
210.249954
 11
15.999973
 21
210.249954
  0
LINE
  8
0
 10
8.749973
 20
195.749954
 11
15.999973
 21
195.749954
  0
LINE
  8
0
 10
8.749973
 20
195.749954
 11
8.749973
 21
210.249954
  0
LINE
  8
0
 10
187.999908
 20
202.999954
 11
192.999908
 21
202.999954
  0
LINE
  8
0
 10
187.999908
 20
197.999954
 11
187.999908
 21
207.999954
  0
LINE
  8
0
 10
144.999969
 20
197.999954
 11
144.999969
 21
207.999954
  0
LINE
  8
0
 10
139.999969
 20
202.999954
 11
149.646011
 21
202.999954
  0
LINE
  8
0
 10
223.999908
 20
224.702347
 11
223.999908
 21
242.908157
  0
LINE
  8
0
 10
-20.000027
 20
225.477005
 11
-20.000027
 21
244.070267
  0
LINE
  8
0
 10
144.999969
 20
162.400101
 11
144.999969
 21
168.999954
  0
LINE
  8
0
 10
186.999908
 20
162.400101
 11
186.999908
 21
168.999954
  0
LINE
  8
0
 10
144.999969
 20
162.400101
 11
155.499969
 21
162.400101
  0
LINE
  8
0
 10
145.249969
 20
158.400101
 11
152.249969
 21
158.400101
  0
LINE
  8
0
 10
148.749969
 20
157.637405
 11
148.749969
 21
164.005325
  0
LINE
  8
0
 10
152.249969
 20
158.400101
 11
152.249969
 21
162.400101
  0
LINE
  8
0
 10
145.249969
 20
158.400101
 11
145.249969
 21
162.400101
  0
LINE
  8
0
 10
28.999973
 20
168.999954
 11
-9.000027
 21
168.999954
  0
LINE
  8
0
 10
187.999908
 20
239.999954
 11
187.999908
 21
237.768173
  0
LINE
  8
0
 10
165.999969
 20
173.218307
 11
165.999969
 21
155.628036
  0
LINE
  8
0
 10
58.999973
 20
210.249954
 11
58.999973
 21
238.199966
  0
LINE
  8
0
 10
15.999973
 20
238.199966
 11
58.999973
 21
238.199966
  0
LINE
  8
0
 10
145.000183
 20
201.267181
 11
146.500168
 21
202.133194
  0
LINE
  8
0
 10
146.500000
 20
202.133926
 11
146.500000
 21
203.865982
  0
LINE
  8
0
 10
144.999908
 20
204.731964
 11
146.499893
 21
203.865952
  0
LINE
  8
0
 10
15.999973
 20
198.499954
 11
16.149967
 21
198.499954
  0
LINE
  8
0
 10
15.999973
 20
207.499954
 11
16.149967
 21
207.499954
  0
LINE
  8
0
 10
15.999973
 20
210.249954
 11
16.149967
 21
210.249954
  0
LINE
  8
0
 10
15.999973
 20
195.749954
 11
16.149967
 21
195.749954
  0
LINE
  8
0
 10
58.999973
 20
169.199966
 11
58.999973
 21
195.749954
  0
LINE
  8
0
 10
101.999969
 20
210.249954
 11
101.999969
 21
238.199966
  0
LINE
  8
0
 10
80.499969
 20
164.208817
 11
80.499969
 21
243.295547
  0
LINE
  8
0
 10
58.999973
 20
238.199966
 11
101.999969
 21
238.199966
  0
LINE
  8
0
 10
58.999973
 20
197.999954
 11
58.999973
 21
207.999954
  0
LINE
  8
0
 10
101.999969
 20
169.199966
 11
101.999969
 21
195.749954
  0
LINE
  8
0
 10
144.999969
 20
210.249954
 11
144.999969
 21
238.199966
  0
LINE
  8
0
 10
101.999969
 20
238.199966
 11
144.999969
 21
238.199966
  0
LINE
  8
0
 10
101.999969
 20
197.999954
 11
101.999969
 21
207.999954
  0
LINE
  8
0
 10
144.999969
 20
168.999954
 11
144.999969
 21
195.749954
  0
LINE
  8
0
 10
157.999969
 20
168.999954
 11
163.717636
 21
168.999954
  0
LINE
  8
0
 10
187.999741
 20
201.267136
 11
186.499771
 21
202.133148
  0
LINE
  8
0
 10
186.499939
 20
202.133926
 11
186.499939
 21
203.865982
  0
LINE
  8
0
 10
188.000076
 20
204.731949
 11
186.500092
 21
203.865936
  0
LINE
  8
0
 10
187.999969
 20
210.249954
 11
187.999969
 21
238.199966
  0
LINE
  8
0
 10
187.999969
 20
197.999954
 11
187.999969
 21
207.999954
  0
LINE
  8
0
 10
187.999969
 20
202.999954
 11
182.999969
 21
202.999954
  0
LINE
  8
0
 10
166.499969
 20
164.208817
 11
166.499969
 21
243.295547
  0
LINE
  8
0
 10
144.999969
 20
238.199966
 11
187.999969
 21
238.199966
  0
LINE
  8
0
 10
144.999969
 20
197.999954
 11
144.999969
 21
207.999954
  0
LINE
  8
0
 10
187.999969
 20
168.999954
 11
187.999969
 21
195.749954
  0
LINE
  8
0
 10
37.499973
 20
164.208817
 11
37.499973
 21
243.295547
  0
LINE
  8
0
 10
15.999905
 20
204.731964
 11
17.499882
 21
203.865936
  0
LINE
  8
0
 10
14.499954
 20
203.865952
 11
15.999958
 21
204.731979
  0
LINE
  8
0
 10
14.500004
 20
202.133987
 11
14.500004
 21
203.866165
  0
LINE
  8
0
 10
15.999790
 20
201.267715
 11
14.499813
 21
202.133728
  0
LINE
  8
0
 10
15.999973
 20
197.999954
 11
15.999973
 21
207.999954
  0
LINE
  8
0
 10
10.999973
 20
202.999954
 11
20.646011
 21
202.999954
  0
LINE
  8
0
 10
16.000187
 20
201.267181
 11
17.500164
 21
202.133194
  0
LINE
  8
0
 10
17.500004
 20
202.133926
 11
17.500004
 21
203.865982
  0
LINE
  8
0
 10
58.999905
 20
204.731964
 11
60.499882
 21
203.865936
  0
LINE
  8
0
 10
57.499966
 20
203.865952
 11
58.999966
 21
204.731979
  0
LINE
  8
0
 10
57.500004
 20
202.133987
 11
57.500004
 21
203.866165
  0
LINE
  8
0
 10
58.999790
 20
201.267715
 11
57.499821
 21
202.133728
  0
LINE
  8
0
 10
58.999973
 20
197.999954
 11
58.999973
 21
207.999954
  0
LINE
  8
0
 10
53.999973
 20
202.999954
 11
63.646015
 21
202.999954
  0
LINE
  8
0
 10
59.000187
 20
201.267181
 11
60.500172
 21
202.133194
  0
LINE
  8
0
 10
60.500004
 20
202.133926
 11
60.500004
 21
203.865982
  0
LINE
  8
0
 10
101.999908
 20
204.731964
 11
103.499878
 21
203.865936
  0
LINE
  8
0
 10
100.499954
 20
203.865952
 11
101.999969
 21
204.731979
  0
LINE
  8
0
 10
100.500000
 20
202.133987
 11
100.500000
 21
203.866165
  0
LINE
  8
0
 10
101.999786
 20
201.267731
 11
100.499817
 21
202.133728
  0
LINE
  8
0
 10
101.999969
 20
197.999954
 11
101.999969
 21
207.999954
  0
LINE
  8
0
 10
96.999969
 20
202.999954
 11
106.646011
 21
202.999954
  0
LINE
  8
0
 10
102.000198
 20
201.267181
 11
103.500168
 21
202.133194
  0
LINE
  8
0
 10
103.500000
 20
202.133926
 11
103.500000
 21
203.865982
  0
LINE
  8
0
 10
45.999973
 20
168.999954
 11
71.999969
 21
168.999954
  0
LINE
  8
0
 10
88.999969
 20
168.999954
 11
114.999969
 21
168.999954
  0
LINE
  8
0
 10
131.999969
 20
168.999954
 11
157.999969
 21
168.999954
  0
LINE
  8
0
 10
174.999969
 20
167.400101
 11
186.999908
 21
167.400101
  0
LINE
  8
0
 10
177.499969
 20
162.400101
 11
186.999908
 21
162.400101
  0
ARC
  8
0
 10
187.999908
 20
202.999954
 40
3.500000
 50
270.000000
 51
90.000000
  0
ARC
  8
0
 10
-9.000027
 20
171.999954
 40
3.000000
 50
180.000000
 51
270.000031
  0
ARC
  8
0
 10
-13.000027
 20
226.999954
 40
1.000000
 50
0.000000
 51
90.000000
  0
ARC
  8
0
 10
-25.000027
 20
228.999954
 40
1.000000
 50
180.000000
 51
270.000000
  0
ARC
  8
0
 10
212.999908
 20
171.999954
 40
3.000000
 50
270.000000
 51
0.000000
  0
ARC
  8
0
 10
216.999908
 20
226.999954
 40
1.000000
 50
90.000000
 51
180.000000
  0
ARC
  8
0
 10
228.999908
 20
228.999954
 40
1.000000
 50
270.000000
 51
0.000000
  0
ARC
  8
0
 10
57.849979
 20
237.199966
 40
1.000000
 50
0.000000
 51
90.000000
  0
ARC
  8
0
 10
17.149967
 20
237.199966
 40
1.000000
 50
90.000000
 51
180.000000
  0
CIRCLE
  8
0
 10
15.999973
 20
202.999954
 40
3.500000
  0
ARC
  8
0
 10
100.849976
 20
237.199966
 40
1.000000
 50
0.000000
 51
90.000000
  0
ARC
  8
0
 10
60.149967
 20
237.199966
 40
1.000000
 50
90.000000
 51
180.000000
  0
ARC
  8
0
 10
143.849976
 20
237.199966
 40
1.000000
 50
0.000000
 51
90.000000
  0
ARC
  8
0
 10
103.149963
 20
237.199966
 40
1.000000
 50
90.000000
 51
180.000000
  0
ARC
  8
0
 10
187.999969
 20
202.999954
 40
3.500000
 50
90.000000
 51
270.000000
  0
ARC
  8
0
 10
186.849976
 20
237.199966
 40
1.000000
 50
0.000000
 51
90.000000
  0
ARC
  8
0
 10
146.149963
 20
237.199966
 40
1.000000
 50
90.000000
 51
180.000000
  0
POINT
  8
0
 10
15.999973
 20
202.999954
  0
LINE
  8
0
 10
19.149967
 20
228.199966
 11
55.849979
 21
228.199966
  0
LINE
  8
0
 10
16.149967
 20
206.997147
 11
16.149967
 21
225.199966
  0
LINE
  8
0
 10
16.149967
 20
172.199966
 11
16.149967
 21
199.002762
  0
LINE
  8
0
 10
19.149967
 20
169.199966
 11
26.588535
 21
169.199966
  0
LINE
  8
0
 10
58.849979
 20
172.199966
 11
58.849979
 21
199.002762
  0
LINE
  8
0
 10
58.849979
 20
206.997147
 11
58.849979
 21
225.199966
  0
LINE
  8
0
 10
17.132267
 20
176.499954
 11
25.360630
 21
176.499954
  0
LINE
  8
0
 10
22.272671
 20
177.348465
 11
21.848400
 21
176.924194
  0
LINE
  8
0
 10
21.848412
 20
177.772720
 11
21.424141
 21
177.348450
  0
LINE
  8
0
 10
20.999973
 20
172.453995
 11
20.999973
 21
180.810928
  0
LINE
  8
0
 10
20.575729
 20
177.348511
 11
20.151463
 21
177.772781
  0
LINE
  8
0
 10
20.151436
 20
177.772751
 11
19.727169
 21
177.348480
  0
LINE
  8
0
 10
20.151478
 20
176.924286
 11
19.727211
 21
177.348557
  0
LINE
  8
0
 10
20.151360
 20
176.075668
 11
19.727089
 21
175.651398
  0
LINE
  8
0
 10
20.151451
 20
175.227188
 11
19.727184
 21
175.651459
  0
LINE
  8
0
 10
20.575619
 20
175.651413
 11
20.151348
 21
175.227142
  0
LINE
  8
0
 10
21.848530
 20
175.227234
 11
21.424263
 21
175.651505
  0
LINE
  8
0
 10
22.272694
 20
175.651459
 11
21.848423
 21
175.227188
  0
LINE
  8
0
 10
22.272781
 20
175.651459
 11
21.848515
 21
176.075729
  0
LINE
  8
0
 10
22.272789
 20
177.348541
 11
21.848522
 21
177.772812
  0
LINE
  8
0
 10
17.132267
 20
220.499954
 11
25.360630
 21
220.499954
  0
LINE
  8
0
 10
22.272667
 20
221.348465
 11
21.848400
 21
220.924194
  0
LINE
  8
0
 10
21.848412
 20
221.772720
 11
21.424145
 21
221.348450
  0
LINE
  8
0
 10
20.999973
 20
216.453995
 11
20.999973
 21
224.810928
  0
LINE
  8
0
 10
20.575726
 20
221.348511
 11
20.151459
 21
221.772781
  0
LINE
  8
0
 10
20.151432
 20
221.772766
 11
19.727165
 21
221.348495
  0
LINE
  8
0
 10
20.151478
 20
220.924286
 11
19.727207
 21
221.348557
  0
LINE
  8
0
 10
20.151360
 20
220.075668
 11
19.727093
 21
219.651398
  0
LINE
  8
0
 10
20.151447
 20
219.227188
 11
19.727180
 21
219.651459
  0
LINE
  8
0
 10
20.575615
 20
219.651413
 11
20.151348
 21
219.227142
  0
LINE
  8
0
 10
21.848530
 20
219.227234
 11
21.424259
 21
219.651505
  0
LINE
  8
0
 10
22.272690
 20
219.651459
 11
21.848419
 21
219.227203
  0
LINE
  8
0
 10
22.272778
 20
219.651459
 11
21.848511
 21
220.075729
  0
LINE
  8
0
 10
22.272785
 20
221.348541
 11
21.848515
 21
221.772812
  0
LINE
  8
0
 10
50.132267
 20
220.499954
 11
58.360630
 21
220.499954
  0
LINE
  8
0
 10
55.272671
 20
221.348465
 11
54.848400
 21
220.924210
  0
LINE
  8
0
 10
54.848408
 20
221.772720
 11
54.424137
 21
221.348450
  0
LINE
  8
0
 10
53.999973
 20
216.453995
 11
53.999973
 21
224.810928
  0
LINE
  8
0
 10
53.575733
 20
221.348511
 11
53.151463
 21
221.772781
  0
LINE
  8
0
 10
53.151432
 20
221.772766
 11
52.727161
 21
221.348495
  0
LINE
  8
0
 10
53.151478
 20
220.924286
 11
52.727207
 21
221.348557
  0
LINE
  8
0
 10
53.151356
 20
220.075668
 11
52.727085
 21
219.651398
  0
LINE
  8
0
 10
53.151447
 20
219.227188
 11
52.727184
 21
219.651459
  0
LINE
  8
0
 10
53.575619
 20
219.651428
 11
53.151348
 21
219.227158
  0
LINE
  8
0
 10
54.848530
 20
219.227234
 11
54.424259
 21
219.651505
  0
LINE
  8
0
 10
55.272694
 20
219.651459
 11
54.848423
 21
219.227203
  0
LINE
  8
0
 10
55.272785
 20
219.651459
 11
54.848515
 21
220.075729
  0
LINE
  8
0
 10
55.272785
 20
221.348541
 11
54.848515
 21
221.772812
  0
LINE
  8
0
 10
50.132267
 20
176.499954
 11
58.360630
 21
176.499954
  0
LINE
  8
0
 10
55.272671
 20
177.348465
 11
54.848400
 21
176.924194
  0
LINE
  8
0
 10
54.848408
 20
177.772720
 11
54.424137
 21
177.348450
  0
LINE
  8
0
 10
53.999973
 20
172.453995
 11
53.999973
 21
180.810928
  0
LINE
  8
0
 10
53.575733
 20
177.348511
 11
53.151463
 21
177.772781
  0
LINE
  8
0
 10
53.151432
 20
177.772766
 11
52.727169
 21
177.348480
  0
LINE
  8
0
 10
53.151478
 20
176.924286
 11
52.727215
 21
177.348557
  0
LINE
  8
0
 10
53.151356
 20
176.075668
 11
52.727085
 21
175.651398
  0
LINE
  8
0
 10
53.151447
 20
175.227188
 11
52.727184
 21
175.651459
  0
LINE
  8
0
 10
53.575619
 20
175.651413
 11
53.151348
 21
175.227142
  0
LINE
  8
0
 10
54.848530
 20
175.227234
 11
54.424267
 21
175.651505
  0
LINE
  8
0
 10
55.272694
 20
175.651459
 11
54.848423
 21
175.227188
  0
LINE
  8
0
 10
55.272785
 20
175.651459
 11
54.848515
 21
176.075729
  0
LINE
  8
0
 10
55.272793
 20
177.348541
 11
54.848522
 21
177.772812
  0
LINE
  8
0
 10
37.499973
 20
164.208817
 11
37.499973
 21
241.828110
  0
LINE
  8
0
 10
48.249973
 20
211.949966
 11
26.749973
 21
211.949966
  0
LINE
  8
0
 10
48.249973
 20
184.449966
 11
26.749973
 21
184.449966
  0
LINE
  8
0
 10
23.749973
 20
208.949966
 11
23.749973
 21
187.449966
  0
LINE
  8
0
 10
51.249973
 20
208.949966
 11
51.249973
 21
187.449966
  0
LINE
  8
0
 10
36.651520
 20
199.472778
 11
37.075768
 21
199.048523
  0
LINE
  8
0
 10
36.227253
 20
199.048553
 11
36.651497
 21
198.624298
  0
LINE
  8
0
 10
36.651478
 20
199.472778
 11
36.227207
 21
199.048523
  0
LINE
  8
0
 10
38.772793
 20
197.351471
 11
38.348522
 21
196.927200
  0
LINE
  8
0
 10
39.042858
 20
200.167145
 11
37.924278
 21
199.048569
  0
LINE
  8
0
 10
39.467091
 20
199.742859
 11
38.348515
 21
198.624283
  0
LINE
  8
0
 10
38.348572
 20
197.775726
 11
38.772839
 21
197.351456
  0
LINE
  8
0
 10
37.924305
 20
197.351501
 11
38.348572
 21
196.927231
  0
LINE
  8
0
 10
36.651470
 20
197.775757
 11
35.532871
 21
196.657166
  0
LINE
  8
0
 10
37.075706
 20
197.351486
 11
35.957104
 21
196.232880
  0
LINE
  8
0
 10
48.749973
 20
184.449966
 11
48.749973
 21
169.949966
  0
LINE
  8
0
 10
47.749973
 20
168.949966
 11
27.249973
 21
168.949966
  0
LINE
  8
0
 10
16.149967
 20
198.199966
 11
22.499973
 21
198.199966
  0
LINE
  8
0
 10
26.249973
 20
184.449966
 11
26.249973
 21
169.949966
  0
LINE
  8
0
 10
16.149967
 20
196.199966
 11
22.499973
 21
196.199966
  0
LINE
  8
0
 10
16.149967
 20
193.199966
 11
22.499973
 21
193.199966
  0
LINE
  8
0
 10
22.499973
 20
186.199966
 11
22.499973
 21
188.199966
  0
LINE
  8
0
 10
22.499973
 20
186.199966
 11
16.149967
 21
186.199966
  0
LINE
  8
0
 10
22.499973
 20
188.199966
 11
16.149967
 21
188.199966
  0
LINE
  8
0
 10
22.499973
 20
191.199966
 11
16.149967
 21
191.199966
  0
LINE
  8
0
 10
22.901035
 20
198.199966
 11
52.072941
 21
198.199966
  0
LINE
  8
0
 10
22.499973
 20
196.199966
 11
22.499973
 21
198.199966
  0
LINE
  8
0
 10
22.499973
 20
191.199966
 11
22.499973
 21
193.199966
  0
LINE
  8
0
 10
26.249973
 20
183.199966
 11
16.149967
 21
183.199966
  0
LINE
  8
0
 10
26.249973
 20
181.199966
 11
16.149967
 21
181.199966
  0
LINE
  8
0
 10
58.849979
 20
198.199966
 11
52.499973
 21
198.199966
  0
LINE
  8
0
 10
58.849979
 20
196.199966
 11
52.499973
 21
196.199966
  0
LINE
  8
0
 10
58.849979
 20
193.199966
 11
52.499973
 21
193.199966
  0
LINE
  8
0
 10
52.499973
 20
186.199966
 11
52.499973
 21
188.199966
  0
LINE
  8
0
 10
52.499973
 20
186.199966
 11
58.849979
 21
186.199966
  0
LINE
  8
0
 10
52.499973
 20
188.199966
 11
58.849979
 21
188.199966
  0
LINE
  8
0
 10
52.499973
 20
191.199966
 11
58.849979
 21
191.199966
  0
LINE
  8
0
 10
52.499973
 20
196.199966
 11
52.499973
 21
198.199966
  0
LINE
  8
0
 10
52.499973
 20
191.199966
 11
52.499973
 21
193.199966
  0
LINE
  8
0
 10
48.749973
 20
183.199966
 11
58.849979
 21
183.199966
  0
LINE
  8
0
 10
48.749973
 20
181.199966
 11
58.849979
 21
181.199966
  0
LINE
  8
0
 10
16.149967
 20
207.799942
 11
22.499973
 21
207.799942
  0
LINE
  8
0
 10
16.149967
 20
209.799942
 11
22.499973
 21
209.799942
  0
LINE
  8
0
 10
16.149967
 20
212.799942
 11
58.849979
 21
212.799942
  0
LINE
  8
0
 10
58.849979
 20
214.799942
 11
16.149967
 21
214.799942
  0
LINE
  8
0
 10
22.499973
 20
209.799942
 11
22.499973
 21
207.799942
  0
LINE
  8
0
 10
58.849979
 20
207.799942
 11
52.499973
 21
207.799942
  0
LINE
  8
0
 10
58.849979
 20
209.799942
 11
52.499973
 21
209.799942
  0
LINE
  8
0
 10
52.499973
 20
209.799942
 11
52.499973
 21
207.799942
  0
LINE
  8
0
 10
16.549961
 20
181.199966
 11
16.549961
 21
183.199966
  0
LINE
  8
0
 10
16.549961
 20
186.199966
 11
16.549961
 21
188.199966
  0
LINE
  8
0
 10
16.549961
 20
191.199966
 11
16.549961
 21
193.199966
  0
LINE
  8
0
 10
16.549961
 20
196.199966
 11
16.549961
 21
198.199966
  0
LINE
  8
0
 10
16.549961
 20
209.799942
 11
16.549961
 21
207.799942
  0
LINE
  8
0
 10
16.549961
 20
214.799942
 11
16.549961
 21
212.799942
  0
LINE
  8
0
 10
58.449986
 20
214.799942
 11
58.449986
 21
212.799942
  0
LINE
  8
0
 10
58.449986
 20
209.799942
 11
58.449986
 21
207.799942
  0
LINE
  8
0
 10
58.449986
 20
196.199966
 11
58.449986
 21
198.199966
  0
LINE
  8
0
 10
58.449986
 20
191.199966
 11
58.449986
 21
193.199966
  0
LINE
  8
0
 10
58.449986
 20
186.199966
 11
58.449986
 21
188.199966
  0
LINE
  8
0
 10
58.449986
 20
181.199966
 11
58.449986
 21
183.199966
  0
LINE
  8
0
 10
28.999973
 20
168.949966
 11
28.999973
 21
164.949966
  0
LINE
  8
0
 10
30.199986
 20
168.949966
 11
30.199986
 21
164.949966
  0
LINE
  8
0
 10
44.799961
 20
168.949966
 11
44.799961
 21
164.949966
  0
LINE
  8
0
 10
45.999973
 20
168.949966
 11
45.999973
 21
164.949966
  0
LINE
  8
0
 10
26.499973
 20
164.949966
 11
26.499973
 21
158.949966
  0
LINE
  8
0
 10
27.973698
 20
164.949966
 11
27.973698
 21
158.949966
  0
LINE
  8
0
 10
30.073673
 20
164.949966
 11
30.073673
 21
158.949966
  0
LINE
  8
0
 10
30.696049
 20
164.949966
 11
30.696049
 21
158.949966
  0
LINE
  8
0
 10
35.150272
 20
164.949966
 11
35.150272
 21
158.949966
  0
LINE
  8
0
 10
35.399967
 20
164.949966
 11
35.399967
 21
158.949966
  0
LINE
  8
0
 10
39.599979
 20
164.949966
 11
39.599979
 21
158.949966
  0
LINE
  8
0
 10
37.499973
 20
164.949966
 11
37.499973
 21
158.949966
  0
LINE
  8
0
 10
44.303898
 20
164.949966
 11
44.303898
 21
158.949966
  0
LINE
  8
0
 10
44.926273
 20
164.949966
 11
44.926273
 21
158.949966
  0
LINE
  8
0
 10
47.026249
 20
164.949966
 11
47.026249
 21
158.949966
  0
LINE
  8
0
 10
48.499973
 20
164.949966
 11
48.499973
 21
158.949966
  0
LINE
  8
0
 10
48.499973
 20
164.949966
 11
26.499973
 21
164.949966
  0
LINE
  8
0
 10
48.499973
 20
158.949966
 11
26.499973
 21
158.949966
  0
LINE
  8
0
 10
39.849674
 20
164.949966
 11
39.849674
 21
158.949966
  0
LINE
  8
0
 10
48.411411
 20
169.199966
 11
55.849979
 21
169.199966
  0
ARC
  8
0
 10
19.149967
 20
225.199966
 40
3.000000
 50
90.000000
 51
180.000000
  0
ARC
  8
0
 10
15.999973
 20
202.999954
 40
3.999990
 50
272.149017
 51
87.850990
  0
ARC
  8
0
 10
19.149967
 20
172.199966
 40
3.000000
 50
180.000000
 51
270.000000
  0
ARC
  8
0
 10
55.849979
 20
172.199966
 40
3.000000
 50
270.000000
 51
0.000000
  0
ARC
  8
0
 10
58.999973
 20
202.999954
 40
3.999990
 50
92.149010
 51
267.850983
  0
ARC
  8
0
 10
55.849979
 20
225.199966
 40
3.000000
 50
0.000000
 51
90.000000
  0
ARC
  8
0
 10
20.999973
 20
177.772751
 40
0.600004
 50
225.000519
 51
314.999481
  0
ARC
  8
0
 10
19.727177
 20
176.499954
 40
0.600004
 50
314.999481
 51
45.000515
  0
ARC
  8
0
 10
20.999973
 20
175.227158
 40
0.600004
 50
45.000515
 51
134.999481
  0
ARC
  8
0
 10
22.272770
 20
176.499954
 40
0.600004
 50
134.999481
 51
225.000519
  0
CIRCLE
  8
0
 10
20.999973
 20
176.499954
 40
2.799999
  0
ARC
  8
0
 10
20.999973
 20
221.772751
 40
0.600004
 50
225.000519
 51
314.999481
  0
ARC
  8
0
 10
19.727177
 20
220.499954
 40
0.600004
 50
314.999481
 51
45.000515
  0
ARC
  8
0
 10
20.999973
 20
219.227158
 40
0.600004
 50
45.000515
 51
134.999481
  0
ARC
  8
0
 10
22.272770
 20
220.499954
 40
0.600004
 50
134.999481
 51
225.000519
  0
CIRCLE
  8
0
 10
20.999973
 20
220.499954
 40
2.799999
  0
ARC
  8
0
 10
53.999973
 20
221.772751
 40
0.600004
 50
225.000519
 51
314.999481
  0
ARC
  8
0
 10
52.727177
 20
220.499954
 40
0.600004
 50
314.999481
 51
45.000515
  0
ARC
  8
0
 10
53.999973
 20
219.227158
 40
0.600004
 50
45.000515
 51
134.999481
  0
ARC
  8
0
 10
55.272770
 20
220.499954
 40
0.600004
 50
134.999481
 51
225.000519
  0
CIRCLE
  8
0
 10
53.999973
 20
220.499954
 40
2.799999
  0
ARC
  8
0
 10
53.999973
 20
177.772751
 40
0.600004
 50
225.000519
 51
314.999481
  0
ARC
  8
0
 10
52.727177
 20
176.499954
 40
0.600004
 50
314.999481
 51
45.000515
  0
ARC
  8
0
 10
53.999973
 20
175.227158
 40
0.600004
 50
45.000515
 51
134.999481
  0
ARC
  8
0
 10
55.272770
 20
176.499954
 40
0.600004
 50
134.999481
 51
225.000519
  0
CIRCLE
  8
0
 10
53.999973
 20
176.499954
 40
2.799999
  0
ARC
  8
0
 10
37.499973
 20
198.199966
 40
2.500004
 50
218.107864
 51
231.891968
  0
ARC
  8
0
 10
47.749973
 20
169.949966
 40
1.000000
 50
270.000000
 51
0.000000
  0
ARC
  8
0
 10
27.249973
 20
169.949966
 40
1.000000
 50
180.000000
 51
270.000000
  0
ARC
  8
0
 10
48.249973
 20
187.449966
 40
3.000000
 50
270.000000
 51
0.000000
  0
ARC
  8
0
 10
26.749973
 20
187.449966
 40
3.000000
 50
180.000000
 51
270.000000
  0
ARC
  8
0
 10
26.749973
 20
208.949966
 40
3.000000
 50
90.000000
 51
180.000000
  0
ARC
  8
0
 10
48.249973
 20
208.949966
 40
3.000000
 50
0.000000
 51
90.000000
  0
CIRCLE
  8
0
 10
37.499973
 20
198.199966
 40
2.799999
  0
ARC
  8
0
 10
38.772770
 20
198.199966
 40
0.600004
 50
134.999481
 51
225.000519
  0
ARC
  8
0
 10
37.499973
 20
199.472763
 40
0.600004
 50
225.000519
 51
314.999481
  0
ARC
  8
0
 10
37.499973
 20
196.927170
 40
0.600004
 50
45.000515
 51
134.999481
  0
ARC
  8
0
 10
36.227177
 20
198.199966
 40
0.600004
 50
314.999481
 51
45.000515
  0
CIRCLE
  8
0
 10
37.499973
 20
198.199966
 40
3.500000
  0
ARC
  8
0
 10
37.499973
 20
198.199966
 40
2.500001
 50
38.107918
 51
51.892330
  0
POINT
  8
0
 10
58.999973
 20
202.999954
  0
LINE
  8
0
 10
62.149967
 20
228.199966
 11
98.849976
 21
228.199966
  0
LINE
  8
0
 10
59.149967
 20
206.997147
 11
59.149967
 21
225.199966
  0
LINE
  8
0
 10
59.149967
 20
172.199966
 11
59.149967
 21
199.002762
  0
LINE
  8
0
 10
62.149967
 20
169.199966
 11
69.588531
 21
169.199966
  0
LINE
  8
0
 10
101.849976
 20
172.199966
 11
101.849976
 21
199.002762
  0
LINE
  8
0
 10
101.849976
 20
206.997147
 11
101.849976
 21
225.199966
  0
LINE
  8
0
 10
60.132267
 20
176.499954
 11
68.360626
 21
176.499954
  0
LINE
  8
0
 10
65.272675
 20
177.348465
 11
64.848404
 21
176.924194
  0
LINE
  8
0
 10
64.848404
 20
177.772720
 11
64.424149
 21
177.348450
  0
LINE
  8
0
 10
63.999973
 20
172.453995
 11
63.999973
 21
180.810928
  0
LINE
  8
0
 10
63.575733
 20
177.348511
 11
63.151463
 21
177.772781
  0
LINE
  8
0
 10
63.151440
 20
177.772751
 11
62.727169
 21
177.348480
  0
LINE
  8
0
 10
63.151478
 20
176.924286
 11
62.727207
 21
177.348557
  0
LINE
  8
0
 10
63.151356
 20
176.075668
 11
62.727093
 21
175.651398
  0
LINE
  8
0
 10
63.151455
 20
175.227188
 11
62.727184
 21
175.651459
  0
LINE
  8
0
 10
63.575619
 20
175.651413
 11
63.151348
 21
175.227142
  0
LINE
  8
0
 10
64.848526
 20
175.227234
 11
64.424255
 21
175.651505
  0
LINE
  8
0
 10
65.272690
 20
175.651459
 11
64.848419
 21
175.227188
  0
LINE
  8
0
 10
65.272781
 20
175.651459
 11
64.848511
 21
176.075729
  0
LINE
  8
0
 10
65.272797
 20
177.348541
 11
64.848526
 21
177.772812
  0
LINE
  8
0
 10
60.132267
 20
220.499954
 11
68.360626
 21
220.499954
  0
LINE
  8
0
 10
65.272675
 20
221.348465
 11
64.848404
 21
220.924194
  0
LINE
  8
0
 10
64.848419
 20
221.772720
 11
64.424149
 21
221.348450
  0
LINE
  8
0
 10
63.999973
 20
216.453995
 11
63.999973
 21
224.810928
  0
LINE
  8
0
 10
63.575726
 20
221.348511
 11
63.151463
 21
221.772781
  0
LINE
  8
0
 10
63.151432
 20
221.772766
 11
62.727161
 21
221.348495
  0
LINE
  8
0
 10
63.151478
 20
220.924286
 11
62.727207
 21
221.348557
  0
LINE
  8
0
 10
63.151363
 20
220.075668
 11
62.727093
 21
219.651398
  0
LINE
  8
0
 10
63.151447
 20
219.227188
 11
62.727177
 21
219.651459
  0
LINE
  8
0
 10
63.575611
 20
219.651413
 11
63.151348
 21
219.227142
  0
LINE
  8
0
 10
64.848526
 20
219.227234
 11
64.424255
 21
219.651505
  0
LINE
  8
0
 10
65.272690
 20
219.651459
 11
64.848419
 21
219.227203
  0
LINE
  8
0
 10
65.272781
 20
219.651459
 11
64.848511
 21
220.075729
  0
LINE
  8
0
 10
65.272781
 20
221.348541
 11
64.848511
 21
221.772812
  0
LINE
  8
0
 10
93.132263
 20
220.499954
 11
101.360626
 21
220.499954
  0
LINE
  8
0
 10
98.272675
 20
221.348465
 11
97.848404
 21
220.924210
  0
LINE
  8
0
 10
97.848404
 20
221.772720
 11
97.424133
 21
221.348450
  0
LINE
  8
0
 10
96.999969
 20
216.453995
 11
96.999969
 21
224.810928
  0
LINE
  8
0
 10
96.575729
 20
221.348511
 11
96.151459
 21
221.772781
  0
LINE
  8
0
 10
96.151428
 20
221.772766
 11
95.727158
 21
221.348495
  0
LINE
  8
0
 10
96.151474
 20
220.924286
 11
95.727203
 21
221.348557
  0
LINE
  8
0
 10
96.151352
 20
220.075668
 11
95.727081
 21
219.651398
  0
LINE
  8
0
 10
96.151443
 20
219.227188
 11
95.727188
 21
219.651459
  0
LINE
  8
0
 10
96.575623
 20
219.651428
 11
96.151352
 21
219.227158
  0
LINE
  8
0
 10
97.848526
 20
219.227234
 11
97.424255
 21
219.651505
  0
LINE
  8
0
 10
98.272690
 20
219.651459
 11
97.848419
 21
219.227203
  0
LINE
  8
0
 10
98.272781
 20
219.651459
 11
97.848511
 21
220.075729
  0
LINE
  8
0
 10
98.272781
 20
221.348541
 11
97.848511
 21
221.772812
  0
LINE
  8
0
 10
93.132263
 20
176.499954
 11
101.360626
 21
176.499954
  0
LINE
  8
0
 10
98.272675
 20
177.348465
 11
97.848404
 21
176.924194
  0
LINE
  8
0
 10
97.848404
 20
177.772720
 11
97.424133
 21
177.348450
  0
LINE
  8
0
 10
96.999969
 20
172.453995
 11
96.999969
 21
180.810928
  0
LINE
  8
0
 10
96.575729
 20
177.348511
 11
96.151459
 21
177.772781
  0
LINE
  8
0
 10
96.151428
 20
177.772766
 11
95.727173
 21
177.348480
  0
LINE
  8
0
 10
96.151474
 20
176.924286
 11
95.727219
 21
177.348557
  0
LINE
  8
0
 10
96.151352
 20
176.075668
 11
95.727081
 21
175.651398
  0
LINE
  8
0
 10
96.151443
 20
175.227188
 11
95.727188
 21
175.651459
  0
LINE
  8
0
 10
96.575623
 20
175.651413
 11
96.151352
 21
175.227142
  0
LINE
  8
0
 10
97.848526
 20
175.227234
 11
97.424271
 21
175.651505
  0
LINE
  8
0
 10
98.272690
 20
175.651459
 11
97.848419
 21
175.227188
  0
LINE
  8
0
 10
98.272781
 20
175.651459
 11
97.848511
 21
176.075729
  0
LINE
  8
0
 10
98.272797
 20
177.348541
 11
97.848526
 21
177.772812
  0
LINE
  8
0
 10
80.499969
 20
164.208817
 11
80.499969
 21
241.828110
  0
LINE
  8
0
 10
91.249969
 20
211.949966
 11
69.749969
 21
211.949966
  0
LINE
  8
0
 10
91.249969
 20
184.449966
 11
69.749969
 21
184.449966
  0
LINE
  8
0
 10
66.749969
 20
208.949966
 11
66.749969
 21
187.449966
  0
LINE
  8
0
 10
94.249969
 20
208.949966
 11
94.249969
 21
187.449966
  0
LINE
  8
0
 10
79.651520
 20
199.472778
 11
80.075760
 21
199.048523
  0
LINE
  8
0
 10
79.227249
 20
199.048553
 11
79.651489
 21
198.624298
  0
LINE
  8
0
 10
79.651474
 20
199.472778
 11
79.227203
 21
199.048523
  0
LINE
  8
0
 10
81.772797
 20
197.351471
 11
81.348526
 21
196.927200
  0
LINE
  8
0
 10
82.042862
 20
200.167145
 11
80.924271
 21
199.048569
  0
LINE
  8
0
 10
82.467087
 20
199.742859
 11
81.348511
 21
198.624283
  0
LINE
  8
0
 10
81.348572
 20
197.775726
 11
81.772842
 21
197.351456
  0
LINE
  8
0
 10
80.924301
 20
197.351501
 11
81.348572
 21
196.927231
  0
LINE
  8
0
 10
79.651474
 20
197.775757
 11
78.532867
 21
196.657166
  0
LINE
  8
0
 10
80.075699
 20
197.351486
 11
78.957108
 21
196.232880
  0
LINE
  8
0
 10
91.749969
 20
184.449966
 11
91.749969
 21
169.949966
  0
LINE
  8
0
 10
90.749969
 20
168.949966
 11
70.249969
 21
168.949966
  0
LINE
  8
0
 10
59.149967
 20
198.199966
 11
65.499969
 21
198.199966
  0
LINE
  8
0
 10
69.249969
 20
184.449966
 11
69.249969
 21
169.949966
  0
LINE
  8
0
 10
59.149967
 20
196.199966
 11
65.499969
 21
196.199966
  0
LINE
  8
0
 10
59.149967
 20
193.199966
 11
65.499969
 21
193.199966
  0
LINE
  8
0
 10
65.499969
 20
186.199966
 11
65.499969
 21
188.199966
  0
LINE
  8
0
 10
65.499969
 20
186.199966
 11
59.149967
 21
186.199966
  0
LINE
  8
0
 10
65.499969
 20
188.199966
 11
59.149967
 21
188.199966
  0
LINE
  8
0
 10
65.499969
 20
191.199966
 11
59.149967
 21
191.199966
  0
LINE
  8
0
 10
65.901031
 20
198.199966
 11
95.072937
 21
198.199966
  0
LINE
  8
0
 10
65.499969
 20
196.199966
 11
65.499969
 21
198.199966
  0
LINE
  8
0
 10
65.499969
 20
191.199966
 11
65.499969
 21
193.199966
  0
LINE
  8
0
 10
69.249969
 20
183.199966
 11
59.149967
 21
183.199966
  0
LINE
  8
0
 10
69.249969
 20
181.199966
 11
59.149967
 21
181.199966
  0
LINE
  8
0
 10
101.849976
 20
198.199966
 11
95.499969
 21
198.199966
  0
LINE
  8
0
 10
101.849976
 20
196.199966
 11
95.499969
 21
196.199966
  0
LINE
  8
0
 10
101.849976
 20
193.199966
 11
95.499969
 21
193.199966
  0
LINE
  8
0
 10
95.499969
 20
186.199966
 11
95.499969
 21
188.199966
  0
LINE
  8
0
 10
95.499969
 20
186.199966
 11
101.849976
 21
186.199966
  0
LINE
  8
0
 10
95.499969
 20
188.199966
 11
101.849976
 21
188.199966
  0
LINE
  8
0
 10
95.499969
 20
191.199966
 11
101.849976
 21
191.199966
  0
LINE
  8
0
 10
95.499969
 20
196.199966
 11
95.499969
 21
198.199966
  0
LINE
  8
0
 10
95.499969
 20
191.199966
 11
95.499969
 21
193.199966
  0
LINE
  8
0
 10
91.749969
 20
183.199966
 11
101.849976
 21
183.199966
  0
LINE
  8
0
 10
91.749969
 20
181.199966
 11
101.849976
 21
181.199966
  0
LINE
  8
0
 10
59.149967
 20
207.799942
 11
65.499969
 21
207.799942
  0
LINE
  8
0
 10
59.149967
 20
209.799942
 11
65.499969
 21
209.799942
  0
LINE
  8
0
 10
59.149967
 20
212.799942
 11
101.849976
 21
212.799942
  0
LINE
  8
0
 10
101.849976
 20
214.799942
 11
59.149967
 21
214.799942
  0
LINE
  8
0
 10
65.499969
 20
209.799942
 11
65.499969
 21
207.799942
  0
LINE
  8
0
 10
101.849976
 20
207.799942
 11
95.499969
 21
207.799942
  0
LINE
  8
0
 10
101.849976
 20
209.799942
 11
95.499969
 21
209.799942
  0
LINE
  8
0
 10
95.499969
 20
209.799942
 11
95.499969
 21
207.799942
  0
LINE
  8
0
 10
59.549961
 20
181.199966
 11
59.549961
 21
183.199966
  0
LINE
  8
0
 10
59.549961
 20
186.199966
 11
59.549961
 21
188.199966
  0
LINE
  8
0
 10
59.549961
 20
191.199966
 11
59.549961
 21
193.199966
  0
LINE
  8
0
 10
59.549961
 20
196.199966
 11
59.549961
 21
198.199966
  0
LINE
  8
0
 10
59.549961
 20
209.799942
 11
59.549961
 21
207.799942
  0
LINE
  8
0
 10
59.549961
 20
214.799942
 11
59.549961
 21
212.799942
  0
LINE
  8
0
 10
101.449982
 20
214.799942
 11
101.449982
 21
212.799942
  0
LINE
  8
0
 10
101.449982
 20
209.799942
 11
101.449982
 21
207.799942
  0
LINE
  8
0
 10
101.449982
 20
196.199966
 11
101.449982
 21
198.199966
  0
LINE
  8
0
 10
101.449982
 20
191.199966
 11
101.449982
 21
193.199966
  0
LINE
  8
0
 10
101.449982
 20
186.199966
 11
101.449982
 21
188.199966
  0
LINE
  8
0
 10
101.449982
 20
181.199966
 11
101.449982
 21
183.199966
  0
LINE
  8
0
 10
71.999969
 20
168.949966
 11
71.999969
 21
164.949966
  0
LINE
  8
0
 10
73.199982
 20
168.949966
 11
73.199982
 21
164.949966
  0
LINE
  8
0
 10
87.799957
 20
168.949966
 11
87.799957
 21
164.949966
  0
LINE
  8
0
 10
88.999969
 20
168.949966
 11
88.999969
 21
164.949966
  0
LINE
  8
0
 10
69.499969
 20
164.949966
 11
69.499969
 21
158.949966
  0
LINE
  8
0
 10
70.973694
 20
164.949966
 11
70.973694
 21
158.949966
  0
LINE
  8
0
 10
73.073669
 20
164.949966
 11
73.073669
 21
158.949966
  0
LINE
  8
0
 10
73.696045
 20
164.949966
 11
73.696045
 21
158.949966
  0
LINE
  8
0
 10
78.150269
 20
164.949966
 11
78.150269
 21
158.949966
  0
LINE
  8
0
 10
78.399963
 20
164.949966
 11
78.399963
 21
158.949966
  0
LINE
  8
0
 10
82.599976
 20
164.949966
 11
82.599976
 21
158.949966
  0
LINE
  8
0
 10
80.499969
 20
164.949966
 11
80.499969
 21
158.949966
  0
LINE
  8
0
 10
87.303894
 20
164.949966
 11
87.303894
 21
158.949966
  0
LINE
  8
0
 10
87.926270
 20
164.949966
 11
87.926270
 21
158.949966
  0
LINE
  8
0
 10
90.026245
 20
164.949966
 11
90.026245
 21
158.949966
  0
LINE
  8
0
 10
91.499969
 20
164.949966
 11
91.499969
 21
158.949966
  0
LINE
  8
0
 10
91.499969
 20
164.949966
 11
69.499969
 21
164.949966
  0
LINE
  8
0
 10
91.499969
 20
158.949966
 11
69.499969
 21
158.949966
  0
LINE
  8
0
 10
82.849670
 20
164.949966
 11
82.849670
 21
158.949966
  0
LINE
  8
0
 10
91.411407
 20
169.199966
 11
98.849976
 21
169.199966
  0
ARC
  8
0
 10
62.149967
 20
225.199966
 40
3.000000
 50
90.000000
 51
180.000000
  0
ARC
  8
0
 10
58.999973
 20
202.999954
 40
3.999990
 50
272.149017
 51
87.850990
  0
ARC
  8
0
 10
62.149967
 20
172.199966
 40
3.000000
 50
180.000000
 51
270.000000
  0
ARC
  8
0
 10
98.849976
 20
172.199966
 40
3.000000
 50
270.000000
 51
0.000000
  0
ARC
  8
0
 10
101.999969
 20
202.999954
 40
3.999990
 50
92.149010
 51
267.850983
  0
ARC
  8
0
 10
98.849976
 20
225.199966
 40
3.000000
 50
0.000000
 51
90.000000
  0
ARC
  8
0
 10
63.999973
 20
177.772751
 40
0.600004
 50
225.000519
 51
314.999756
  0
ARC
  8
0
 10
62.727177
 20
176.499954
 40
0.600004
 50
314.999481
 51
45.000515
  0
ARC
  8
0
 10
63.999973
 20
175.227158
 40
0.600007
 50
45.000259
 51
134.999481
  0
ARC
  8
0
 10
65.272766
 20
176.499954
 40
0.599998
 50
134.998962
 51
225.001038
  0
CIRCLE
  8
0
 10
63.999973
 20
176.499954
 40
2.799999
  0
ARC
  8
0
 10
63.999973
 20
221.772751
 40
0.600004
 50
225.000519
 51
314.999756
  0
ARC
  8
0
 10
62.727177
 20
220.499954
 40
0.600004
 50
314.999481
 51
45.000515
  0
ARC
  8
0
 10
63.999973
 20
219.227158
 40
0.600007
 50
45.000259
 51
134.999481
  0
ARC
  8
0
 10
65.272766
 20
220.499954
 40
0.599998
 50
134.998962
 51
225.001038
  0
CIRCLE
  8
0
 10
63.999973
 20
220.499954
 40
2.799999
  0
ARC
  8
0
 10
96.999969
 20
221.772751
 40
0.599998
 50
225.001038
 51
315.000000
  0
ARC
  8
0
 10
95.727173
 20
220.499954
 40
0.600009
 50
315.000000
 51
45.000000
  0
ARC
  8
0
 10
96.999969
 20
219.227158
 40
0.600009
 50
45.000000
 51
134.998962
  0
ARC
  8
0
 10
98.272766
 20
220.499954
 40
0.599998
 50
134.998962
 51
225.001038
  0
CIRCLE
  8
0
 10
96.999969
 20
220.499954
 40
2.799999
  0
ARC
  8
0
 10
96.999969
 20
177.772751
 40
0.599998
 50
225.001038
 51
315.000000
  0
ARC
  8
0
 10
95.727173
 20
176.499954
 40
0.600009
 50
315.000000
 51
45.000000
  0
ARC
  8
0
 10
96.999969
 20
175.227158
 40
0.600009
 50
45.000000
 51
134.998962
  0
ARC
  8
0
 10
98.272766
 20
176.499954
 40
0.599998
 50
134.998962
 51
225.001038
  0
CIRCLE
  8
0
 10
96.999969
 20
176.499954
 40
2.799999
  0
ARC
  8
0
 10
80.499969
 20
198.199966
 40
2.500007
 50
218.107803
 51
231.891968
  0
ARC
  8
0
 10
90.749969
 20
169.949966
 40
1.000000
 50
270.000000
 51
0.000000
  0
ARC
  8
0
 10
70.249969
 20
169.949966
 40
1.000000
 50
180.000000
 51
270.000000
  0
ARC
  8
0
 10
91.249969
 20
187.449966
 40
3.000000
 50
270.000000
 51
0.000000
  0
ARC
  8
0
 10
69.749969
 20
187.449966
 40
3.000000
 50
180.000000
 51
270.000000
  0
ARC
  8
0
 10
69.749969
 20
208.949966
 40
3.000000
 50
90.000000
 51
180.000000
  0
ARC
  8
0
 10
91.249969
 20
208.949966
 40
3.000000
 50
0.000000
 51
90.000000
  0
CIRCLE
  8
0
 10
80.499969
 20
198.199966
 40
2.799999
  0
ARC
  8
0
 10
81.772766
 20
198.199966
 40
0.599998
 50
134.998962
 51
225.001038
  0
ARC
  8
0
 10
80.499969
 20
199.472763
 40
0.599998
 50
225.001038
 51
315.000000
  0
ARC
  8
0
 10
80.499969
 20
196.927170
 40
0.600009
 50
45.000000
 51
134.998962
  0
ARC
  8
0
 10
79.227173
 20
198.199966
 40
0.600009
 50
315.000000
 51
45.000000
  0
CIRCLE
  8
0
 10
80.499969
 20
198.199966
 40
3.500000
  0
ARC
  8
0
 10
80.499969
 20
198.199966
 40
2.500007
 50
38.107807
 51
51.892193
  0
POINT
  8
0
 10
101.999969
 20
202.999954
  0
LINE
  8
0
 10
105.149963
 20
228.199966
 11
141.849976
 21
228.199966
  0
LINE
  8
0
 10
102.149963
 20
206.997147
 11
102.149963
 21
225.199966
  0
LINE
  8
0
 10
102.149963
 20
172.199966
 11
102.149963
 21
199.002762
  0
LINE
  8
0
 10
105.149963
 20
169.199966
 11
112.588531
 21
169.199966
  0
LINE
  8
0
 10
144.849976
 20
172.199966
 11
144.849976
 21
199.002762
  0
LINE
  8
0
 10
144.849976
 20
206.997147
 11
144.849976
 21
225.199966
  0
LINE
  8
0
 10
103.132263
 20
176.499954
 11
111.360626
 21
176.499954
  0
LINE
  8
0
 10
108.272659
 20
177.348465
 11
107.848404
 21
176.924194
  0
LINE
  8
0
 10
107.848404
 20
177.772720
 11
107.424149
 21
177.348450
  0
LINE
  8
0
 10
106.999969
 20
172.453995
 11
106.999969
 21
180.810928
  0
LINE
  8
0
 10
106.575729
 20
177.348511
 11
106.151459
 21
177.772781
  0
LINE
  8
0
 10
106.151443
 20
177.772751
 11
105.727173
 21
177.348480
  0
LINE
  8
0
 10
106.151474
 20
176.924286
 11
105.727203
 21
177.348557
  0
LINE
  8
0
 10
106.151352
 20
176.075668
 11
105.727097
 21
175.651398
  0
LINE
  8
0
 10
106.151459
 20
175.227188
 11
105.727188
 21
175.651459
  0
LINE
  8
0
 10
106.575623
 20
175.651413
 11
106.151352
 21
175.227142
  0
LINE
  8
0
 10
107.848526
 20
175.227234
 11
107.424255
 21
175.651505
  0
LINE
  8
0
 10
108.272690
 20
175.651459
 11
107.848419
 21
175.227188
  0
LINE
  8
0
 10
108.272781
 20
175.651459
 11
107.848511
 21
176.075729
  0
LINE
  8
0
 10
108.272781
 20
177.348541
 11
107.848526
 21
177.772812
  0
LINE
  8
0
 10
103.132263
 20
220.499954
 11
111.360626
 21
220.499954
  0
LINE
  8
0
 10
108.272659
 20
221.348465
 11
107.848404
 21
220.924194
  0
LINE
  8
0
 10
107.848419
 20
221.772720
 11
107.424149
 21
221.348450
  0
LINE
  8
0
 10
106.999969
 20
216.453995
 11
106.999969
 21
224.810928
  0
LINE
  8
0
 10
106.575729
 20
221.348511
 11
106.151459
 21
221.772781
  0
LINE
  8
0
 10
106.151428
 20
221.772766
 11
105.727158
 21
221.348495
  0
LINE
  8
0
 10
106.151474
 20
220.924286
 11
105.727203
 21
221.348557
  0
LINE
  8
0
 10
106.151367
 20
220.075668
 11
105.727097
 21
219.651398
  0
LINE
  8
0
 10
106.151443
 20
219.227188
 11
105.727173
 21
219.651459
  0
LINE
  8
0
 10
106.575607
 20
219.651413
 11
106.151352
 21
219.227142
  0
LINE
  8
0
 10
107.848526
 20
219.227234
 11
107.424255
 21
219.651505
  0
LINE
  8
0
 10
108.272690
 20
219.651459
 11
107.848419
 21
219.227203
  0
LINE
  8
0
 10
108.272781
 20
219.651459
 11
107.848511
 21
220.075729
  0
LINE
  8
0
 10
108.272781
 20
221.348541
 11
107.848511
 21
221.772812
  0
LINE
  8
0
 10
136.132263
 20
220.499954
 11
144.360626
 21
220.499954
  0
LINE
  8
0
 10
141.272675
 20
221.348465
 11
140.848389
 21
220.924210
  0
LINE
  8
0
 10
140.848404
 20
221.772720
 11
140.424133
 21
221.348450
  0
LINE
  8
0
 10
139.999969
 20
216.453995
 11
139.999969
 21
224.810928
  0
LINE
  8
0
 10
139.575729
 20
221.348511
 11
139.151459
 21
221.772781
  0
LINE
  8
0
 10
139.151428
 20
221.772766
 11
138.727158
 21
221.348495
  0
LINE
  8
0
 10
139.151474
 20
220.924286
 11
138.727203
 21
221.348557
  0
LINE
  8
0
 10
139.151352
 20
220.075668
 11
138.727081
 21
219.651398
  0
LINE
  8
0
 10
139.151443
 20
219.227188
 11
138.727173
 21
219.651459
  0
LINE
  8
0
 10
139.575623
 20
219.651428
 11
139.151337
 21
219.227158
  0
LINE
  8
0
 10
140.848526
 20
219.227234
 11
140.424255
 21
219.651505
  0
LINE
  8
0
 10
141.272690
 20
219.651459
 11
140.848419
 21
219.227203
  0
LINE
  8
0
 10
141.272781
 20
219.651459
 11
140.848511
 21
220.075729
  0
LINE
  8
0
 10
141.272781
 20
221.348541
 11
140.848511
 21
221.772812
  0
LINE
  8
0
 10
136.132263
 20
176.499954
 11
144.360626
 21
176.499954
  0
LINE
  8
0
 10
141.272675
 20
177.348465
 11
140.848389
 21
176.924194
  0
LINE
  8
0
 10
140.848404
 20
177.772720
 11
140.424133
 21
177.348450
  0
LINE
  8
0
 10
139.999969
 20
172.453995
 11
139.999969
 21
180.810928
  0
LINE
  8
0
 10
139.575729
 20
177.348511
 11
139.151459
 21
177.772781
  0
LINE
  8
0
 10
139.151428
 20
177.772766
 11
138.727173
 21
177.348480
  0
LINE
  8
0
 10
139.151474
 20
176.924286
 11
138.727203
 21
177.348557
  0
LINE
  8
0
 10
139.151352
 20
176.075668
 11
138.727081
 21
175.651398
  0
LINE
  8
0
 10
139.151443
 20
175.227188
 11
138.727173
 21
175.651459
  0
LINE
  8
0
 10
139.575623
 20
175.651413
 11
139.151337
 21
175.227142
  0
LINE
  8
0
 10
140.848526
 20
175.227234
 11
140.424255
 21
175.651505
  0
LINE
  8
0
 10
141.272690
 20
175.651459
 11
140.848419
 21
175.227188
  0
LINE
  8
0
 10
141.272781
 20
175.651459
 11
140.848511
 21
176.075729
  0
LINE
  8
0
 10
141.272797
 20
177.348541
 11
140.848511
 21
177.772812
  0
LINE
  8
0
 10
123.499969
 20
164.208817
 11
123.499969
 21
241.828110
  0
LINE
  8
0
 10
134.249969
 20
211.949966
 11
112.749969
 21
211.949966
  0
LINE
  8
0
 10
134.249969
 20
184.449966
 11
112.749969
 21
184.449966
  0
LINE
  8
0
 10
109.749969
 20
208.949966
 11
109.749969
 21
187.449966
  0
LINE
  8
0
 10
137.249969
 20
208.949966
 11
137.249969
 21
187.449966
  0
LINE
  8
0
 10
122.651520
 20
199.472778
 11
123.075760
 21
199.048523
  0
LINE
  8
0
 10
122.227249
 20
199.048553
 11
122.651489
 21
198.624298
  0
LINE
  8
0
 10
122.651474
 20
199.472778
 11
122.227203
 21
199.048523
  0
LINE
  8
0
 10
124.772797
 20
197.351471
 11
124.348526
 21
196.927200
  0
LINE
  8
0
 10
125.042847
 20
200.167145
 11
123.924271
 21
199.048569
  0
LINE
  8
0
 10
125.467087
 20
199.742859
 11
124.348511
 21
198.624283
  0
LINE
  8
0
 10
124.348572
 20
197.775726
 11
124.772842
 21
197.351456
  0
LINE
  8
0
 10
123.924301
 20
197.351501
 11
124.348572
 21
196.927231
  0
LINE
  8
0
 10
122.651474
 20
197.775757
 11
121.532867
 21
196.657166
  0
LINE
  8
0
 10
123.075699
 20
197.351486
 11
121.957108
 21
196.232880
  0
LINE
  8
0
 10
134.749969
 20
184.449966
 11
134.749969
 21
169.949966
  0
LINE
  8
0
 10
133.749969
 20
168.949966
 11
113.249969
 21
168.949966
  0
LINE
  8
0
 10
102.149963
 20
198.199966
 11
108.499969
 21
198.199966
  0
LINE
  8
0
 10
112.249969
 20
184.449966
 11
112.249969
 21
169.949966
  0
LINE
  8
0
 10
102.149963
 20
196.199966
 11
108.499969
 21
196.199966
  0
LINE
  8
0
 10
102.149963
 20
193.199966
 11
108.499969
 21
193.199966
  0
LINE
  8
0
 10
108.499969
 20
186.199966
 11
108.499969
 21
188.199966
  0
LINE
  8
0
 10
108.499969
 20
186.199966
 11
102.149963
 21
186.199966
  0
LINE
  8
0
 10
108.499969
 20
188.199966
 11
102.149963
 21
188.199966
  0
LINE
  8
0
 10
108.499969
 20
191.199966
 11
102.149963
 21
191.199966
  0
LINE
  8
0
 10
108.901031
 20
198.199966
 11
138.072937
 21
198.199966
  0
LINE
  8
0
 10
108.499969
 20
196.199966
 11
108.499969
 21
198.199966
  0
LINE
  8
0
 10
108.499969
 20
191.199966
 11
108.499969
 21
193.199966
  0
LINE
  8
0
 10
112.249969
 20
183.199966
 11
102.149963
 21
183.199966
  0
LINE
  8
0
 10
112.249969
 20
181.199966
 11
102.149963
 21
181.199966
  0
LINE
  8
0
 10
144.849976
 20
198.199966
 11
138.499969
 21
198.199966
  0
LINE
  8
0
 10
144.849976
 20
196.199966
 11
138.499969
 21
196.199966
  0
LINE
  8
0
 10
144.849976
 20
193.199966
 11
138.499969
 21
193.199966
  0
LINE
  8
0
 10
138.499969
 20
186.199966
 11
138.499969
 21
188.199966
  0
LINE
  8
0
 10
138.499969
 20
186.199966
 11
144.849976
 21
186.199966
  0
LINE
  8
0
 10
138.499969
 20
188.199966
 11
144.849976
 21
188.199966
  0
LINE
  8
0
 10
138.499969
 20
191.199966
 11
144.849976
 21
191.199966
  0
LINE
  8
0
 10
138.499969
 20
196.199966
 11
138.499969
 21
198.199966
  0
LINE
  8
0
 10
138.499969
 20
191.199966
 11
138.499969
 21
193.199966
  0
LINE
  8
0
 10
134.749969
 20
183.199966
 11
144.849976
 21
183.199966
  0
LINE
  8
0
 10
134.749969
 20
181.199966
 11
144.849976
 21
181.199966
  0
LINE
  8
0
 10
102.149963
 20
207.799942
 11
108.499969
 21
207.799942
  0
LINE
  8
0
 10
102.149963
 20
209.799942
 11
108.499969
 21
209.799942
  0
LINE
  8
0
 10
102.149963
 20
212.799942
 11
144.849976
 21
212.799942
  0
LINE
  8
0
 10
144.849976
 20
214.799942
 11
102.149963
 21
214.799942
  0
LINE
  8
0
 10
108.499969
 20
209.799942
 11
108.499969
 21
207.799942
  0
LINE
  8
0
 10
144.849976
 20
207.799942
 11
138.499969
 21
207.799942
  0
LINE
  8
0
 10
144.849976
 20
209.799942
 11
138.499969
 21
209.799942
  0
LINE
  8
0
 10
138.499969
 20
209.799942
 11
138.499969
 21
207.799942
  0
LINE
  8
0
 10
102.549957
 20
181.199966
 11
102.549957
 21
183.199966
  0
LINE
  8
0
 10
102.549957
 20
186.199966
 11
102.549957
 21
188.199966
  0
LINE
  8
0
 10
102.549957
 20
191.199966
 11
102.549957
 21
193.199966
  0
LINE
  8
0
 10
102.549957
 20
196.199966
 11
102.549957
 21
198.199966
  0
LINE
  8
0
 10
102.549957
 20
209.799942
 11
102.549957
 21
207.799942
  0
LINE
  8
0
 10
102.549957
 20
214.799942
 11
102.549957
 21
212.799942
  0
LINE
  8
0
 10
144.449982
 20
214.799942
 11
144.449982
 21
212.799942
  0
LINE
  8
0
 10
144.449982
 20
209.799942
 11
144.449982
 21
207.799942
  0
LINE
  8
0
 10
144.449982
 20
196.199966
 11
144.449982
 21
198.199966
  0
LINE
  8
0
 10
144.449982
 20
191.199966
 11
144.449982
 21
193.199966
  0
LINE
  8
0
 10
144.449982
 20
186.199966
 11
144.449982
 21
188.199966
  0
LINE
  8
0
 10
144.449982
 20
181.199966
 11
144.449982
 21
183.199966
  0
LINE
  8
0
 10
114.999969
 20
168.949966
 11
114.999969
 21
164.949966
  0
LINE
  8
0
 10
116.199982
 20
168.949966
 11
116.199982
 21
164.949966
  0
LINE
  8
0
 10
130.799957
 20
168.949966
 11
130.799957
 21
164.949966
  0
LINE
  8
0
 10
131.999969
 20
168.949966
 11
131.999969
 21
164.949966
  0
LINE
  8
0
 10
112.499969
 20
164.949966
 11
112.499969
 21
158.949966
  0
LINE
  8
0
 10
113.973694
 20
164.949966
 11
113.973694
 21
158.949966
  0
LINE
  8
0
 10
116.073669
 20
164.949966
 11
116.073669
 21
158.949966
  0
LINE
  8
0
 10
116.696045
 20
164.949966
 11
116.696045
 21
158.949966
  0
LINE
  8
0
 10
121.150269
 20
164.949966
 11
121.150269
 21
158.949966
  0
LINE
  8
0
 10
121.399963
 20
164.949966
 11
121.399963
 21
158.949966
  0
LINE
  8
0
 10
125.599976
 20
164.949966
 11
125.599976
 21
158.949966
  0
LINE
  8
0
 10
123.499969
 20
164.949966
 11
123.499969
 21
158.949966
  0
LINE
  8
0
 10
130.303894
 20
164.949966
 11
130.303894
 21
158.949966
  0
LINE
  8
0
 10
130.926270
 20
164.949966
 11
130.926270
 21
158.949966
  0
LINE
  8
0
 10
133.026245
 20
164.949966
 11
133.026245
 21
158.949966
  0
LINE
  8
0
 10
134.499969
 20
164.949966
 11
134.499969
 21
158.949966
  0
LINE
  8
0
 10
134.499969
 20
164.949966
 11
112.499969
 21
164.949966
  0
LINE
  8
0
 10
134.499969
 20
158.949966
 11
112.499969
 21
158.949966
  0
LINE
  8
0
 10
125.849670
 20
164.949966
 11
125.849670
 21
158.949966
  0
LINE
  8
0
 10
134.411407
 20
169.199966
 11
141.849976
 21
169.199966
  0
ARC
  8
0
 10
105.149963
 20
225.199966
 40
3.000000
 50
90.000000
 51
180.000000
  0
ARC
  8
0
 10
101.999969
 20
202.999954
 40
3.999990
 50
272.149017
 51
87.850990
  0
ARC
  8
0
 10
105.149963
 20
172.199966
 40
3.000000
 50
180.000000
 51
270.000000
  0
ARC
  8
0
 10
141.849976
 20
172.199966
 40
3.000000
 50
270.000000
 51
0.000000
  0
ARC
  8
0
 10
144.999969
 20
202.999954
 40
3.999990
 50
92.149010
 51
267.850983
  0
ARC
  8
0
 10
141.849976
 20
225.199966
 40
3.000000
 50
0.000000
 51
90.000000
  0
ARC
  8
0
 10
106.999969
 20
177.772751
 40
0.599998
 50
225.001038
 51
315.000000
  0
ARC
  8
0
 10
105.727173
 20
176.499954
 40
0.600009
 50
315.000000
 51
45.000000
  0
ARC
  8
0
 10
106.999969
 20
175.227158
 40
0.600009
 50
45.000000
 51
134.998962
  0
ARC
  8
0
 10
108.272766
 20
176.499954
 40
0.599998
 50
134.998962
 51
225.001038
  0
CIRCLE
  8
0
 10
106.999969
 20
176.499954
 40
2.799999
  0
ARC
  8
0
 10
106.999969
 20
221.772751
 40
0.599998
 50
225.001038
 51
315.000000
  0
ARC
  8
0
 10
105.727173
 20
220.499954
 40
0.600009
 50
315.000000
 51
45.000000
  0
ARC
  8
0
 10
106.999969
 20
219.227158
 40
0.600009
 50
45.000000
 51
134.998962
  0
ARC
  8
0
 10
108.272766
 20
220.499954
 40
0.599998
 50
134.998962
 51
225.001038
  0
CIRCLE
  8
0
 10
106.999969
 20
220.499954
 40
2.799999
  0
ARC
  8
0
 10
139.999969
 20
221.772751
 40
0.599998
 50
225.001038
 51
314.998962
  0
ARC
  8
0
 10
138.727173
 20
220.499954
 40
0.599998
 50
314.998962
 51
45.001030
  0
ARC
  8
0
 10
139.999969
 20
219.227158
 40
0.599998
 50
45.001030
 51
134.998962
  0
ARC
  8
0
 10
141.272766
 20
220.499954
 40
0.599998
 50
134.998962
 51
225.001038
  0
CIRCLE
  8
0
 10
139.999969
 20
220.499954
 40
2.799999
  0
ARC
  8
0
 10
139.999969
 20
177.772751
 40
0.599998
 50
225.001038
 51
314.998962
  0
ARC
  8
0
 10
138.727173
 20
176.499954
 40
0.599998
 50
314.998962
 51
45.001030
  0
ARC
  8
0
 10
139.999969
 20
175.227158
 40
0.599998
 50
45.001030
 51
134.998962
  0
ARC
  8
0
 10
141.272766
 20
176.499954
 40
0.599998
 50
134.998962
 51
225.001038
  0
CIRCLE
  8
0
 10
139.999969
 20
176.499954
 40
2.799999
  0
ARC
  8
0
 10
123.499969
 20
198.199966
 40
2.500007
 50
218.107803
 51
231.891968
  0
ARC
  8
0
 10
133.749969
 20
169.949966
 40
1.000000
 50
270.000000
 51
0.000000
  0
ARC
  8
0
 10
113.249969
 20
169.949966
 40
1.000000
 50
180.000000
 51
270.000000
  0
ARC
  8
0
 10
134.249969
 20
187.449966
 40
3.000000
 50
270.000000
 51
0.000000
  0
ARC
  8
0
 10
112.749969
 20
187.449966
 40
3.000000
 50
180.000000
 51
270.000000
  0
ARC
  8
0
 10
112.749969
 20
208.949966
 40
3.000000
 50
90.000000
 51
180.000000
  0
ARC
  8
0
 10
134.249969
 20
208.949966
 40
3.000000
 50
0.000000
 51
90.000000
  0
CIRCLE
  8
0
 10
123.499969
 20
198.199966
 40
2.799999
  0
ARC
  8
0
 10
124.772766
 20
198.199966
 40
0.600009
 50
135.000000
 51
225.001038
  0
ARC
  8
0
 10
123.499969
 20
199.472763
 40
0.600009
 50
225.000000
 51
315.000000
  0
ARC
  8
0
 10
123.499969
 20
196.927170
 40
0.600009
 50
45.000000
 51
134.998962
  0
ARC
  8
0
 10
122.227173
 20
198.199966
 40
0.600009
 50
315.000000
 51
45.000000
  0
CIRCLE
  8
0
 10
123.499969
 20
198.199966
 40
3.500000
  0
ARC
  8
0
 10
123.499969
 20
198.199966
 40
2.500007
 50
38.107807
 51
51.892193
  0
POINT
  8
0
 10
144.999969
 20
202.999954
  0
LINE
  8
0
 10
148.149963
 20
228.199966
 11
184.849976
 21
228.199966
  0
LINE
  8
0
 10
145.149963
 20
206.997147
 11
145.149963
 21
225.199966
  0
LINE
  8
0
 10
145.149963
 20
172.199966
 11
145.149963
 21
199.002762
  0
LINE
  8
0
 10
148.149963
 20
169.199966
 11
155.588531
 21
169.199966
  0
LINE
  8
0
 10
187.849976
 20
172.199966
 11
187.849976
 21
199.002762
  0
LINE
  8
0
 10
187.849976
 20
206.997147
 11
187.849976
 21
225.199966
  0
LINE
  8
0
 10
146.132263
 20
176.499954
 11
154.360626
 21
176.499954
  0
LINE
  8
0
 10
151.272659
 20
177.348465
 11
150.848404
 21
176.924194
  0
LINE
  8
0
 10
150.848404
 20
177.772720
 11
150.424133
 21
177.348450
  0
LINE
  8
0
 10
149.999969
 20
172.453995
 11
149.999969
 21
180.810928
  0
LINE
  8
0
 10
149.575729
 20
177.348511
 11
149.151459
 21
177.772781
  0
LINE
  8
0
 10
149.151428
 20
177.772751
 11
148.727158
 21
177.348480
  0
LINE
  8
0
 10
149.151474
 20
176.924286
 11
148.727203
 21
177.348557
  0
LINE
  8
0
 10
149.151352
 20
176.075668
 11
148.727081
 21
175.651398
  0
LINE
  8
0
 10
149.151443
 20
175.227188
 11
148.727173
 21
175.651459
  0
LINE
  8
0
 10
149.575607
 20
175.651413
 11
149.151352
 21
175.227142
  0
LINE
  8
0
 10
150.848526
 20
175.227234
 11
150.424255
 21
175.651505
  0
LINE
  8
0
 10
151.272690
 20
175.651459
 11
150.848419
 21
175.227188
  0
LINE
  8
0
 10
151.272781
 20
175.651459
 11
150.848511
 21
176.075729
  0
LINE
  8
0
 10
151.272781
 20
177.348541
 11
150.848511
 21
177.772812
  0
LINE
  8
0
 10
146.132263
 20
220.499954
 11
154.360626
 21
220.499954
  0
LINE
  8
0
 10
151.272659
 20
221.348465
 11
150.848389
 21
220.924194
  0
LINE
  8
0
 10
150.848404
 20
221.772720
 11
150.424133
 21
221.348450
  0
LINE
  8
0
 10
149.999969
 20
216.453995
 11
149.999969
 21
224.810928
  0
LINE
  8
0
 10
149.575729
 20
221.348511
 11
149.151459
 21
221.772781
  0
LINE
  8
0
 10
149.151428
 20
221.772766
 11
148.727158
 21
221.348495
  0
LINE
  8
0
 10
149.151474
 20
220.924286
 11
148.727203
 21
221.348557
  0
LINE
  8
0
 10
149.151352
 20
220.075668
 11
148.727081
 21
219.651398
  0
LINE
  8
0
 10
149.151443
 20
219.227188
 11
148.727173
 21
219.651459
  0
LINE
  8
0
 10
149.575607
 20
219.651413
 11
149.151337
 21
219.227142
  0
LINE
  8
0
 10
150.848526
 20
219.227234
 11
150.424255
 21
219.651505
  0
LINE
  8
0
 10
151.272690
 20
219.651459
 11
150.848419
 21
219.227203
  0
LINE
  8
0
 10
151.272781
 20
219.651459
 11
150.848511
 21
220.075729
  0
LINE
  8
0
 10
151.272781
 20
221.348541
 11
150.848511
 21
221.772812
  0
LINE
  8
0
 10
179.132263
 20
220.499954
 11
187.360626
 21
220.499954
  0
LINE
  8
0
 10
184.272675
 20
221.348465
 11
183.848389
 21
220.924210
  0
LINE
  8
0
 10
183.848404
 20
221.772720
 11
183.424133
 21
221.348450
  0
LINE
  8
0
 10
182.999969
 20
216.453995
 11
182.999969
 21
224.810928
  0
LINE
  8
0
 10
182.575729
 20
221.348511
 11
182.151459
 21
221.772781
  0
LINE
  8
0
 10
182.151428
 20
221.772766
 11
181.727158
 21
221.348495
  0
LINE
  8
0
 10
182.151474
 20
220.924286
 11
181.727203
 21
221.348557
  0
LINE
  8
0
 10
182.151352
 20
220.075668
 11
181.727081
 21
219.651398
  0
LINE
  8
0
 10
182.151443
 20
219.227188
 11
181.727173
 21
219.651459
  0
LINE
  8
0
 10
182.575623
 20
219.651428
 11
182.151337
 21
219.227158
  0
LINE
  8
0
 10
183.848526
 20
219.227234
 11
183.424255
 21
219.651505
  0
LINE
  8
0
 10
184.272690
 20
219.651459
 11
183.848419
 21
219.227203
  0
LINE
  8
0
 10
184.272781
 20
219.651459
 11
183.848511
 21
220.075729
  0
LINE
  8
0
 10
184.272781
 20
221.348541
 11
183.848511
 21
221.772812
  0
LINE
  8
0
 10
179.132263
 20
176.499954
 11
187.360626
 21
176.499954
  0
LINE
  8
0
 10
184.272675
 20
177.348465
 11
183.848389
 21
176.924194
  0
LINE
  8
0
 10
183.848404
 20
177.772720
 11
183.424133
 21
177.348450
  0
LINE
  8
0
 10
182.999969
 20
172.453995
 11
182.999969
 21
180.810928
  0
LINE
  8
0
 10
182.575729
 20
177.348511
 11
182.151459
 21
177.772781
  0
LINE
  8
0
 10
182.151428
 20
177.772766
 11
181.727173
 21
177.348480
  0
LINE
  8
0
 10
182.151474
 20
176.924286
 11
181.727203
 21
177.348557
  0
LINE
  8
0
 10
182.151352
 20
176.075668
 11
181.727081
 21
175.651398
  0
LINE
  8
0
 10
182.151443
 20
175.227188
 11
181.727173
 21
175.651459
  0
LINE
  8
0
 10
182.575623
 20
175.651413
 11
182.151337
 21
175.227142
  0
LINE
  8
0
 10
183.848526
 20
175.227234
 11
183.424255
 21
175.651505
  0
LINE
  8
0
 10
184.272690
 20
175.651459
 11
183.848419
 21
175.227188
  0
LINE
  8
0
 10
184.272781
 20
175.651459
 11
183.848511
 21
176.075729
  0
LINE
  8
0
 10
184.272797
 20
177.348541
 11
183.848511
 21
177.772812
  0
LINE
  8
0
 10
166.499969
 20
164.208817
 11
166.499969
 21
241.828110
  0
LINE
  8
0
 10
177.249969
 20
211.949966
 11
155.749969
 21
211.949966
  0
LINE
  8
0
 10
177.249969
 20
184.449966
 11
155.749969
 21
184.449966
  0
LINE
  8
0
 10
152.749969
 20
208.949966
 11
152.749969
 21
187.449966
  0
LINE
  8
0
 10
180.249969
 20
208.949966
 11
180.249969
 21
187.449966
  0
LINE
  8
0
 10
165.651520
 20
199.472778
 11
166.075760
 21
199.048523
  0
LINE
  8
0
 10
165.227249
 20
199.048553
 11
165.651489
 21
198.624298
  0
LINE
  8
0
 10
165.651474
 20
199.472778
 11
165.227203
 21
199.048523
  0
LINE
  8
0
 10
167.772797
 20
197.351471
 11
167.348526
 21
196.927200
  0
LINE
  8
0
 10
168.042847
 20
200.167145
 11
166.924271
 21
199.048569
  0
LINE
  8
0
 10
168.467087
 20
199.742859
 11
167.348511
 21
198.624283
  0
LINE
  8
0
 10
167.348572
 20
197.775726
 11
167.772842
 21
197.351456
  0
LINE
  8
0
 10
166.924301
 20
197.351501
 11
167.348572
 21
196.927231
  0
LINE
  8
0
 10
165.651474
 20
197.775757
 11
164.532867
 21
196.657166
  0
LINE
  8
0
 10
166.075699
 20
197.351486
 11
164.957108
 21
196.232880
  0
LINE
  8
0
 10
177.749969
 20
184.449966
 11
177.749969
 21
169.949966
  0
LINE
  8
0
 10
176.749969
 20
168.949966
 11
156.249969
 21
168.949966
  0
LINE
  8
0
 10
145.149963
 20
198.199966
 11
151.499969
 21
198.199966
  0
LINE
  8
0
 10
155.249969
 20
184.449966
 11
155.249969
 21
169.949966
  0
LINE
  8
0
 10
145.149963
 20
196.199966
 11
151.499969
 21
196.199966
  0
LINE
  8
0
 10
145.149963
 20
193.199966
 11
151.499969
 21
193.199966
  0
LINE
  8
0
 10
151.499969
 20
186.199966
 11
151.499969
 21
188.199966
  0
LINE
  8
0
 10
151.499969
 20
186.199966
 11
145.149963
 21
186.199966
  0
LINE
  8
0
 10
151.499969
 20
188.199966
 11
145.149963
 21
188.199966
  0
LINE
  8
0
 10
151.499969
 20
191.199966
 11
145.149963
 21
191.199966
  0
LINE
  8
0
 10
151.901031
 20
198.199966
 11
181.072937
 21
198.199966
  0
LINE
  8
0
 10
151.499969
 20
196.199966
 11
151.499969
 21
198.199966
  0
LINE
  8
0
 10
151.499969
 20
191.199966
 11
151.499969
 21
193.199966
  0
LINE
  8
0
 10
155.249969
 20
183.199966
 11
145.149963
 21
183.199966
  0
LINE
  8
0
 10
155.249969
 20
181.199966
 11
145.149963
 21
181.199966
  0
LINE
  8
0
 10
187.849976
 20
198.199966
 11
181.499969
 21
198.199966
  0
LINE
  8
0
 10
187.849976
 20
196.199966
 11
181.499969
 21
196.199966
  0
LINE
  8
0
 10
187.849976
 20
193.199966
 11
181.499969
 21
193.199966
  0
LINE
  8
0
 10
181.499969
 20
186.199966
 11
181.499969
 21
188.199966
  0
LINE
  8
0
 10
181.499969
 20
186.199966
 11
187.849976
 21
186.199966
  0
LINE
  8
0
 10
181.499969
 20
188.199966
 11
187.849976
 21
188.199966
  0
LINE
  8
0
 10
181.499969
 20
191.199966
 11
187.849976
 21
191.199966
  0
LINE
  8
0
 10
181.499969
 20
196.199966
 11
181.499969
 21
198.199966
  0
LINE
  8
0
 10
181.499969
 20
191.199966
 11
181.499969
 21
193.199966
  0
LINE
  8
0
 10
177.749969
 20
183.199966
 11
187.849976
 21
183.199966
  0
LINE
  8
0
 10
177.749969
 20
181.199966
 11
187.849976
 21
181.199966
  0
LINE
  8
0
 10
145.149963
 20
207.799942
 11
151.499969
 21
207.799942
  0
LINE
  8
0
 10
145.149963
 20
209.799942
 11
151.499969
 21
209.799942
  0
LINE
  8
0
 10
145.149963
 20
212.799942
 11
187.849976
 21
212.799942
  0
LINE
  8
0
 10
187.849976
 20
214.799942
 11
145.149963
 21
214.799942
  0
LINE
  8
0
 10
151.499969
 20
209.799942
 11
151.499969
 21
207.799942
  0
LINE
  8
0
 10
187.849976
 20
207.799942
 11
181.499969
 21
207.799942
  0
LINE
  8
0
 10
187.849976
 20
209.799942
 11
181.499969
 21
209.799942
  0
LINE
  8
0
 10
181.499969
 20
209.799942
 11
181.499969
 21
207.799942
  0
LINE
  8
0
 10
145.549957
 20
181.199966
 11
145.549957
 21
183.199966
  0
LINE
  8
0
 10
145.549957
 20
186.199966
 11
145.549957
 21
188.199966
  0
LINE
  8
0
 10
145.549957
 20
191.199966
 11
145.549957
 21
193.199966
  0
LINE
  8
0
 10
145.549957
 20
196.199966
 11
145.549957
 21
198.199966
  0
LINE
  8
0
 10
145.549957
 20
209.799942
 11
145.549957
 21
207.799942
  0
LINE
  8
0
 10
145.549957
 20
214.799942
 11
145.549957
 21
212.799942
  0
LINE
  8
0
 10
187.449982
 20
214.799942
 11
187.449982
 21
212.799942
  0
LINE
  8
0
 10
187.449982
 20
209.799942
 11
187.449982
 21
207.799942
  0
LINE
  8
0
 10
187.449982
 20
196.199966
 11
187.449982
 21
198.199966
  0
LINE
  8
0
 10
187.449982
 20
191.199966
 11
187.449982
 21
193.199966
  0
LINE
  8
0
 10
187.449982
 20
186.199966
 11
187.449982
 21
188.199966
  0
LINE
  8
0
 10
187.449982
 20
181.199966
 11
187.449982
 21
183.199966
  0
LINE
  8
0
 10
157.999969
 20
168.949966
 11
157.999969
 21
164.949966
  0
LINE
  8
0
 10
159.199982
 20
168.949966
 11
159.199982
 21
164.949966
  0
LINE
  8
0
 10
173.799957
 20
168.949966
 11
173.799957
 21
164.949966
  0
LINE
  8
0
 10
174.999969
 20
168.949966
 11
174.999969
 21
164.949966
  0
LINE
  8
0
 10
155.499969
 20
164.949966
 11
155.499969
 21
158.949966
  0
LINE
  8
0
 10
156.973694
 20
164.949966
 11
156.973694
 21
158.949966
  0
LINE
  8
0
 10
159.073669
 20
164.949966
 11
159.073669
 21
158.949966
  0
LINE
  8
0
 10
159.696045
 20
164.949966
 11
159.696045
 21
158.949966
  0
LINE
  8
0
 10
164.150269
 20
164.949966
 11
164.150269
 21
158.949966
  0
LINE
  8
0
 10
164.399963
 20
164.949966
 11
164.399963
 21
158.949966
  0
LINE
  8
0
 10
168.599976
 20
164.949966
 11
168.599976
 21
158.949966
  0
LINE
  8
0
 10
166.499969
 20
164.949966
 11
166.499969
 21
158.949966
  0
LINE
  8
0
 10
173.303894
 20
164.949966
 11
173.303894
 21
158.949966
  0
LINE
  8
0
 10
173.926270
 20
164.949966
 11
173.926270
 21
158.949966
  0
LINE
  8
0
 10
176.026245
 20
164.949966
 11
176.026245
 21
158.949966
  0
LINE
  8
0
 10
177.499969
 20
164.949966
 11
177.499969
 21
158.949966
  0
LINE
  8
0
 10
177.499969
 20
164.949966
 11
155.499969
 21
164.949966
  0
LINE
  8
0
 10
177.499969
 20
158.949966
 11
155.499969
 21
158.949966
  0
LINE
  8
0
 10
168.849670
 20
164.949966
 11
168.849670
 21
158.949966
  0
LINE
  8
0
 10
177.411407
 20
169.199966
 11
184.849976
 21
169.199966
  0
ARC
  8
0
 10
148.149963
 20
225.199966
 40
3.000000
 50
90.000000
 51
180.000000
  0
ARC
  8
0
 10
144.999969
 20
202.999954
 40
3.999990
 50
272.149017
 51
87.850990
  0
ARC
  8
0
 10
148.149963
 20
172.199966
 40
3.000000
 50
180.000000
 51
270.000000
  0
ARC
  8
0
 10
184.849976
 20
172.199966
 40
3.000000
 50
270.000000
 51
0.000000
  0
ARC
  8
0
 10
187.999969
 20
202.999954
 40
3.999990
 50
92.149010
 51
267.850983
  0
ARC
  8
0
 10
184.849976
 20
225.199966
 40
3.000000
 50
0.000000
 51
90.000000
  0
ARC
  8
0
 10
149.999969
 20
177.772751
 40
0.600009
 50
225.000000
 51
315.000000
  0
ARC
  8
0
 10
148.727173
 20
176.499954
 40
0.600009
 50
315.000000
 51
45.000000
  0
ARC
  8
0
 10
149.999969
 20
175.227158
 40
0.600009
 50
45.000000
 51
135.000000
  0
ARC
  8
0
 10
151.272766
 20
176.499954
 40
0.600009
 50
135.000000
 51
225.000000
  0
CIRCLE
  8
0
 10
149.999969
 20
176.499954
 40
2.799999
  0
ARC
  8
0
 10
149.999969
 20
221.772751
 40
0.600009
 50
225.000000
 51
315.000000
  0
ARC
  8
0
 10
148.727173
 20
220.499954
 40
0.600009
 50
315.000000
 51
45.000000
  0
ARC
  8
0
 10
149.999969
 20
219.227158
 40
0.600009
 50
45.000000
 51
135.000000
  0
ARC
  8
0
 10
151.272766
 20
220.499954
 40
0.600009
 50
135.000000
 51
225.000000
  0
CIRCLE
  8
0
 10
149.999969
 20
220.499954
 40
2.799999
  0
ARC
  8
0
 10
182.999969
 20
221.772751
 40
0.599998
 50
225.001038
 51
314.998962
  0
ARC
  8
0
 10
181.727173
 20
220.499954
 40
0.599998
 50
314.998962
 51
45.001030
  0
ARC
  8
0
 10
182.999969
 20
219.227158
 40
0.599998
 50
45.001030
 51
134.998962
  0
ARC
  8
0
 10
184.272766
 20
220.499954
 40
0.599998
 50
134.998962
 51
225.001038
  0
CIRCLE
  8
0
 10
182.999969
 20
220.499954
 40
2.799999
  0
ARC
  8
0
 10
182.999969
 20
177.772751
 40
0.599998
 50
225.001038
 51
314.998962
  0
ARC
  8
0
 10
181.727173
 20
176.499954
 40
0.599998
 50
314.998962
 51
45.001030
  0
ARC
  8
0
 10
182.999969
 20
175.227158
 40
0.599998
 50
45.001030
 51
134.998962
  0
ARC
  8
0
 10
184.272766
 20
176.499954
 40
0.599998
 50
134.998962
 51
225.001038
  0
CIRCLE
  8
0
 10
182.999969
 20
176.499954
 40
2.799999
  0
ARC
  8
0
 10
166.499969
 20
198.199966
 40
2.500007
 50
218.107803
 51
231.891968
  0
ARC
  8
0
 10
176.749969
 20
169.949966
 40
1.000000
 50
270.000000
 51
0.000000
  0
ARC
  8
0
 10
156.249969
 20
169.949966
 40
1.000000
 50
180.000000
 51
270.000000
  0
ARC
  8
0
 10
177.249969
 20
187.449966
 40
3.000000
 50
270.000000
 51
0.000000
  0
ARC
  8
0
 10
155.749969
 20
187.449966
 40
3.000000
 50
180.000000
 51
270.000000
  0
ARC
  8
0
 10
155.749969
 20
208.949966
 40
3.000000
 50
90.000000
 51
180.000000
  0
ARC
  8
0
 10
177.249969
 20
208.949966
 40
3.000000
 50
0.000000
 51
90.000000
  0
CIRCLE
  8
0
 10
166.499969
 20
198.199966
 40
2.799999
  0
ARC
  8
0
 10
167.772766
 20
198.199966
 40
0.600009
 50
135.000000
 51
225.001038
  0
ARC
  8
0
 10
166.499969
 20
199.472763
 40
0.600009
 50
225.000000
 51
315.000000
  0
ARC
  8
0
 10
166.499969
 20
196.927170
 40
0.600009
 50
45.000000
 51
134.998962
  0
ARC
  8
0
 10
165.227173
 20
198.199966
 40
0.600009
 50
315.000000
 51
45.000000
  0
CIRCLE
  8
0
 10
166.499969
 20
198.199966
 40
3.500000
  0
ARC
  8
0
 10
166.499969
 20
198.199966
 40
2.500007
 50
38.107807
 51
51.892193
  0
POINT
  8
0
 10
15.999973
 20
168.999954
  0
LINE
  8
0
 10
15.999973
 20
167.999954
 11
15.999973
 21
168.999954
  0
LINE
  8
0
 10
15.999973
 20
167.999954
 11
15.999973
 21
168.999954
  0
LINE
  8
0
 10
17.499973
 20
107.400040
 11
56.499973
 21
107.400040
  0
LINE
  8
0
 10
51.499973
 20
162.400101
 11
48.499973
 21
162.400101
  0
LINE
  8
0
 10
52.999973
 20
117.400040
 11
20.999973
 21
117.400040
  0
LINE
  8
0
 10
52.999973
 20
147.400040
 11
20.999973
 21
147.400040
  0
LINE
  8
0
 10
20.999973
 20
108.900040
 11
20.999973
 21
160.900101
  0
LINE
  8
0
 10
52.999973
 20
108.900040
 11
52.999973
 21
160.900101
  0
LINE
  8
0
 10
52.999973
 20
155.900101
 11
49.499973
 21
155.900101
  0
LINE
  8
0
 10
28.999973
 20
158.900101
 11
19.999973
 21
158.900101
  0
LINE
  8
0
 10
20.999973
 20
155.900101
 11
24.499973
 21
155.900101
  0
LINE
  8
0
 10
52.999973
 20
118.800034
 11
20.999973
 21
118.800034
  0
LINE
  8
0
 10
52.999973
 20
120.800034
 11
20.999973
 21
120.800034
  0
LINE
  8
0
 10
52.999973
 20
122.400040
 11
36.999973
 21
122.400040
  0
LINE
  8
0
 10
52.999973
 20
124.400040
 11
36.999973
 21
124.400040
  0
LINE
  8
0
 10
52.999973
 20
126.000046
 11
20.999973
 21
126.000046
  0
LINE
  8
0
 10
52.999973
 20
128.000046
 11
20.999973
 21
128.000046
  0
LINE
  8
0
 10
52.999973
 20
129.600021
 11
20.999973
 21
129.600021
  0
LINE
  8
0
 10
52.999973
 20
131.600021
 11
20.999973
 21
131.600021
  0
LINE
  8
0
 10
52.999973
 20
133.200027
 11
20.999973
 21
133.200027
  0
LINE
  8
0
 10
52.999973
 20
135.200027
 11
20.999973
 21
135.200027
  0
LINE
  8
0
 10
52.999973
 20
136.800034
 11
20.999973
 21
136.800034
  0
LINE
  8
0
 10
52.999973
 20
138.800034
 11
20.999973
 21
138.800034
  0
LINE
  8
0
 10
52.999973
 20
140.400040
 11
20.999973
 21
140.400040
  0
LINE
  8
0
 10
52.999973
 20
142.400040
 11
20.999973
 21
142.400040
  0
LINE
  8
0
 10
52.999973
 20
144.000015
 11
20.999973
 21
144.000015
  0
LINE
  8
0
 10
52.999973
 20
146.000015
 11
20.999973
 21
146.000015
  0
LINE
  8
0
 10
20.999973
 20
126.000046
 11
20.999973
 21
128.000046
  0
LINE
  8
0
 10
23.999973
 20
122.400040
 11
23.999973
 21
124.400040
  0
LINE
  8
0
 10
23.999973
 20
122.400040
 11
20.999973
 21
122.400040
  0
LINE
  8
0
 10
23.999973
 20
124.400040
 11
20.999973
 21
124.400040
  0
LINE
  8
0
 10
36.999973
 20
122.400040
 11
36.999973
 21
124.400040
  0
LINE
  8
0
 10
15.999973
 20
167.400101
 11
28.999973
 21
167.400101
  0
LINE
  8
0
 10
15.999973
 20
108.900040
 11
15.999973
 21
167.999954
  0
LINE
  8
0
 10
57.999973
 20
108.900040
 11
57.999973
 21
168.999954
  0
LINE
  8
0
 10
54.231876
 20
152.399673
 11
53.365788
 21
153.899780
  0
LINE
  8
0
 10
53.366001
 20
153.900101
 11
52.999973
 21
153.900101
  0
LINE
  8
0
 10
53.366001
 20
150.900101
 11
52.999973
 21
150.900101
  0
LINE
  8
0
 10
54.231991
 20
152.399963
 11
53.365978
 21
150.899979
  0
LINE
  8
0
 10
24.299961
 20
157.200150
 11
24.299961
 21
158.700150
  0
LINE
  8
0
 10
24.699955
 20
157.200150
 11
24.699955
 21
158.700150
  0
LINE
  8
0
 10
26.199955
 20
159.100052
 11
24.699955
 21
159.100052
  0
LINE
  8
0
 10
26.199955
 20
158.700150
 11
24.699955
 21
158.700150
  0
LINE
  8
0
 10
22.799961
 20
158.700150
 11
22.799961
 21
159.100052
  0
LINE
  8
0
 10
24.699955
 20
157.200150
 11
24.299961
 21
157.200150
  0
LINE
  8
0
 10
24.699955
 20
160.600052
 11
24.299961
 21
160.600052
  0
LINE
  8
0
 10
24.299961
 20
159.100052
 11
22.799961
 21
159.100052
  0
LINE
  8
0
 10
24.299961
 20
158.700150
 11
22.799961
 21
158.700150
  0
LINE
  8
0
 10
24.699955
 20
159.100052
 11
24.699955
 21
160.600052
  0
LINE
  8
0
 10
24.299961
 20
159.100052
 11
24.299961
 21
160.600052
  0
LINE
  8
0
 10
49.299961
 20
159.100052
 11
49.299961
 21
160.600052
  0
LINE
  8
0
 10
49.699955
 20
159.100052
 11
49.699955
 21
160.600052
  0
LINE
  8
0
 10
49.299961
 20
157.200150
 11
49.299961
 21
158.700150
  0
LINE
  8
0
 10
49.699955
 20
157.200150
 11
49.699955
 21
158.700150
  0
LINE
  8
0
 10
51.199955
 20
159.100052
 11
49.699955
 21
159.100052
  0
LINE
  8
0
 10
51.199955
 20
158.700150
 11
49.699955
 21
158.700150
  0
LINE
  8
0
 10
51.199955
 20
158.700150
 11
51.199955
 21
159.100052
  0
LINE
  8
0
 10
49.699955
 20
157.200150
 11
49.299961
 21
157.200150
  0
LINE
  8
0
 10
49.699955
 20
160.600052
 11
49.299961
 21
160.600052
  0
LINE
  8
0
 10
49.299961
 20
159.100052
 11
48.499973
 21
159.100052
  0
LINE
  8
0
 10
49.299961
 20
158.700150
 11
47.799961
 21
158.700150
  0
LINE
  8
0
 10
20.999973
 20
123.900040
 11
20.633945
 21
123.900040
  0
LINE
  8
0
 10
19.767582
 20
125.399803
 11
20.633595
 21
123.899826
  0
LINE
  8
0
 10
20.634060
 20
126.900108
 11
19.768032
 21
125.400101
  0
LINE
  8
0
 10
40.999973
 20
151.499954
 11
32.999973
 21
151.499954
  0
LINE
  8
0
 10
24.499943
 20
154.894241
 11
24.499943
 21
162.970169
  0
LINE
  8
0
 10
49.500004
 20
154.894241
 11
49.500004
 21
162.970169
  0
LINE
  8
0
 10
44.999973
 20
158.900101
 11
53.999973
 21
158.900101
  0
LINE
  8
0
 10
26.499973
 20
162.400101
 11
22.499973
 21
162.400101
  0
LINE
  8
0
 10
45.999973
 20
167.400101
 11
57.999973
 21
167.400101
  0
LINE
  8
0
 10
52.999973
 20
152.399643
 11
57.412235
 21
152.399643
  0
LINE
  8
0
 10
16.488926
 20
125.399796
 11
20.999973
 21
125.399796
  0
LINE
  8
0
 10
20.634068
 20
126.900101
 11
20.999973
 21
126.900101
  0
ARC
  8
0
 10
22.499973
 20
108.900040
 40
1.500000
 50
180.000000
 51
270.000000
  0
ARC
  8
0
 10
51.499973
 20
108.900040
 40
1.500000
 50
270.000000
 51
0.000000
  0
ARC
  8
0
 10
49.499973
 20
158.900101
 40
2.500001
 50
178.857086
 51
113.578156
  0
ARC
  8
0
 10
51.499973
 20
160.900101
 40
1.500000
 50
0.000000
 51
90.000000
  0
ARC
  8
0
 10
22.499973
 20
160.900101
 40
1.500000
 50
90.000000
 51
180.000000
  0
ARC
  8
0
 10
49.499973
 20
158.900101
 40
3.000002
 50
179.047592
 51
270.000000
  0
CIRCLE
  8
0
 10
36.999973
 20
151.499954
 40
2.150000
  0
CIRCLE
  8
0
 10
36.999973
 20
151.499954
 40
1.500000
  0
ARC
  8
0
 10
24.499973
 20
158.900101
 40
2.500000
 50
36.869896
 51
1.142913
  0
ARC
  8
0
 10
24.499973
 20
158.900101
 40
3.000000
 50
270.000000
 51
0.952409
  0
ARC
  8
0
 10
56.499973
 20
108.900040
 40
1.500000
 50
270.000000
 51
0.000000
  0
ARC
  8
0
 10
17.499973
 20
108.900040
 40
1.500000
 50
180.000000
 51
270.000000
  0
ARC
  8
0
 10
52.499973
 20
152.400101
 40
3.499995
 50
278.213226
 51
81.786774
  0
ARC
  8
0
 10
21.499973
 20
125.400040
 40
3.499995
 50
98.213226
 51
261.786713
  0
ARC
  8
0
 10
52.499973
 20
152.400101
 40
4.000001
 50
277.180756
 51
82.819244
  0
ARC
  8
0
 10
21.499973
 20
125.400040
 40
4.000001
 50
97.180756
 51
262.819183
  0
TEXT
  8
0
 10
33.274944
 20
123.480103
 40
1.200000
  1
AC200V
 50
180.000000
 41
0.844285
 51
0.000000
  7
STANDARD
  0
POINT
  8
0
 10
58.999973
 20
168.999954
  0
LINE
  8
0
 10
58.999973
 20
167.999954
 11
58.999973
 21
168.999954
  0
LINE
  8
0
 10
58.999973
 20
167.999954
 11
58.999973
 21
168.999954
  0
LINE
  8
0
 10
60.499973
 20
107.400040
 11
99.499969
 21
107.400040
  0
LINE
  8
0
 10
94.499969
 20
162.400101
 11
91.499969
 21
162.400101
  0
LINE
  8
0
 10
95.999969
 20
117.400040
 11
63.999973
 21
117.400040
  0
LINE
  8
0
 10
95.999969
 20
147.400040
 11
63.999973
 21
147.400040
  0
LINE
  8
0
 10
63.999973
 20
108.900040
 11
63.999973
 21
160.900101
  0
LINE
  8
0
 10
95.999969
 20
108.900040
 11
95.999969
 21
160.900101
  0
LINE
  8
0
 10
95.999969
 20
155.900101
 11
92.499969
 21
155.900101
  0
LINE
  8
0
 10
71.999969
 20
158.900101
 11
62.999973
 21
158.900101
  0
LINE
  8
0
 10
63.999973
 20
155.900101
 11
67.499969
 21
155.900101
  0
LINE
  8
0
 10
95.999969
 20
118.800034
 11
63.999973
 21
118.800034
  0
LINE
  8
0
 10
95.999969
 20
120.800034
 11
63.999973
 21
120.800034
  0
LINE
  8
0
 10
95.999969
 20
122.400040
 11
79.999969
 21
122.400040
  0
LINE
  8
0
 10
95.999969
 20
124.400040
 11
79.999969
 21
124.400040
  0
LINE
  8
0
 10
95.999969
 20
126.000046
 11
63.999973
 21
126.000046
  0
LINE
  8
0
 10
95.999969
 20
128.000046
 11
63.999973
 21
128.000046
  0
LINE
  8
0
 10
95.999969
 20
129.600021
 11
63.999973
 21
129.600021
  0
LINE
  8
0
 10
95.999969
 20
131.600021
 11
63.999973
 21
131.600021
  0
LINE
  8
0
 10
95.999969
 20
133.200027
 11
63.999973
 21
133.200027
  0
LINE
  8
0
 10
95.999969
 20
135.200027
 11
63.999973
 21
135.200027
  0
LINE
  8
0
 10
95.999969
 20
136.800034
 11
63.999973
 21
136.800034
  0
LINE
  8
0
 10
95.999969
 20
138.800034
 11
63.999973
 21
138.800034
  0
LINE
  8
0
 10
95.999969
 20
140.400040
 11
63.999973
 21
140.400040
  0
LINE
  8
0
 10
95.999969
 20
142.400040
 11
63.999973
 21
142.400040
  0
LINE
  8
0
 10
95.999969
 20
144.000015
 11
63.999973
 21
144.000015
  0
LINE
  8
0
 10
95.999969
 20
146.000015
 11
63.999973
 21
146.000015
  0
LINE
  8
0
 10
63.999973
 20
126.000046
 11
63.999973
 21
128.000046
  0
LINE
  8
0
 10
66.999969
 20
122.400040
 11
66.999969
 21
124.400040
  0
LINE
  8
0
 10
66.999969
 20
122.400040
 11
63.999973
 21
122.400040
  0
LINE
  8
0
 10
66.999969
 20
124.400040
 11
63.999973
 21
124.400040
  0
LINE
  8
0
 10
79.999969
 20
122.400040
 11
79.999969
 21
124.400040
  0
LINE
  8
0
 10
58.999973
 20
167.400101
 11
71.999969
 21
167.400101
  0
LINE
  8
0
 10
58.999973
 20
108.900040
 11
58.999973
 21
167.999954
  0
LINE
  8
0
 10
100.999969
 20
108.900040
 11
100.999969
 21
168.999954
  0
LINE
  8
0
 10
97.231873
 20
152.399673
 11
96.365784
 21
153.899780
  0
LINE
  8
0
 10
96.365997
 20
153.900101
 11
95.999969
 21
153.900101
  0
LINE
  8
0
 10
96.365997
 20
150.900101
 11
95.999969
 21
150.900101
  0
LINE
  8
0
 10
97.231995
 20
152.399963
 11
96.365982
 21
150.899979
  0
LINE
  8
0
 10
67.299957
 20
157.200150
 11
67.299957
 21
158.700150
  0
LINE
  8
0
 10
67.699951
 20
157.200150
 11
67.699951
 21
158.700150
  0
LINE
  8
0
 10
69.199951
 20
159.100052
 11
67.699951
 21
159.100052
  0
LINE
  8
0
 10
69.199951
 20
158.700150
 11
67.699951
 21
158.700150
  0
LINE
  8
0
 10
65.799957
 20
158.700150
 11
65.799957
 21
159.100052
  0
LINE
  8
0
 10
67.699951
 20
157.200150
 11
67.299957
 21
157.200150
  0
LINE
  8
0
 10
67.699951
 20
160.600052
 11
67.299957
 21
160.600052
  0
LINE
  8
0
 10
67.299957
 20
159.100052
 11
65.799957
 21
159.100052
  0
LINE
  8
0
 10
67.299957
 20
158.700150
 11
65.799957
 21
158.700150
  0
LINE
  8
0
 10
67.699951
 20
159.100052
 11
67.699951
 21
160.600052
  0
LINE
  8
0
 10
67.299957
 20
159.100052
 11
67.299957
 21
160.600052
  0
LINE
  8
0
 10
92.299957
 20
159.100052
 11
92.299957
 21
160.600052
  0
LINE
  8
0
 10
92.699951
 20
159.100052
 11
92.699951
 21
160.600052
  0
LINE
  8
0
 10
92.299957
 20
157.200150
 11
92.299957
 21
158.700150
  0
LINE
  8
0
 10
92.699951
 20
157.200150
 11
92.699951
 21
158.700150
  0
LINE
  8
0
 10
94.199951
 20
159.100052
 11
92.699951
 21
159.100052
  0
LINE
  8
0
 10
94.199951
 20
158.700150
 11
92.699951
 21
158.700150
  0
LINE
  8
0
 10
94.199951
 20
158.700150
 11
94.199951
 21
159.100052
  0
LINE
  8
0
 10
92.699951
 20
157.200150
 11
92.299957
 21
157.200150
  0
LINE
  8
0
 10
92.699951
 20
160.600052
 11
92.299957
 21
160.600052
  0
LINE
  8
0
 10
92.299957
 20
159.100052
 11
91.499969
 21
159.100052
  0
LINE
  8
0
 10
92.299957
 20
158.700150
 11
90.799957
 21
158.700150
  0
LINE
  8
0
 10
63.999973
 20
123.900040
 11
63.633945
 21
123.900040
  0
LINE
  8
0
 10
62.767582
 20
125.399803
 11
63.633595
 21
123.899826
  0
LINE
  8
0
 10
63.634060
 20
126.900108
 11
62.768032
 21
125.400101
  0
LINE
  8
0
 10
83.999969
 20
151.499954
 11
75.999969
 21
151.499954
  0
LINE
  8
0
 10
67.499939
 20
154.894241
 11
67.499939
 21
162.970169
  0
LINE
  8
0
 10
92.500000
 20
154.894241
 11
92.500000
 21
162.970169
  0
LINE
  8
0
 10
87.999969
 20
158.900101
 11
96.999969
 21
158.900101
  0
LINE
  8
0
 10
69.499969
 20
162.400101
 11
65.499969
 21
162.400101
  0
LINE
  8
0
 10
88.999969
 20
167.400101
 11
100.999969
 21
167.400101
  0
LINE
  8
0
 10
95.999969
 20
152.399643
 11
100.412231
 21
152.399643
  0
LINE
  8
0
 10
59.488926
 20
125.399796
 11
63.999973
 21
125.399796
  0
LINE
  8
0
 10
63.634068
 20
126.900101
 11
63.999973
 21
126.900101
  0
ARC
  8
0
 10
65.499969
 20
108.900040
 40
1.499996
 50
180.000000
 51
270.000000
  0
ARC
  8
0
 10
94.499969
 20
108.900040
 40
1.500000
 50
270.000000
 51
0.000000
  0
ARC
  8
0
 10
92.499969
 20
158.900101
 40
2.499994
 50
178.857086
 51
113.578156
  0
ARC
  8
0
 10
94.499969
 20
160.900101
 40
1.500000
 50
0.000000
 51
90.000000
  0
ARC
  8
0
 10
65.499969
 20
160.900101
 40
1.500000
 50
90.000000
 51
180.000000
  0
ARC
  8
0
 10
92.499969
 20
158.900101
 40
3.000002
 50
179.047592
 51
270.000000
  0
CIRCLE
  8
0
 10
79.999969
 20
151.499954
 40
2.150000
  0
CIRCLE
  8
0
 10
79.999969
 20
151.499954
 40
1.500000
  0
ARC
  8
0
 10
67.499969
 20
158.900101
 40
2.500000
 50
36.869896
 51
1.142910
  0
ARC
  8
0
 10
67.499969
 20
158.900101
 40
3.000000
 50
270.000000
 51
0.952408
  0
ARC
  8
0
 10
99.499969
 20
108.900040
 40
1.500000
 50
270.000000
 51
0.000000
  0
ARC
  8
0
 10
60.499973
 20
108.900040
 40
1.500000
 50
180.000000
 51
270.000000
  0
ARC
  8
0
 10
95.499969
 20
152.400101
 40
3.499995
 50
278.213226
 51
81.786774
  0
ARC
  8
0
 10
64.499969
 20
125.400040
 40
3.499994
 50
98.213165
 51
261.786835
  0
ARC
  8
0
 10
95.499969
 20
152.400101
 40
4.000001
 50
277.180756
 51
82.819244
  0
ARC
  8
0
 10
64.499969
 20
125.400040
 40
4.000000
 50
97.180702
 51
262.819305
  0
TEXT
  8
0
 10
76.274940
 20
123.480103
 40
1.200000
  1
AC200V
 50
180.000000
 41
0.844285
 51
0.000000
  7
STANDARD
  0
POINT
  8
0
 10
101.999969
 20
168.999954
  0
LINE
  8
0
 10
101.999969
 20
167.999954
 11
101.999969
 21
168.999954
  0
LINE
  8
0
 10
101.999969
 20
167.999954
 11
101.999969
 21
168.999954
  0
LINE
  8
0
 10
103.499969
 20
107.400040
 11
142.499969
 21
107.400040
  0
LINE
  8
0
 10
137.499969
 20
162.400101
 11
134.499969
 21
162.400101
  0
LINE
  8
0
 10
138.999969
 20
117.400040
 11
106.999969
 21
117.400040
  0
LINE
  8
0
 10
138.999969
 20
147.400040
 11
106.999969
 21
147.400040
  0
LINE
  8
0
 10
106.999969
 20
108.900040
 11
106.999969
 21
160.900101
  0
LINE
  8
0
 10
138.999969
 20
108.900040
 11
138.999969
 21
160.900101
  0
LINE
  8
0
 10
138.999969
 20
155.900101
 11
135.499969
 21
155.900101
  0
LINE
  8
0
 10
114.999969
 20
158.900101
 11
105.999969
 21
158.900101
  0
LINE
  8
0
 10
106.999969
 20
155.900101
 11
110.499969
 21
155.900101
  0
LINE
  8
0
 10
138.999969
 20
118.800034
 11
106.999969
 21
118.800034
  0
LINE
  8
0
 10
138.999969
 20
120.800034
 11
106.999969
 21
120.800034
  0
LINE
  8
0
 10
138.999969
 20
122.400040
 11
122.999969
 21
122.400040
  0
LINE
  8
0
 10
138.999969
 20
124.400040
 11
122.999969
 21
124.400040
  0
LINE
  8
0
 10
138.999969
 20
126.000046
 11
106.999969
 21
126.000046
  0
LINE
  8
0
 10
138.999969
 20
128.000046
 11
106.999969
 21
128.000046
  0
LINE
  8
0
 10
138.999969
 20
129.600021
 11
106.999969
 21
129.600021
  0
LINE
  8
0
 10
138.999969
 20
131.600021
 11
106.999969
 21
131.600021
  0
LINE
  8
0
 10
138.999969
 20
133.200027
 11
106.999969
 21
133.200027
  0
LINE
  8
0
 10
138.999969
 20
135.200027
 11
106.999969
 21
135.200027
  0
LINE
  8
0
 10
138.999969
 20
136.800034
 11
106.999969
 21
136.800034
  0
LINE
  8
0
 10
138.999969
 20
138.800034
 11
106.999969
 21
138.800034
  0
LINE
  8
0
 10
138.999969
 20
140.400040
 11
106.999969
 21
140.400040
  0
LINE
  8
0
 10
138.999969
 20
142.400040
 11
106.999969
 21
142.400040
  0
LINE
  8
0
 10
138.999969
 20
144.000015
 11
106.999969
 21
144.000015
  0
LINE
  8
0
 10
138.999969
 20
146.000015
 11
106.999969
 21
146.000015
  0
LINE
  8
0
 10
106.999969
 20
126.000046
 11
106.999969
 21
128.000046
  0
LINE
  8
0
 10
109.999969
 20
122.400040
 11
109.999969
 21
124.400040
  0
LINE
  8
0
 10
109.999969
 20
122.400040
 11
106.999969
 21
122.400040
  0
LINE
  8
0
 10
109.999969
 20
124.400040
 11
106.999969
 21
124.400040
  0
LINE
  8
0
 10
122.999969
 20
122.400040
 11
122.999969
 21
124.400040
  0
LINE
  8
0
 10
101.999969
 20
167.400101
 11
114.999969
 21
167.400101
  0
LINE
  8
0
 10
101.999969
 20
108.900040
 11
101.999969
 21
167.999954
  0
LINE
  8
0
 10
143.999969
 20
108.900040
 11
143.999969
 21
168.999954
  0
LINE
  8
0
 10
140.231873
 20
152.399673
 11
139.365784
 21
153.899780
  0
LINE
  8
0
 10
139.365997
 20
153.900101
 11
138.999969
 21
153.900101
  0
LINE
  8
0
 10
139.365997
 20
150.900101
 11
138.999969
 21
150.900101
  0
LINE
  8
0
 10
140.231995
 20
152.399963
 11
139.365967
 21
150.899979
  0
LINE
  8
0
 10
110.299957
 20
157.200150
 11
110.299957
 21
158.700150
  0
LINE
  8
0
 10
110.699951
 20
157.200150
 11
110.699951
 21
158.700150
  0
LINE
  8
0
 10
112.199951
 20
159.100052
 11
110.699951
 21
159.100052
  0
LINE
  8
0
 10
112.199951
 20
158.700150
 11
110.699951
 21
158.700150
  0
LINE
  8
0
 10
108.799957
 20
158.700150
 11
108.799957
 21
159.100052
  0
LINE
  8
0
 10
110.699951
 20
157.200150
 11
110.299957
 21
157.200150
  0
LINE
  8
0
 10
110.699951
 20
160.600052
 11
110.299957
 21
160.600052
  0
LINE
  8
0
 10
110.299957
 20
159.100052
 11
108.799957
 21
159.100052
  0
LINE
  8
0
 10
110.299957
 20
158.700150
 11
108.799957
 21
158.700150
  0
LINE
  8
0
 10
110.699951
 20
159.100052
 11
110.699951
 21
160.600052
  0
LINE
  8
0
 10
110.299957
 20
159.100052
 11
110.299957
 21
160.600052
  0
LINE
  8
0
 10
135.299957
 20
159.100052
 11
135.299957
 21
160.600052
  0
LINE
  8
0
 10
135.699951
 20
159.100052
 11
135.699951
 21
160.600052
  0
LINE
  8
0
 10
135.299957
 20
157.200150
 11
135.299957
 21
158.700150
  0
LINE
  8
0
 10
135.699951
 20
157.200150
 11
135.699951
 21
158.700150
  0
LINE
  8
0
 10
137.199951
 20
159.100052
 11
135.699951
 21
159.100052
  0
LINE
  8
0
 10
137.199951
 20
158.700150
 11
135.699951
 21
158.700150
  0
LINE
  8
0
 10
137.199951
 20
158.700150
 11
137.199951
 21
159.100052
  0
LINE
  8
0
 10
135.699951
 20
157.200150
 11
135.299957
 21
157.200150
  0
LINE
  8
0
 10
135.699951
 20
160.600052
 11
135.299957
 21
160.600052
  0
LINE
  8
0
 10
135.299957
 20
159.100052
 11
134.499969
 21
159.100052
  0
LINE
  8
0
 10
135.299957
 20
158.700150
 11
133.799957
 21
158.700150
  0
LINE
  8
0
 10
106.999969
 20
123.900040
 11
106.633942
 21
123.900040
  0
LINE
  8
0
 10
105.767578
 20
125.399803
 11
106.633591
 21
123.899826
  0
LINE
  8
0
 10
106.634064
 20
126.900108
 11
105.768036
 21
125.400101
  0
LINE
  8
0
 10
126.999969
 20
151.499954
 11
118.999969
 21
151.499954
  0
LINE
  8
0
 10
110.499939
 20
154.894241
 11
110.499939
 21
162.970169
  0
LINE
  8
0
 10
135.500000
 20
154.894241
 11
135.500000
 21
162.970169
  0
LINE
  8
0
 10
130.999969
 20
158.900101
 11
139.999969
 21
158.900101
  0
LINE
  8
0
 10
112.499969
 20
162.400101
 11
108.499969
 21
162.400101
  0
LINE
  8
0
 10
131.999969
 20
167.400101
 11
143.999969
 21
167.400101
  0
LINE
  8
0
 10
138.999969
 20
152.399643
 11
143.412231
 21
152.399643
  0
LINE
  8
0
 10
102.488922
 20
125.399796
 11
106.999969
 21
125.399796
  0
LINE
  8
0
 10
106.634064
 20
126.900101
 11
106.999969
 21
126.900101
  0
ARC
  8
0
 10
108.499969
 20
108.900040
 40
1.500000
 50
180.000000
 51
270.000000
  0
ARC
  8
0
 10
137.499969
 20
108.900040
 40
1.500000
 50
270.000000
 51
0.000000
  0
ARC
  8
0
 10
135.499969
 20
158.900101
 40
2.499994
 50
178.857086
 51
113.578156
  0
ARC
  8
0
 10
137.499969
 20
160.900101
 40
1.500000
 50
0.000000
 51
90.000000
  0
ARC
  8
0
 10
108.499969
 20
160.900101
 40
1.500000
 50
90.000000
 51
180.000000
  0
ARC
  8
0
 10
135.499969
 20
158.900101
 40
3.000002
 50
179.047592
 51
270.000000
  0
CIRCLE
  8
0
 10
122.999969
 20
151.499954
 40
2.150000
  0
CIRCLE
  8
0
 10
122.999969
 20
151.499954
 40
1.500000
  0
ARC
  8
0
 10
110.499969
 20
158.900101
 40
2.500000
 50
36.869896
 51
1.142917
  0
ARC
  8
0
 10
110.499969
 20
158.900101
 40
3.000000
 50
270.000000
 51
0.952408
  0
ARC
  8
0
 10
142.499969
 20
108.900040
 40
1.500000
 50
270.000000
 51
0.000000
  0
ARC
  8
0
 10
103.499969
 20
108.900040
 40
1.500000
 50
180.000000
 51
270.000000
  0
ARC
  8
0
 10
138.499969
 20
152.400101
 40
3.499995
 50
278.213226
 51
81.786774
  0
ARC
  8
0
 10
107.499969
 20
125.400040
 40
3.499995
 50
98.213226
 51
261.786774
  0
ARC
  8
0
 10
138.499969
 20
152.400101
 40
4.000001
 50
277.180756
 51
82.819244
  0
ARC
  8
0
 10
107.499969
 20
125.400040
 40
4.000001
 50
97.180756
 51
262.819244
  0
TEXT
  8
0
 10
119.274940
 20
123.480103
 40
1.200000
  1
AC200V
 50
180.000000
 41
0.844285
 51
0.000000
  7
STANDARD
  0
POINT
  8
0
 10
-249.999939
 20
-69.999992
  0
POINT
  8
0
 10
-117.399933
 20
-69.999992
  0
LINE
  8
0
 10
-178.999939
 20
38.000008
 11
-178.999939
 21
-75.999992
  0
LINE
  8
0
 10
-117.399933
 20
54.000008
 11
-117.399933
 21
-91.999992
  0
LINE
  8
0
 10
-172.399933
 20
54.000008
 11
-172.399933
 21
31.500008
  0
LINE
  8
0
 10
-117.399933
 20
1.500008
 11
-145.399933
 21
1.500008
  0
LINE
  8
0
 10
-117.399933
 20
-6.499992
 11
-145.399933
 21
-6.499992
  0
LINE
  8
0
 10
-145.399933
 20
1.500008
 11
-145.399933
 21
-6.499992
  0
LINE
  8
0
 10
-117.399933
 20
31.500008
 11
-177.399933
 21
31.500008
  0
LINE
  8
0
 10
-117.399933
 20
-69.499992
 11
-177.399933
 21
-69.499992
  0
LINE
  8
0
 10
-127.399933
 20
21.500008
 11
-127.399933
 21
-59.499992
  0
LINE
  8
0
 10
-161.499939
 20
-91.287148
 11
-161.499939
 21
-97.112862
  0
LINE
  8
0
 10
-165.899933
 20
-89.499992
 11
-172.399933
 21
-89.499992
  0
LINE
  8
0
 10
-167.899933
 20
-92.499992
 11
-169.899933
 21
-92.499992
  0
LINE
  8
0
 10
-165.899933
 20
-89.499992
 11
-165.899933
 21
-93.499992
  0
LINE
  8
0
 10
-171.399933
 20
-89.499992
 11
-171.399933
 21
-90.999992
  0
LINE
  8
0
 10
-166.399933
 20
-89.499992
 11
-166.399933
 21
-90.999992
  0
LINE
  8
0
 10
-166.399933
 20
-90.499992
 11
-171.399933
 21
-90.499992
  0
LINE
  8
0
 10
-163.649933
 20
-93.499992
 11
-163.649933
 21
-94.200005
  0
LINE
  8
0
 10
-159.349945
 20
-93.499992
 11
-159.349945
 21
-94.200005
  0
LINE
  8
0
 10
-159.349945
 20
-94.200005
 11
-163.649933
 21
-94.200005
  0
LINE
  8
0
 10
-168.899933
 20
50.420143
 11
-168.899933
 21
56.245857
  0
LINE
  8
0
 10
-165.899933
 20
51.500008
 11
-172.399933
 21
51.500008
  0
LINE
  8
0
 10
-167.899933
 20
54.500008
 11
-169.899933
 21
54.500008
  0
LINE
  8
0
 10
-165.899933
 20
51.500008
 11
-165.899933
 21
55.500008
  0
LINE
  8
0
 10
-171.399933
 20
51.500008
 11
-171.399933
 21
53.000008
  0
LINE
  8
0
 10
-166.399933
 20
51.500008
 11
-166.399933
 21
53.000008
  0
LINE
  8
0
 10
-166.399933
 20
52.500008
 11
-171.399933
 21
52.500008
  0
LINE
  8
0
 10
-118.899933
 20
-93.499992
 11
-170.899933
 21
-93.499992
  0
LINE
  8
0
 10
-128.799927
 20
-93.499992
 11
-128.799927
 21
-69.499992
  0
LINE
  8
0
 10
-130.799927
 20
-93.499992
 11
-130.799927
 21
-69.499992
  0
LINE
  8
0
 10
-132.399933
 20
-93.499992
 11
-132.399933
 21
-69.499992
  0
LINE
  8
0
 10
-134.399933
 20
-93.499992
 11
-134.399933
 21
-69.499992
  0
LINE
  8
0
 10
-135.999939
 20
-93.499992
 11
-135.999939
 21
-69.499992
  0
LINE
  8
0
 10
-137.999939
 20
-93.499992
 11
-137.999939
 21
-69.499992
  0
LINE
  8
0
 10
-139.599945
 20
-93.499992
 11
-139.599945
 21
-69.499992
  0
LINE
  8
0
 10
-141.599945
 20
-93.499992
 11
-141.599945
 21
-69.499992
  0
LINE
  8
0
 10
-143.199921
 20
-93.499992
 11
-143.199921
 21
-69.499992
  0
LINE
  8
0
 10
-145.199921
 20
-93.499992
 11
-145.199921
 21
-69.499992
  0
LINE
  8
0
 10
-146.799927
 20
-93.499992
 11
-146.799927
 21
-69.499992
  0
LINE
  8
0
 10
-148.799927
 20
-93.499992
 11
-148.799927
 21
-69.499992
  0
LINE
  8
0
 10
-150.399933
 20
-93.499992
 11
-150.399933
 21
-69.499992
  0
LINE
  8
0
 10
-152.399933
 20
-93.499992
 11
-152.399933
 21
-69.499992
  0
LINE
  8
0
 10
-153.999939
 20
-93.499992
 11
-153.999939
 21
-69.499992
  0
LINE
  8
0
 10
-155.999939
 20
-93.499992
 11
-155.999939
 21
-69.499992
  0
LINE
  8
0
 10
-127.399933
 20
-93.499992
 11
-127.399933
 21
-69.499992
  0
LINE
  8
0
 10
-157.399933
 20
-93.499992
 11
-157.399933
 21
-69.499992
  0
LINE
  8
0
 10
-118.899933
 20
55.500008
 11
-170.899933
 21
55.500008
  0
LINE
  8
0
 10
-128.799927
 20
55.500008
 11
-128.799927
 21
31.500008
  0
LINE
  8
0
 10
-130.799927
 20
55.500008
 11
-130.799927
 21
31.500008
  0
LINE
  8
0
 10
-132.399933
 20
55.500008
 11
-132.399933
 21
31.500008
  0
LINE
  8
0
 10
-134.399933
 20
55.500008
 11
-134.399933
 21
31.500008
  0
LINE
  8
0
 10
-135.999939
 20
55.500008
 11
-135.999939
 21
31.500008
  0
LINE
  8
0
 10
-137.999939
 20
55.500008
 11
-137.999939
 21
31.500008
  0
LINE
  8
0
 10
-139.599945
 20
55.500008
 11
-139.599945
 21
31.500008
  0
LINE
  8
0
 10
-141.599945
 20
55.500008
 11
-141.599945
 21
31.500008
  0
LINE
  8
0
 10
-143.199921
 20
55.500008
 11
-143.199921
 21
31.500008
  0
LINE
  8
0
 10
-145.199921
 20
55.500008
 11
-145.199921
 21
31.500008
  0
LINE
  8
0
 10
-146.799927
 20
55.500008
 11
-146.799927
 21
31.500008
  0
LINE
  8
0
 10
-148.799927
 20
55.500008
 11
-148.799927
 21
31.500008
  0
LINE
  8
0
 10
-150.399933
 20
55.500008
 11
-150.399933
 21
31.500008
  0
LINE
  8
0
 10
-152.399933
 20
55.500008
 11
-152.399933
 21
31.500008
  0
LINE
  8
0
 10
-153.999939
 20
55.500008
 11
-153.999939
 21
31.500008
  0
LINE
  8
0
 10
-155.999939
 20
55.500008
 11
-155.999939
 21
31.500008
  0
LINE
  8
0
 10
-127.399933
 20
55.500008
 11
-127.399933
 21
31.500008
  0
LINE
  8
0
 10
-157.399933
 20
55.500008
 11
-157.399933
 21
31.500008
  0
LINE
  8
0
 10
-117.399933
 20
-39.499992
 11
-145.399933
 21
-39.499992
  0
LINE
  8
0
 10
-117.399933
 20
-31.499992
 11
-145.399933
 21
-31.499992
  0
LINE
  8
0
 10
-145.399933
 20
-39.499992
 11
-145.399933
 21
-31.499992
  0
LINE
  8
0
 10
-141.399933
 20
-38.999992
 11
-141.399933
 21
-31.999992
  0
LINE
  8
0
 10
-140.637390
 20
-35.499992
 11
-147.005157
 21
-35.499992
  0
LINE
  8
0
 10
-141.399933
 20
-31.999992
 11
-145.399933
 21
-31.999992
  0
LINE
  8
0
 10
-141.399933
 20
-38.999992
 11
-145.399933
 21
-38.999992
  0
LINE
  8
0
 10
-117.399933
 20
21.500008
 11
-177.399933
 21
21.500008
  0
LINE
  8
0
 10
-117.399933
 20
-59.499992
 11
-177.399933
 21
-59.499992
  0
LINE
  8
0
 10
-177.399933
 20
31.500008
 11
-177.399933
 21
-69.499992
  0
LINE
  8
0
 10
-172.399933
 20
-69.499992
 11
-172.399933
 21
-91.999992
  0
LINE
  8
0
 10
-249.999939
 20
-60.999992
 11
-249.999939
 21
-78.999992
  0
LINE
  8
0
 10
-181.999939
 20
-78.999992
 11
-249.999939
 21
-78.999992
  0
LINE
  8
0
 10
-249.999939
 20
44.000008
 11
-249.999939
 21
26.000008
  0
LINE
  8
0
 10
-237.999939
 20
43.000008
 11
-237.999939
 21
27.000008
  0
LINE
  8
0
 10
-237.999939
 20
-61.999992
 11
-237.999939
 21
-77.999992
  0
LINE
  8
0
 10
-238.999939
 20
-74.499992
 11
-249.999939
 21
-74.499992
  0
LINE
  8
0
 10
-238.999939
 20
-65.499992
 11
-249.999939
 21
-65.499992
  0
LINE
  8
0
 10
-238.999939
 20
-60.999992
 11
-249.999939
 21
-60.999992
  0
LINE
  8
0
 10
-233.609955
 20
-69.999992
 11
-253.152039
 21
-69.999992
  0
LINE
  8
0
 10
-238.999939
 20
39.500008
 11
-249.999939
 21
39.500008
  0
LINE
  8
0
 10
-232.514160
 20
35.000008
 11
-252.969391
 21
35.000008
  0
LINE
  8
0
 10
-238.999939
 20
30.500008
 11
-249.999939
 21
30.500008
  0
LINE
  8
0
 10
-238.999939
 20
26.000008
 11
-249.999939
 21
26.000008
  0
LINE
  8
0
 10
-247.999939
 20
25.000008
 11
-247.999939
 21
-59.999992
  0
LINE
  8
0
 10
-249.999939
 20
-60.999992
 11
-249.999939
 21
-78.999992
  0
LINE
  8
0
 10
-177.399933
 20
26.000008
 11
-178.999939
 21
26.000008
  0
LINE
  8
0
 10
-177.399933
 20
-63.999992
 11
-178.999939
 21
-63.999992
  0
LINE
  8
0
 10
-169.099945
 20
53.500008
 11
-169.099945
 21
54.500008
  0
LINE
  8
0
 10
-168.699951
 20
53.500008
 11
-168.699951
 21
54.500008
  0
LINE
  8
0
 10
-168.699951
 20
53.500008
 11
-169.099945
 21
53.500008
  0
LINE
  8
0
 10
-167.899933
 20
55.500008
 11
-169.899933
 21
55.500008
  0
LINE
  8
0
 10
-168.699951
 20
-91.499992
 11
-168.699951
 21
-92.499992
  0
LINE
  8
0
 10
-169.099945
 20
-91.499992
 11
-169.099945
 21
-92.499992
  0
LINE
  8
0
 10
-167.899933
 20
-93.499992
 11
-169.899933
 21
-93.499992
  0
LINE
  8
0
 10
-168.699951
 20
-91.499992
 11
-169.099945
 21
-91.499992
  0
LINE
  8
0
 10
-159.349945
 20
56.200020
 11
-163.649933
 21
56.200020
  0
LINE
  8
0
 10
-159.349945
 20
55.500008
 11
-159.349945
 21
56.200020
  0
LINE
  8
0
 10
-163.649933
 20
55.500008
 11
-163.649933
 21
56.200020
  0
LINE
  8
0
 10
-199.999939
 20
10.000008
 11
-225.999939
 21
10.000008
  0
LINE
  8
0
 10
-199.999939
 20
-47.999992
 11
-225.999939
 21
-47.999992
  0
LINE
  8
0
 10
-108.457001
 20
-18.999992
 11
-255.160309
 21
-18.999992
  0
LINE
  8
0
 10
-222.999939
 20
-5.999992
 11
-222.999939
 21
-31.999992
  0
LINE
  8
0
 10
-212.999939
 20
24.802132
 11
-212.999939
 21
-60.999992
  0
LINE
  8
0
 10
-237.999939
 20
24.500008
 11
-237.999939
 21
8.500008
  0
LINE
  8
0
 10
-229.999939
 20
16.500008
 11
-245.999939
 21
16.500008
  0
LINE
  8
0
 10
-141.399933
 20
1.000008
 11
-141.399933
 21
-5.999992
  0
LINE
  8
0
 10
-140.637390
 20
-2.499992
 11
-147.005157
 21
-2.499992
  0
LINE
  8
0
 10
-141.399933
 20
-5.999992
 11
-145.399933
 21
-5.999992
  0
LINE
  8
0
 10
-141.399933
 20
1.000008
 11
-145.399933
 21
1.000008
  0
LINE
  8
0
 10
-168.899933
 20
-88.420128
 11
-168.899933
 21
-94.245842
  0
LINE
  8
0
 10
-161.499939
 20
53.287148
 11
-161.499939
 21
59.112862
  0
LINE
  8
0
 10
-184.999939
 20
44.000008
 11
-249.999939
 21
44.000008
  0
LINE
  8
0
 10
-237.999939
 20
63.000008
 11
-237.999939
 21
44.000008
  0
LINE
  8
0
 10
-179.199951
 20
63.000008
 11
-179.199951
 21
39.536293
  0
LINE
  8
0
 10
-208.199951
 20
58.983894
 11
-208.199951
 21
101.287727
  0
LINE
  8
0
 10
-218.949951
 20
97.400032
 11
-179.949951
 21
97.400032
  0
LINE
  8
0
 10
-194.449951
 20
94.400032
 11
-194.449951
 21
66.900032
  0
LINE
  8
0
 10
-221.949951
 20
91.400032
 11
-194.449951
 21
91.400032
  0
LINE
  8
0
 10
-221.949951
 20
88.400032
 11
-194.449951
 21
88.400032
  0
LINE
  8
0
 10
-221.949951
 20
86.900032
 11
-194.449951
 21
86.900032
  0
LINE
  8
0
 10
-221.949951
 20
85.400032
 11
-194.449951
 21
85.400032
  0
LINE
  8
0
 10
-221.949951
 20
83.900032
 11
-194.449951
 21
83.900032
  0
LINE
  8
0
 10
-221.949951
 20
80.900032
 11
-194.449951
 21
80.900032
  0
LINE
  8
0
 10
-221.949951
 20
79.400032
 11
-194.449951
 21
79.400032
  0
LINE
  8
0
 10
-221.949951
 20
77.900032
 11
-194.449951
 21
77.900032
  0
LINE
  8
0
 10
-221.949951
 20
76.400032
 11
-194.449951
 21
76.400032
  0
LINE
  8
0
 10
-221.949951
 20
66.900032
 11
-194.449951
 21
66.900032
  0
LINE
  8
0
 10
-221.699951
 20
66.900032
 11
-221.699951
 21
66.000008
  0
LINE
  8
0
 10
-194.699951
 20
66.900032
 11
-194.699951
 21
66.000008
  0
LINE
  8
0
 10
-221.949951
 20
94.400032
 11
-221.949951
 21
66.900032
  0
LINE
  8
0
 10
-221.949951
 20
92.900032
 11
-194.449951
 21
92.900032
  0
LINE
  8
0
 10
-189.344482
 20
86.150032
 11
-165.478394
 21
86.150032
  0
LINE
  8
0
 10
-194.449951
 20
74.900032
 11
-179.949951
 21
74.900032
  0
LINE
  8
0
 10
-168.949951
 20
97.150032
 11
-168.949951
 21
75.150032
  0
LINE
  8
0
 10
-178.949951
 20
96.400032
 11
-178.949951
 21
75.900032
  0
LINE
  8
0
 10
-174.949951
 20
97.150032
 11
-174.949951
 21
75.150032
  0
LINE
  8
0
 10
-174.949951
 20
75.150032
 11
-168.949951
 21
75.150032
  0
LINE
  8
0
 10
-174.949951
 20
97.150032
 11
-168.949951
 21
97.150032
  0
LINE
  8
0
 10
-178.949951
 20
77.650032
 11
-174.949951
 21
77.650032
  0
LINE
  8
0
 10
-178.949951
 20
94.650032
 11
-174.949951
 21
94.650032
  0
LINE
  8
0
 10
-174.949951
 20
80.650032
 11
-168.949951
 21
80.650032
  0
LINE
  8
0
 10
-174.949951
 20
91.650032
 11
-168.949951
 21
91.650032
  0
LINE
  8
0
 10
-174.949951
 20
95.285347
 11
-168.949951
 21
95.285347
  0
LINE
  8
0
 10
-174.949951
 20
95.937599
 11
-168.949951
 21
95.937599
  0
LINE
  8
0
 10
-174.949951
 20
92.862465
 11
-168.949951
 21
92.862465
  0
LINE
  8
0
 10
-174.949951
 20
89.225166
 11
-168.949951
 21
89.225166
  0
LINE
  8
0
 10
-174.949951
 20
88.799446
 11
-168.949951
 21
88.799446
  0
LINE
  8
0
 10
-174.949951
 20
77.014717
 11
-168.949951
 21
77.014717
  0
LINE
  8
0
 10
-174.949951
 20
76.362465
 11
-168.949951
 21
76.362465
  0
LINE
  8
0
 10
-174.949951
 20
79.437599
 11
-168.949951
 21
79.437599
  0
LINE
  8
0
 10
-174.949951
 20
83.074898
 11
-168.949951
 21
83.074898
  0
LINE
  8
0
 10
-174.949951
 20
83.500618
 11
-168.949951
 21
83.500618
  0
LINE
  8
0
 10
-191.199951
 20
66.000008
 11
-191.199951
 21
47.000008
  0
LINE
  8
0
 10
-193.199951
 20
66.000008
 11
-193.199951
 21
47.000008
  0
LINE
  8
0
 10
-196.199951
 20
66.000008
 11
-196.199951
 21
47.000008
  0
LINE
  8
0
 10
-198.199951
 20
66.000008
 11
-198.199951
 21
47.000008
  0
LINE
  8
0
 10
-201.199951
 20
66.000008
 11
-201.199951
 21
47.000008
  0
LINE
  8
0
 10
-203.199951
 20
66.000008
 11
-203.199951
 21
47.000008
  0
LINE
  8
0
 10
-206.199951
 20
66.000008
 11
-206.199951
 21
47.000008
  0
LINE
  8
0
 10
-208.199951
 20
66.000008
 11
-208.199951
 21
47.000008
  0
LINE
  8
0
 10
-218.199951
 20
66.000008
 11
-218.199951
 21
47.000008
  0
LINE
  8
0
 10
-220.199951
 20
66.000008
 11
-220.199951
 21
47.000008
  0
LINE
  8
0
 10
-223.199951
 20
66.000008
 11
-223.199951
 21
47.000008
  0
LINE
  8
0
 10
-225.199951
 20
66.000008
 11
-225.199951
 21
47.000008
  0
LINE
  8
0
 10
-191.199951
 20
47.000008
 11
-193.199951
 21
47.000008
  0
LINE
  8
0
 10
-218.199951
 20
47.000008
 11
-220.199951
 21
47.000008
  0
LINE
  8
0
 10
-223.199951
 20
47.000008
 11
-225.199951
 21
47.000008
  0
LINE
  8
0
 10
-206.199951
 20
47.000008
 11
-208.199951
 21
47.000008
  0
LINE
  8
0
 10
-201.199951
 20
47.000008
 11
-203.199951
 21
47.000008
  0
LINE
  8
0
 10
-196.199951
 20
47.000008
 11
-198.199951
 21
47.000008
  0
LINE
  8
0
 10
-182.199951
 20
66.000008
 11
-234.999939
 21
66.000008
  0
LINE
  8
0
 10
-217.199951
 20
64.000008
 11
-217.199951
 21
44.000008
  0
LINE
  8
0
 10
-209.199951
 20
64.000008
 11
-209.199951
 21
44.000008
  0
LINE
  8
0
 10
-178.949951
 20
94.650032
 11
-174.949951
 21
94.650032
  0
LINE
  8
0
 10
-178.949951
 20
93.450050
 11
-174.949951
 21
93.450050
  0
LINE
  8
0
 10
-178.949951
 20
78.850044
 11
-174.949951
 21
78.850044
  0
ARC
  8
0
 10
-118.899933
 20
-91.999992
 40
1.500000
 50
270.000000
 51
0.000000
  0
ARC
  8
0
 10
-118.899933
 20
54.000038
 40
1.500000
 50
0.000000
 51
90.000000
  0
ARC
  8
0
 10
-170.899902
 20
-91.999992
 40
1.500000
 50
180.000000
 51
270.000000
  0
ARC
  8
0
 10
-170.899933
 20
54.000008
 40
1.500000
 50
90.000000
 51
180.000000
  0
ARC
  8
0
 10
-167.899902
 20
-90.999992
 40
1.500000
 50
270.000000
 51
0.000000
  0
ARC
  8
0
 10
-169.899902
 20
-90.999992
 40
1.500000
 50
180.000000
 51
270.000000
  0
ARC
  8
0
 10
-169.899933
 20
53.000008
 40
1.500000
 50
90.000000
 51
180.000000
  0
ARC
  8
0
 10
-167.899933
 20
53.000008
 40
1.500000
 50
0.000000
 51
90.000000
  0
ARC
  8
0
 10
-238.999939
 20
43.000008
 40
1.000000
 50
0.000000
 51
90.000000
  0
ARC
  8
0
 10
-181.999908
 20
-75.999992
 40
3.000000
 50
270.000000
 51
0.000000
  0
CIRCLE
  8
0
 10
-237.999939
 20
16.500008
 40
4.278000
  0
CIRCLE
  8
0
 10
-237.999939
 20
16.500008
 40
4.863998
  0
CIRCLE
  8
0
 10
-212.999939
 20
10.000008
 40
9.315500
  0
CIRCLE
  8
0
 10
-212.999939
 20
10.000008
 40
10.477499
  0
CIRCLE
  8
0
 10
-212.999908
 20
-47.999992
 40
9.315500
  0
CIRCLE
  8
0
 10
-212.999908
 20
-47.999992
 40
10.477499
  0
CIRCLE
  8
0
 10
-222.999939
 20
-18.999992
 40
9.315500
  0
CIRCLE
  8
0
 10
-222.999939
 20
-18.999992
 40
10.477499
  0
ARC
  8
0
 10
-248.999908
 20
-59.999992
 40
1.000000
 50
270.000000
 51
0.000000
  0
ARC
  8
0
 10
-248.999939
 20
25.000008
 40
1.000000
 50
0.000000
 51
90.000000
  0
ARC
  8
0
 10
-238.999908
 20
-75.499992
 40
1.000000
 50
0.000000
 51
90.000000
  0
ARC
  8
0
 10
-238.999908
 20
-64.499992
 40
1.000000
 50
270.000000
 51
0.000000
  0
ARC
  8
0
 10
-238.999908
 20
-77.999992
 40
1.000000
 50
270.000000
 51
0.000000
  0
ARC
  8
0
 10
-238.999908
 20
-61.999992
 40
1.000000
 50
0.000000
 51
90.000000
  0
ARC
  8
0
 10
-238.999939
 20
40.500008
 40
1.000000
 50
270.000000
 51
0.000000
  0
ARC
  8
0
 10
-238.999939
 20
29.500008
 40
1.000000
 50
0.000000
 51
90.000000
  0
ARC
  8
0
 10
-238.999939
 20
27.000008
 40
1.000000
 50
270.000000
 51
0.000000
  0
ARC
  8
0
 10
-217.999908
 20
-54.999992
 40
1.000000
 50
180.000000
 51
187.667435
  0
ARC
  8
0
 10
-118.899933
 20
-67.999992
 40
1.500000
 50
270.000000
 51
0.000000
  0
ARC
  8
0
 10
-184.999939
 20
38.000008
 40
6.000000
 50
0.000000
 51
90.000000
  0
ARC
  8
0
 10
-240.999939
 20
47.000008
 40
3.000000
 50
270.000000
 51
0.000000
  0
ARC
  8
0
 10
-234.999939
 20
63.000008
 40
3.000000
 50
90.000000
 51
180.000000
  0
ARC
  8
0
 10
-182.199951
 20
63.000008
 40
3.000000
 50
0.000000
 51
90.000000
  0
ARC
  8
0
 10
-218.949951
 20
94.400032
 40
3.000000
 50
90.000000
 51
180.000000
  0
ARC
  8
0
 10
-197.449951
 20
94.400032
 40
3.000000
 50
0.000000
 51
90.000000
  0
ARC
  8
0
 10
-179.949951
 20
96.400032
 40
1.000000
 50
0.000000
 51
90.000000
  0
ARC
  8
0
 10
-179.949951
 20
75.900032
 40
1.000000
 50
270.000000
 51
0.000000
  0
ARC
  8
0
 10
-215.199951
 20
64.000008
 40
2.000000
 50
90.000000
 51
180.000000
  0
ARC
  8
0
 10
-211.199951
 20
64.000008
 40
2.000000
 50
0.000000
 51
90.000000
  0
TEXT
  8
0
 10
-198.383087
 20
-17.196276
 40
3.199999
  1
P
 50
270.100006
 41
1.052632
 51
0.000000
  7
STANDARD
  0
TEXT
  8
0
 10
-198.385880
 20
13.403723
 40
3.199999
  1
R1
 50
270.100006
 41
1.052632
 51
0.000000
  7
STANDARD
  0
TEXT
  8
0
 10
-198.385849
 20
-44.596275
 40
3.199999
  1
R2
 50
270.100006
 41
1.052632
 51
0.000000
  7
STANDARD
  0
TEXT
  8
0
 10
-229.885880
 20
19.903721
 40
3.199999
  1
PR
 50
270.100006
 41
1.052632
 51
0.000000
  7
STANDARD
  0
POINT
  8
0
 10
-19.999996
 20
-239.999954
  0
LINE
  8
0
 10
179.750031
 20
-158.399948
 11
186.750031
 21
-158.399948
  0
LINE
  8
0
 10
183.250000
 20
-157.637405
 11
183.250000
 21
-164.005142
  0
LINE
  8
0
 10
186.750000
 20
-158.399948
 11
186.750000
 21
-162.399948
  0
LINE
  8
0
 10
179.750000
 20
-158.399948
 11
179.750000
 21
-162.399948
  0
LINE
  8
0
 10
17.500004
 20
-107.399948
 11
56.500004
 21
-107.399948
  0
LINE
  8
0
 10
16.000004
 20
-167.399948
 11
58.000004
 21
-167.399948
  0
LINE
  8
0
 10
16.000004
 20
-108.899948
 11
16.000004
 21
-168.999954
  0
LINE
  8
0
 10
58.000004
 20
-108.899948
 11
58.000004
 21
-168.999954
  0
LINE
  8
0
 10
145.000000
 20
-167.399948
 11
187.000000
 21
-167.399948
  0
LINE
  8
0
 10
16.000004
 20
-168.999954
 11
16.000004
 21
-195.749954
  0
LINE
  8
0
 10
16.000004
 20
-195.499954
 11
24.000004
 21
-195.499954
  0
LINE
  8
0
 10
16.000004
 20
-210.499954
 11
24.000004
 21
-210.499954
  0
LINE
  8
0
 10
11.000004
 20
-218.299942
 11
11.000004
 21
-221.699936
  0
LINE
  8
0
 10
-5.999996
 20
-182.299942
 11
-5.999996
 21
-185.699936
  0
LINE
  8
0
 10
-5.999996
 20
-218.299942
 11
-5.999996
 21
-221.699936
  0
LINE
  8
0
 10
-4.999996
 20
-222.699936
 11
10.000004
 21
-222.699936
  0
LINE
  8
0
 10
-4.999996
 20
-217.299942
 11
10.000004
 21
-217.299942
  0
LINE
  8
0
 10
-4.999996
 20
-186.699936
 11
10.000004
 21
-186.699936
  0
LINE
  8
0
 10
-4.999996
 20
-181.299942
 11
10.000004
 21
-181.299942
  0
LINE
  8
0
 10
8.999886
 20
-220.000137
 11
0.999853
 21
-218.000137
  0
LINE
  8
0
 10
0.999880
 20
-222.000244
 11
8.999887
 21
-220.000259
  0
LINE
  8
0
 10
1.000004
 20
-217.999954
 11
1.000004
 21
-221.999954
  0
LINE
  8
0
 10
11.000004
 20
-182.299942
 11
11.000004
 21
-185.699936
  0
LINE
  8
0
 10
8.999851
 20
-184.000137
 11
0.999847
 21
-182.000137
  0
LINE
  8
0
 10
0.999916
 20
-186.000275
 11
8.999924
 21
-184.000275
  0
LINE
  8
0
 10
1.000004
 20
-181.999924
 11
1.000004
 21
-185.999924
  0
LINE
  8
0
 10
-24.999996
 20
-227.999954
 11
-8.999996
 21
-227.999954
  0
LINE
  8
0
 10
-25.999996
 20
-228.999954
 11
-25.999996
 21
-239.999954
  0
LINE
  8
0
 10
-25.999996
 20
-239.999954
 11
16.000004
 21
-239.999954
  0
LINE
  8
0
 10
-11.999996
 20
-171.999954
 11
-11.999996
 21
-226.999954
  0
LINE
  8
0
 10
16.000004
 20
-195.499954
 11
8.000004
 21
-195.499954
  0
LINE
  8
0
 10
16.000004
 20
-210.499954
 11
8.000004
 21
-210.499954
  0
LINE
  8
0
 10
8.000004
 20
-210.499954
 11
8.000004
 21
-195.499954
  0
LINE
  8
0
 10
216.000000
 20
-171.999954
 11
216.000000
 21
-226.999954
  0
LINE
  8
0
 10
213.000000
 20
-168.999954
 11
-8.999996
 21
-168.999954
  0
LINE
  8
0
 10
230.000000
 20
-239.999954
 11
188.000000
 21
-239.999954
  0
LINE
  8
0
 10
230.000000
 20
-228.999954
 11
230.000000
 21
-239.999954
  0
LINE
  8
0
 10
229.000000
 20
-227.999954
 11
213.000000
 21
-227.999954
  0
LINE
  8
0
 10
50.999981
 20
-126.265778
 11
52.499958
 21
-127.131790
  0
LINE
  8
0
 10
51.000034
 20
-124.533920
 11
51.000034
 21
-126.265976
  0
LINE
  8
0
 10
52.499866
 20
-123.667603
 11
50.999866
 21
-124.533630
  0
LINE
  8
0
 10
52.500225
 20
-123.667274
 11
54.000202
 21
-124.533287
  0
LINE
  8
0
 10
54.000034
 20
-124.533920
 11
54.000034
 21
-126.265976
  0
LINE
  8
0
 10
52.499905
 20
-127.131882
 11
53.999912
 21
-126.265854
  0
LINE
  8
0
 10
14.499989
 20
-203.865829
 11
15.999996
 21
-204.731857
  0
LINE
  8
0
 10
14.500034
 20
-202.133926
 11
14.500034
 21
-203.865982
  0
LINE
  8
0
 10
15.999866
 20
-201.267624
 11
14.499866
 21
-202.133652
  0
LINE
  8
0
 10
16.000156
 20
-201.267273
 11
17.500134
 21
-202.133286
  0
LINE
  8
0
 10
17.500034
 20
-202.133926
 11
17.500034
 21
-203.865982
  0
LINE
  8
0
 10
15.999908
 20
-204.731934
 11
17.499920
 21
-203.865906
  0
LINE
  8
0
 10
21.500225
 20
-150.667252
 11
23.000206
 21
-151.533264
  0
LINE
  8
0
 10
23.000034
 20
-151.533920
 11
23.000034
 21
-153.265976
  0
LINE
  8
0
 10
21.499905
 20
-154.131897
 11
22.999908
 21
-153.265869
  0
LINE
  8
0
 10
19.999985
 20
-153.265839
 11
21.499989
 21
-154.131866
  0
LINE
  8
0
 10
20.000034
 20
-151.533920
 11
20.000034
 21
-153.265976
  0
LINE
  8
0
 10
21.499886
 20
-150.667633
 11
19.999882
 21
-151.533661
  0
LINE
  8
0
 10
16.000004
 20
-210.249954
 11
16.000004
 21
-239.999954
  0
LINE
  8
0
 10
188.000000
 20
-237.999954
 11
188.000000
 21
-239.999954
  0
LINE
  8
0
 10
8.000004
 20
-198.499954
 11
24.000004
 21
-198.499954
  0
LINE
  8
0
 10
8.000004
 20
-207.499954
 11
24.000004
 21
-207.499954
  0
LINE
  8
0
 10
37.000004
 20
-102.399948
 11
37.000004
 21
-247.036423
  0
LINE
  8
0
 10
80.000000
 20
-102.399948
 11
80.000000
 21
-249.265671
  0
LINE
  8
0
 10
166.000000
 20
-161.037643
 11
166.000000
 21
-247.482254
  0
LINE
  8
0
 10
15.500004
 20
-152.399948
 11
27.500004
 21
-152.399948
  0
LINE
  8
0
 10
46.500004
 20
-125.399948
 11
58.500004
 21
-125.399948
  0
LINE
  8
0
 10
21.500004
 20
-146.399948
 11
21.500004
 21
-158.399948
  0
LINE
  8
0
 10
52.500004
 20
-119.399948
 11
52.500004
 21
-131.399948
  0
LINE
  8
0
 10
16.000004
 20
-197.999954
 11
16.000004
 21
-207.999954
  0
LINE
  8
0
 10
11.000004
 20
-202.999954
 11
21.000004
 21
-202.999954
  0
LINE
  8
0
 10
224.000000
 20
-224.702133
 11
224.000000
 21
-242.907974
  0
LINE
  8
0
 10
-19.999996
 20
-225.476852
 11
-19.999996
 21
-244.070053
  0
LINE
  8
0
 10
145.000000
 20
-162.399948
 11
145.000000
 21
-168.999954
  0
LINE
  8
0
 10
187.000000
 20
-162.399948
 11
187.000000
 21
-168.999954
  0
LINE
  8
0
 10
145.000000
 20
-162.399948
 11
187.000000
 21
-162.399948
  0
LINE
  8
0
 10
145.250000
 20
-158.399948
 11
152.250000
 21
-158.399948
  0
LINE
  8
0
 10
148.750000
 20
-157.637405
 11
148.750000
 21
-164.005142
  0
LINE
  8
0
 10
152.250000
 20
-158.399948
 11
152.250000
 21
-162.399948
  0
LINE
  8
0
 10
145.250000
 20
-158.399948
 11
145.250000
 21
-162.399948
  0
LINE
  8
0
 10
10.700657
 20
-166.163681
 11
10.700657
 21
-167.802505
  0
LINE
  8
0
 10
10.700657
 20
-167.802505
 11
11.299381
 21
-167.802505
  0
LINE
  8
0
 10
11.299381
 20
-166.163681
 11
11.299381
 21
-167.802505
  0
LINE
  8
0
 10
6.285038
 20
-168.550919
 11
15.714970
 21
-168.550919
  0
LINE
  8
0
 10
15.714970
 20
-168.550919
 11
15.714970
 21
-168.999954
  0
LINE
  8
0
 10
6.285038
 20
-168.550919
 11
6.285038
 21
-168.999954
  0
LINE
  8
0
 10
11.000004
 20
-163.935410
 11
11.000004
 21
-172.008682
  0
LINE
  8
0
 10
123.000000
 20
-102.399948
 11
123.000000
 21
-249.265671
  0
LINE
  8
0
 10
196.000000
 20
-195.499954
 11
196.000000
 21
-210.499954
  0
LINE
  8
0
 10
166.500000
 20
-162.399948
 11
166.500000
 21
-158.949966
  0
LINE
  8
0
 10
156.973724
 20
-158.949966
 11
176.026276
 21
-158.949966
  0
LINE
  8
0
 10
164.399994
 20
-162.399948
 11
164.399994
 21
-158.949966
  0
LINE
  8
0
 10
164.150299
 20
-162.399948
 11
164.150299
 21
-158.949966
  0
LINE
  8
0
 10
159.696075
 20
-162.399948
 11
159.696075
 21
-158.949966
  0
LINE
  8
0
 10
159.073700
 20
-162.399948
 11
159.073700
 21
-158.949966
  0
LINE
  8
0
 10
156.973724
 20
-162.399948
 11
156.973724
 21
-158.949966
  0
LINE
  8
0
 10
168.600006
 20
-162.399948
 11
168.600006
 21
-158.949966
  0
LINE
  8
0
 10
168.849701
 20
-162.399948
 11
168.849701
 21
-158.949966
  0
LINE
  8
0
 10
173.303925
 20
-162.399948
 11
173.303925
 21
-158.949966
  0
LINE
  8
0
 10
173.926300
 20
-162.399948
 11
173.926300
 21
-158.949966
  0
LINE
  8
0
 10
176.026276
 20
-162.399948
 11
176.026276
 21
-158.949966
  0
ARC
  8
0
 10
56.500004
 20
-108.899948
 40
1.500000
 50
0.000000
 51
90.000000
  0
ARC
  8
0
 10
17.500004
 20
-108.899948
 40
1.500000
 50
90.000000
 51
180.000000
  0
ARC
  8
0
 10
10.000004
 20
-221.699936
 40
1.000000
 50
270.000000
 51
0.000000
  0
ARC
  8
0
 10
-4.999996
 20
-221.699936
 40
1.000000
 50
180.000000
 51
270.000000
  0
ARC
  8
0
 10
-8.999996
 20
-171.999954
 40
3.000000
 50
89.999985
 51
180.000000
  0
ARC
  8
0
 10
-12.999996
 20
-226.999954
 40
1.000000
 50
270.000000
 51
0.000000
  0
ARC
  8
0
 10
-24.999996
 20
-228.999954
 40
1.000000
 50
90.000000
 51
180.000000
  0
ARC
  8
0
 10
10.000004
 20
-182.299942
 40
1.000000
 50
0.000000
 51
90.000000
  0
ARC
  8
0
 10
-4.999996
 20
-182.299942
 40
1.000000
 50
90.000000
 51
180.000000
  0
ARC
  8
0
 10
-4.999996
 20
-185.699936
 40
1.000000
 50
180.000000
 51
270.000000
  0
ARC
  8
0
 10
10.000004
 20
-185.699936
 40
1.000000
 50
270.000000
 51
0.000000
  0
ARC
  8
0
 10
10.000004
 20
-218.299942
 40
1.000000
 50
0.000000
 51
90.000000
  0
ARC
  8
0
 10
-4.999996
 20
-218.299942
 40
1.000000
 50
90.000000
 51
180.000000
  0
ARC
  8
0
 10
213.000000
 20
-171.999954
 40
3.000000
 50
0.000000
 51
90.000000
  0
ARC
  8
0
 10
217.000000
 20
-226.999954
 40
1.000000
 50
180.000000
 51
270.000000
  0
ARC
  8
0
 10
229.000000
 20
-228.999954
 40
1.000000
 50
0.000000
 51
90.000000
  0
CIRCLE
  8
0
 10
52.500004
 20
-125.399948
 40
3.500000
  0
CIRCLE
  8
0
 10
16.000004
 20
-202.999954
 40
3.500000
  0
CIRCLE
  8
0
 10
21.500004
 20
-152.399948
 40
3.500000
  0
CIRCLE
  8
0
 10
21.500004
 20
-152.399948
 40
4.000000
  0
CIRCLE
  8
0
 10
52.500004
 20
-125.399948
 40
4.000000
  0
ARC
  8
0
 10
11.000004
 20
-171.994736
 40
5.838734
 50
36.144608
 51
143.855377
  0
TEXT
  8
0
 10
-3.440589
 20
-184.777496
 40
2.000000
  1
A
 50
0.000000
 41
1.052632
 51
0.000000
  7
STANDARD
  0
TEXT
  8
0
 10
-3.132240
 20
-220.700623
 40
2.000000
  1
B
 50
0.000000
 41
1.052632
 51
0.000000
  7
STANDARD
  0
POINT
  8
0
 10
59.000004
 20
-168.999954
  0
LINE
  8
0
 10
60.500004
 20
-107.399948
 11
99.500000
 21
-107.399948
  0
LINE
  8
0
 10
64.000000
 20
-162.399948
 11
96.000000
 21
-162.399948
  0
LINE
  8
0
 10
64.000000
 20
-117.399948
 11
96.000000
 21
-117.399948
  0
LINE
  8
0
 10
64.000000
 20
-147.399948
 11
96.000000
 21
-147.399948
  0
LINE
  8
0
 10
96.000000
 20
-108.899948
 11
96.000000
 21
-162.399948
  0
LINE
  8
0
 10
64.000000
 20
-108.899948
 11
64.000000
 21
-162.399948
  0
LINE
  8
0
 10
64.000000
 20
-155.899948
 11
67.500000
 21
-155.899948
  0
LINE
  8
0
 10
70.500000
 20
-158.899948
 11
70.500000
 21
-162.399948
  0
LINE
  8
0
 10
88.000000
 20
-158.899948
 11
97.000000
 21
-158.899948
  0
LINE
  8
0
 10
96.000000
 20
-155.899948
 11
92.500000
 21
-155.899948
  0
LINE
  8
0
 10
89.500000
 20
-158.899948
 11
89.500000
 21
-162.399948
  0
LINE
  8
0
 10
64.000000
 20
-118.799942
 11
96.000000
 21
-118.799942
  0
LINE
  8
0
 10
64.000000
 20
-120.799942
 11
96.000000
 21
-120.799942
  0
LINE
  8
0
 10
64.000000
 20
-122.399948
 11
80.000000
 21
-122.399948
  0
LINE
  8
0
 10
64.000000
 20
-124.399948
 11
80.000000
 21
-124.399948
  0
LINE
  8
0
 10
64.000000
 20
-125.999954
 11
96.000000
 21
-125.999954
  0
LINE
  8
0
 10
64.000000
 20
-127.999954
 11
96.000000
 21
-127.999954
  0
LINE
  8
0
 10
64.000000
 20
-129.599930
 11
96.000000
 21
-129.599930
  0
LINE
  8
0
 10
64.000000
 20
-131.599930
 11
96.000000
 21
-131.599930
  0
LINE
  8
0
 10
64.000000
 20
-133.199936
 11
96.000000
 21
-133.199936
  0
LINE
  8
0
 10
64.000000
 20
-135.199936
 11
96.000000
 21
-135.199936
  0
LINE
  8
0
 10
64.000000
 20
-136.799942
 11
96.000000
 21
-136.799942
  0
LINE
  8
0
 10
64.000000
 20
-138.799942
 11
96.000000
 21
-138.799942
  0
LINE
  8
0
 10
64.000000
 20
-140.399948
 11
96.000000
 21
-140.399948
  0
LINE
  8
0
 10
64.000000
 20
-142.399948
 11
96.000000
 21
-142.399948
  0
LINE
  8
0
 10
64.000000
 20
-143.999924
 11
96.000000
 21
-143.999924
  0
LINE
  8
0
 10
64.000000
 20
-145.999924
 11
96.000000
 21
-145.999924
  0
LINE
  8
0
 10
96.000000
 20
-122.399948
 11
96.000000
 21
-124.399948
  0
LINE
  8
0
 10
93.000000
 20
-122.399948
 11
93.000000
 21
-124.399948
  0
LINE
  8
0
 10
93.000000
 20
-122.399948
 11
96.000000
 21
-122.399948
  0
LINE
  8
0
 10
93.000000
 20
-124.399948
 11
96.000000
 21
-124.399948
  0
LINE
  8
0
 10
80.000000
 20
-122.399948
 11
80.000000
 21
-124.399948
  0
LINE
  8
0
 10
59.000004
 20
-167.399948
 11
101.000000
 21
-167.399948
  0
LINE
  8
0
 10
59.000004
 20
-108.899948
 11
59.000004
 21
-168.999954
  0
LINE
  8
0
 10
101.000000
 20
-108.899948
 11
101.000000
 21
-168.999954
  0
LINE
  8
0
 10
62.768200
 20
-152.399567
 11
63.634228
 21
-153.899567
  0
LINE
  8
0
 10
63.633976
 20
-153.899948
 11
64.000000
 21
-153.899948
  0
LINE
  8
0
 10
63.633976
 20
-150.899948
 11
64.000000
 21
-150.899948
  0
LINE
  8
0
 10
62.768024
 20
-152.399857
 11
63.634037
 21
-150.899872
  0
LINE
  8
0
 10
92.700012
 20
-157.199936
 11
92.700012
 21
-158.699936
  0
LINE
  8
0
 10
92.300018
 20
-157.199936
 11
92.300018
 21
-158.699936
  0
LINE
  8
0
 10
90.800018
 20
-159.099930
 11
92.300018
 21
-159.099930
  0
LINE
  8
0
 10
90.800018
 20
-158.699936
 11
92.300018
 21
-158.699936
  0
LINE
  8
0
 10
94.200012
 20
-158.699936
 11
94.200012
 21
-159.099930
  0
LINE
  8
0
 10
90.800018
 20
-158.699936
 11
90.800018
 21
-159.099930
  0
LINE
  8
0
 10
92.300018
 20
-157.199936
 11
92.700012
 21
-157.199936
  0
LINE
  8
0
 10
92.300018
 20
-160.599930
 11
92.700012
 21
-160.599930
  0
LINE
  8
0
 10
92.700012
 20
-159.099930
 11
94.200012
 21
-159.099930
  0
LINE
  8
0
 10
92.700012
 20
-158.699936
 11
94.200012
 21
-158.699936
  0
LINE
  8
0
 10
92.300018
 20
-159.099930
 11
92.300018
 21
-160.599930
  0
LINE
  8
0
 10
92.700012
 20
-159.099930
 11
92.700012
 21
-160.599930
  0
LINE
  8
0
 10
67.700012
 20
-159.099930
 11
67.700012
 21
-160.599930
  0
LINE
  8
0
 10
67.300018
 20
-159.099930
 11
67.300018
 21
-160.599930
  0
LINE
  8
0
 10
67.700012
 20
-157.199936
 11
67.700012
 21
-158.699936
  0
LINE
  8
0
 10
67.300018
 20
-157.199936
 11
67.300018
 21
-158.699936
  0
LINE
  8
0
 10
65.800018
 20
-159.099930
 11
67.300018
 21
-159.099930
  0
LINE
  8
0
 10
65.800018
 20
-158.699936
 11
67.300018
 21
-158.699936
  0
LINE
  8
0
 10
69.200012
 20
-158.699936
 11
69.200012
 21
-159.099930
  0
LINE
  8
0
 10
65.800018
 20
-158.699936
 11
65.800018
 21
-159.099930
  0
LINE
  8
0
 10
67.300018
 20
-157.199936
 11
67.700012
 21
-157.199936
  0
LINE
  8
0
 10
67.300018
 20
-160.599930
 11
67.700012
 21
-160.599930
  0
LINE
  8
0
 10
67.700012
 20
-159.099930
 11
69.200012
 21
-159.099930
  0
LINE
  8
0
 10
67.700012
 20
-158.699936
 11
69.200012
 21
-158.699936
  0
LINE
  8
0
 10
96.000000
 20
-123.899948
 11
96.366028
 21
-123.899948
  0
LINE
  8
0
 10
97.232391
 20
-125.399719
 11
96.366379
 21
-123.899742
  0
LINE
  8
0
 10
96.365906
 20
-126.899963
 11
97.231934
 21
-125.399963
  0
LINE
  8
0
 10
76.000000
 20
-151.499954
 11
84.000000
 21
-151.499954
  0
LINE
  8
0
 10
59.565769
 20
-152.399582
 11
64.000000
 21
-152.399582
  0
LINE
  8
0
 10
95.500000
 20
-125.399979
 11
100.304840
 21
-125.399979
  0
LINE
  8
0
 10
92.500031
 20
-155.234848
 11
92.500031
 21
-162.671463
  0
LINE
  8
0
 10
67.499969
 20
-155.234848
 11
67.499969
 21
-162.671463
  0
LINE
  8
0
 10
72.000000
 20
-158.899948
 11
63.000004
 21
-158.899948
  0
ARC
  8
0
 10
94.500000
 20
-108.899948
 40
1.500000
 50
0.000000
 51
90.000000
  0
ARC
  8
0
 10
65.500000
 20
-108.899948
 40
1.500000
 50
90.000000
 51
180.000000
  0
CIRCLE
  8
0
 10
67.500000
 20
-158.899948
 40
2.500000
  0
ARC
  8
0
 10
67.500000
 20
-158.899948
 40
3.000000
 50
0.000000
 51
90.000000
  0
CIRCLE
  8
0
 10
80.000000
 20
-151.499954
 40
2.150000
  0
CIRCLE
  8
0
 10
80.000000
 20
-151.499954
 40
1.500000
  0
CIRCLE
  8
0
 10
92.500000
 20
-158.899948
 40
2.500000
  0
ARC
  8
0
 10
92.500000
 20
-158.899948
 40
3.000000
 50
90.000000
 51
180.000000
  0
ARC
  8
0
 10
99.500000
 20
-108.899948
 40
1.500000
 50
0.000000
 51
90.000000
  0
ARC
  8
0
 10
60.500004
 20
-108.899948
 40
1.500000
 50
90.000000
 51
180.000000
  0
ARC
  8
0
 10
64.500000
 20
-152.399948
 40
3.499995
 50
98.213226
 51
261.786774
  0
ARC
  8
0
 10
95.500000
 20
-125.399948
 40
3.500000
 50
270.000000
 51
90.000000
  0
ARC
  8
0
 10
64.500000
 20
-152.399948
 40
4.000001
 50
97.180756
 51
262.819183
  0
ARC
  8
0
 10
95.500000
 20
-125.399948
 40
4.000000
 50
0.000000
 51
90.000000
  0
ARC
  8
0
 10
95.500000
 20
-125.399948
 40
4.000000
 50
270.000000
 51
0.000000
  0
TEXT
  8
0
 10
83.725090
 20
-123.479950
 40
1.200000
  1
AC200V
 50
0.000000
 41
0.844285
 51
0.000000
  7
STANDARD
  0
POINT
  8
0
 10
102.000000
 20
-168.999954
  0
LINE
  8
0
 10
103.500000
 20
-107.399948
 11
142.500000
 21
-107.399948
  0
LINE
  8
0
 10
107.000000
 20
-162.399948
 11
139.000000
 21
-162.399948
  0
LINE
  8
0
 10
107.000000
 20
-117.399948
 11
139.000000
 21
-117.399948
  0
LINE
  8
0
 10
107.000000
 20
-147.399948
 11
139.000000
 21
-147.399948
  0
LINE
  8
0
 10
139.000000
 20
-108.899948
 11
139.000000
 21
-162.399948
  0
LINE
  8
0
 10
107.000000
 20
-108.899948
 11
107.000000
 21
-162.399948
  0
LINE
  8
0
 10
107.000000
 20
-155.899948
 11
110.500000
 21
-155.899948
  0
LINE
  8
0
 10
113.500000
 20
-158.899948
 11
113.500000
 21
-162.399948
  0
LINE
  8
0
 10
131.000000
 20
-158.899948
 11
140.000000
 21
-158.899948
  0
LINE
  8
0
 10
139.000000
 20
-155.899948
 11
135.500000
 21
-155.899948
  0
LINE
  8
0
 10
132.500000
 20
-158.899948
 11
132.500000
 21
-162.399948
  0
LINE
  8
0
 10
107.000000
 20
-118.799942
 11
139.000000
 21
-118.799942
  0
LINE
  8
0
 10
107.000000
 20
-120.799942
 11
139.000000
 21
-120.799942
  0
LINE
  8
0
 10
107.000000
 20
-122.399948
 11
123.000000
 21
-122.399948
  0
LINE
  8
0
 10
107.000000
 20
-124.399948
 11
123.000000
 21
-124.399948
  0
LINE
  8
0
 10
107.000000
 20
-125.999954
 11
139.000000
 21
-125.999954
  0
LINE
  8
0
 10
107.000000
 20
-127.999954
 11
139.000000
 21
-127.999954
  0
LINE
  8
0
 10
107.000000
 20
-129.599930
 11
139.000000
 21
-129.599930
  0
LINE
  8
0
 10
107.000000
 20
-131.599930
 11
139.000000
 21
-131.599930
  0
LINE
  8
0
 10
107.000000
 20
-133.199936
 11
139.000000
 21
-133.199936
  0
LINE
  8
0
 10
107.000000
 20
-135.199936
 11
139.000000
 21
-135.199936
  0
LINE
  8
0
 10
107.000000
 20
-136.799942
 11
139.000000
 21
-136.799942
  0
LINE
  8
0
 10
107.000000
 20
-138.799942
 11
139.000000
 21
-138.799942
  0
LINE
  8
0
 10
107.000000
 20
-140.399948
 11
139.000000
 21
-140.399948
  0
LINE
  8
0
 10
107.000000
 20
-142.399948
 11
139.000000
 21
-142.399948
  0
LINE
  8
0
 10
107.000000
 20
-143.999924
 11
139.000000
 21
-143.999924
  0
LINE
  8
0
 10
107.000000
 20
-145.999924
 11
139.000000
 21
-145.999924
  0
LINE
  8
0
 10
139.000000
 20
-122.399948
 11
139.000000
 21
-124.399948
  0
LINE
  8
0
 10
136.000000
 20
-122.399948
 11
136.000000
 21
-124.399948
  0
LINE
  8
0
 10
136.000000
 20
-122.399948
 11
139.000000
 21
-122.399948
  0
LINE
  8
0
 10
136.000000
 20
-124.399948
 11
139.000000
 21
-124.399948
  0
LINE
  8
0
 10
123.000000
 20
-122.399948
 11
123.000000
 21
-124.399948
  0
LINE
  8
0
 10
102.000000
 20
-167.399948
 11
144.000000
 21
-167.399948
  0
LINE
  8
0
 10
102.000000
 20
-108.899948
 11
102.000000
 21
-168.999954
  0
LINE
  8
0
 10
144.000000
 20
-108.899948
 11
144.000000
 21
-168.999954
  0
LINE
  8
0
 10
105.768204
 20
-152.399567
 11
106.634232
 21
-153.899567
  0
LINE
  8
0
 10
106.633972
 20
-153.899948
 11
107.000000
 21
-153.899948
  0
LINE
  8
0
 10
106.633972
 20
-150.899948
 11
107.000000
 21
-150.899948
  0
LINE
  8
0
 10
105.768021
 20
-152.399857
 11
106.634033
 21
-150.899872
  0
LINE
  8
0
 10
135.700012
 20
-157.199936
 11
135.700012
 21
-158.699936
  0
LINE
  8
0
 10
135.300018
 20
-157.199936
 11
135.300018
 21
-158.699936
  0
LINE
  8
0
 10
133.800018
 20
-159.099930
 11
135.300018
 21
-159.099930
  0
LINE
  8
0
 10
133.800018
 20
-158.699936
 11
135.300018
 21
-158.699936
  0
LINE
  8
0
 10
137.200012
 20
-158.699936
 11
137.200012
 21
-159.099930
  0
LINE
  8
0
 10
133.800018
 20
-158.699936
 11
133.800018
 21
-159.099930
  0
LINE
  8
0
 10
135.300018
 20
-157.199936
 11
135.700012
 21
-157.199936
  0
LINE
  8
0
 10
135.300018
 20
-160.599930
 11
135.700012
 21
-160.599930
  0
LINE
  8
0
 10
135.700012
 20
-159.099930
 11
137.200012
 21
-159.099930
  0
LINE
  8
0
 10
135.700012
 20
-158.699936
 11
137.200012
 21
-158.699936
  0
LINE
  8
0
 10
135.300018
 20
-159.099930
 11
135.300018
 21
-160.599930
  0
LINE
  8
0
 10
135.700012
 20
-159.099930
 11
135.700012
 21
-160.599930
  0
LINE
  8
0
 10
110.700012
 20
-159.099930
 11
110.700012
 21
-160.599930
  0
LINE
  8
0
 10
110.300018
 20
-159.099930
 11
110.300018
 21
-160.599930
  0
LINE
  8
0
 10
110.700012
 20
-157.199936
 11
110.700012
 21
-158.699936
  0
LINE
  8
0
 10
110.300018
 20
-157.199936
 11
110.300018
 21
-158.699936
  0
LINE
  8
0
 10
108.800018
 20
-159.099930
 11
110.300018
 21
-159.099930
  0
LINE
  8
0
 10
108.800018
 20
-158.699936
 11
110.300018
 21
-158.699936
  0
LINE
  8
0
 10
112.200012
 20
-158.699936
 11
112.200012
 21
-159.099930
  0
LINE
  8
0
 10
108.800018
 20
-158.699936
 11
108.800018
 21
-159.099930
  0
LINE
  8
0
 10
110.300018
 20
-157.199936
 11
110.700012
 21
-157.199936
  0
LINE
  8
0
 10
110.300018
 20
-160.599930
 11
110.700012
 21
-160.599930
  0
LINE
  8
0
 10
110.700012
 20
-159.099930
 11
112.200012
 21
-159.099930
  0
LINE
  8
0
 10
110.700012
 20
-158.699936
 11
112.200012
 21
-158.699936
  0
LINE
  8
0
 10
139.000000
 20
-123.899948
 11
139.366028
 21
-123.899948
  0
LINE
  8
0
 10
140.232391
 20
-125.399719
 11
139.366379
 21
-123.899742
  0
LINE
  8
0
 10
139.365906
 20
-126.899963
 11
140.231934
 21
-125.399963
  0
LINE
  8
0
 10
119.000000
 20
-151.499954
 11
127.000000
 21
-151.499954
  0
LINE
  8
0
 10
102.565765
 20
-152.399582
 11
107.000000
 21
-152.399582
  0
LINE
  8
0
 10
138.500000
 20
-125.399979
 11
143.304840
 21
-125.399979
  0
LINE
  8
0
 10
135.500031
 20
-155.234848
 11
135.500031
 21
-162.671463
  0
LINE
  8
0
 10
110.499969
 20
-155.234848
 11
110.499969
 21
-162.671463
  0
LINE
  8
0
 10
115.000000
 20
-158.899948
 11
106.000000
 21
-158.899948
  0
ARC
  8
0
 10
137.500000
 20
-108.899948
 40
1.500000
 50
0.000000
 51
90.000000
  0
ARC
  8
0
 10
108.500000
 20
-108.899948
 40
1.500000
 50
90.000000
 51
180.000000
  0
CIRCLE
  8
0
 10
110.500000
 20
-158.899948
 40
2.500000
  0
ARC
  8
0
 10
110.500000
 20
-158.899948
 40
3.000000
 50
0.000000
 51
90.000000
  0
CIRCLE
  8
0
 10
123.000000
 20
-151.499954
 40
2.150000
  0
CIRCLE
  8
0
 10
123.000000
 20
-151.499954
 40
1.500000
  0
CIRCLE
  8
0
 10
135.500000
 20
-158.899948
 40
2.500000
  0
ARC
  8
0
 10
135.500000
 20
-158.899948
 40
3.000000
 50
90.000000
 51
180.000000
  0
ARC
  8
0
 10
142.500000
 20
-108.899948
 40
1.500000
 50
0.000000
 51
90.000000
  0
ARC
  8
0
 10
103.500000
 20
-108.899948
 40
1.500000
 50
90.000000
 51
180.000000
  0
ARC
  8
0
 10
107.500000
 20
-152.399948
 40
3.499995
 50
98.213226
 51
261.786774
  0
ARC
  8
0
 10
138.500000
 20
-125.399948
 40
3.500000
 50
270.000000
 51
90.000000
  0
ARC
  8
0
 10
107.500000
 20
-152.399948
 40
4.000001
 50
97.180756
 51
262.819244
  0
ARC
  8
0
 10
138.500000
 20
-125.399948
 40
4.000000
 50
0.000000
 51
90.000000
  0
ARC
  8
0
 10
138.500000
 20
-125.399948
 40
4.000000
 50
270.000000
 51
0.000000
  0
TEXT
  8
0
 10
126.725090
 20
-123.479950
 40
1.200000
  1
AC200V
 50
0.000000
 41
0.844285
 51
0.000000
  7
STANDARD
  0
POINT
  8
0
 10
16.000004
 20
-202.999954
  0
LINE
  8
0
 10
59.000004
 20
-237.999954
 11
16.000004
 21
-237.999954
  0
LINE
  8
0
 10
59.000004
 20
-168.999954
 11
59.000004
 21
-195.749954
  0
LINE
  8
0
 10
51.000004
 20
-210.499954
 11
51.000004
 21
-195.499954
  0
LINE
  8
0
 10
45.000004
 20
-177.291733
 11
45.000004
 21
-190.708145
  0
LINE
  8
0
 10
51.000004
 20
-195.499954
 11
67.000000
 21
-195.499954
  0
LINE
  8
0
 10
51.000004
 20
-210.499954
 11
67.000000
 21
-210.499954
  0
LINE
  8
0
 10
57.499989
 20
-203.865799
 11
58.999996
 21
-204.731827
  0
LINE
  8
0
 10
57.500034
 20
-202.133926
 11
57.500034
 21
-203.865982
  0
LINE
  8
0
 10
58.999866
 20
-201.267593
 11
57.499866
 21
-202.133621
  0
LINE
  8
0
 10
59.000233
 20
-201.267181
 11
60.500210
 21
-202.133209
  0
LINE
  8
0
 10
60.500034
 20
-202.133926
 11
60.500034
 21
-203.865982
  0
LINE
  8
0
 10
58.999897
 20
-204.731949
 11
60.499866
 21
-203.865936
  0
LINE
  8
0
 10
59.000004
 20
-210.249954
 11
59.000004
 21
-237.999954
  0
LINE
  8
0
 10
51.000004
 20
-198.499954
 11
67.000000
 21
-198.499954
  0
LINE
  8
0
 10
51.000004
 20
-207.499954
 11
67.000000
 21
-207.499954
  0
LINE
  8
0
 10
32.000004
 20
-206.999954
 11
32.000004
 21
-232.999954
  0
LINE
  8
0
 10
45.000004
 20
-170.999954
 11
45.000004
 21
-196.999954
  0
LINE
  8
0
 10
32.000004
 20
-183.999954
 11
58.000004
 21
-183.999954
  0
LINE
  8
0
 10
19.000034
 20
-219.999954
 11
45.000004
 21
-219.999954
  0
LINE
  8
0
 10
59.000004
 20
-197.999954
 11
59.000004
 21
-207.999954
  0
LINE
  8
0
 10
54.000004
 20
-202.999954
 11
64.000000
 21
-202.999954
  0
LINE
  8
0
 10
24.000004
 20
-195.499954
 11
24.000004
 21
-210.499954
  0
CIRCLE
  8
0
 10
59.000004
 20
-202.999954
 40
3.500000
  0
CIRCLE
  8
0
 10
45.000004
 20
-183.999954
 40
10.477499
  0
CIRCLE
  8
0
 10
45.000004
 20
-183.999954
 40
9.315500
  0
CIRCLE
  8
0
 10
32.000004
 20
-219.999954
 40
10.477499
  0
CIRCLE
  8
0
 10
32.000004
 20
-219.999954
 40
9.315500
  0
POINT
  8
0
 10
59.000004
 20
-202.999954
  0
LINE
  8
0
 10
102.000000
 20
-237.999954
 11
59.000004
 21
-237.999954
  0
LINE
  8
0
 10
102.000000
 20
-168.999954
 11
102.000000
 21
-195.749954
  0
LINE
  8
0
 10
94.000000
 20
-210.499954
 11
94.000000
 21
-195.499954
  0
LINE
  8
0
 10
88.000000
 20
-177.291733
 11
88.000000
 21
-190.708145
  0
LINE
  8
0
 10
94.000000
 20
-195.499954
 11
110.000000
 21
-195.499954
  0
LINE
  8
0
 10
94.000000
 20
-210.499954
 11
110.000000
 21
-210.499954
  0
LINE
  8
0
 10
100.499985
 20
-203.865799
 11
102.000000
 21
-204.731827
  0
LINE
  8
0
 10
100.500031
 20
-202.133926
 11
100.500031
 21
-203.865982
  0
LINE
  8
0
 10
101.999863
 20
-201.267593
 11
100.499863
 21
-202.133621
  0
LINE
  8
0
 10
102.000229
 20
-201.267181
 11
103.500214
 21
-202.133209
  0
LINE
  8
0
 10
103.500031
 20
-202.133926
 11
103.500031
 21
-203.865982
  0
LINE
  8
0
 10
101.999893
 20
-204.731949
 11
103.499863
 21
-203.865936
  0
LINE
  8
0
 10
102.000000
 20
-210.249954
 11
102.000000
 21
-237.999954
  0
LINE
  8
0
 10
94.000000
 20
-198.499954
 11
110.000000
 21
-198.499954
  0
LINE
  8
0
 10
94.000000
 20
-207.499954
 11
110.000000
 21
-207.499954
  0
LINE
  8
0
 10
75.000000
 20
-206.999954
 11
75.000000
 21
-232.999954
  0
LINE
  8
0
 10
88.000000
 20
-170.999954
 11
88.000000
 21
-196.999954
  0
LINE
  8
0
 10
75.000000
 20
-183.999954
 11
101.000000
 21
-183.999954
  0
LINE
  8
0
 10
62.000034
 20
-219.999954
 11
88.000000
 21
-219.999954
  0
LINE
  8
0
 10
102.000000
 20
-197.999954
 11
102.000000
 21
-207.999954
  0
LINE
  8
0
 10
97.000000
 20
-202.999954
 11
107.000000
 21
-202.999954
  0
LINE
  8
0
 10
67.000000
 20
-195.499954
 11
67.000000
 21
-210.499954
  0
CIRCLE
  8
0
 10
102.000000
 20
-202.999954
 40
3.500000
  0
CIRCLE
  8
0
 10
88.000000
 20
-183.999954
 40
10.477499
  0
CIRCLE
  8
0
 10
88.000000
 20
-183.999954
 40
9.315500
  0
CIRCLE
  8
0
 10
75.000000
 20
-219.999954
 40
10.477499
  0
CIRCLE
  8
0
 10
75.000000
 20
-219.999954
 40
9.315500
  0
POINT
  8
0
 10
102.000000
 20
-202.999954
  0
LINE
  8
0
 10
145.000000
 20
-237.999954
 11
102.000000
 21
-237.999954
  0
LINE
  8
0
 10
145.000000
 20
-168.999954
 11
145.000000
 21
-195.749954
  0
LINE
  8
0
 10
137.000000
 20
-210.499954
 11
137.000000
 21
-195.499954
  0
LINE
  8
0
 10
131.000000
 20
-177.291733
 11
131.000000
 21
-190.708145
  0
LINE
  8
0
 10
137.000000
 20
-195.499954
 11
153.000000
 21
-195.499954
  0
LINE
  8
0
 10
137.000000
 20
-210.499954
 11
153.000000
 21
-210.499954
  0
LINE
  8
0
 10
143.499985
 20
-203.865799
 11
145.000000
 21
-204.731827
  0
LINE
  8
0
 10
143.500031
 20
-202.133926
 11
143.500031
 21
-203.865982
  0
LINE
  8
0
 10
144.999863
 20
-201.267593
 11
143.499863
 21
-202.133621
  0
LINE
  8
0
 10
145.000229
 20
-201.267181
 11
146.500214
 21
-202.133209
  0
LINE
  8
0
 10
146.500031
 20
-202.133926
 11
146.500031
 21
-203.865982
  0
LINE
  8
0
 10
144.999893
 20
-204.731949
 11
146.499863
 21
-203.865936
  0
LINE
  8
0
 10
145.000000
 20
-210.249954
 11
145.000000
 21
-237.999954
  0
LINE
  8
0
 10
137.000000
 20
-198.499954
 11
153.000000
 21
-198.499954
  0
LINE
  8
0
 10
137.000000
 20
-207.499954
 11
153.000000
 21
-207.499954
  0
LINE
  8
0
 10
118.000000
 20
-206.999954
 11
118.000000
 21
-232.999954
  0
LINE
  8
0
 10
131.000000
 20
-170.999954
 11
131.000000
 21
-196.999954
  0
LINE
  8
0
 10
118.000000
 20
-183.999954
 11
144.000000
 21
-183.999954
  0
LINE
  8
0
 10
105.000031
 20
-219.999954
 11
131.000000
 21
-219.999954
  0
LINE
  8
0
 10
145.000000
 20
-197.999954
 11
145.000000
 21
-207.999954
  0
LINE
  8
0
 10
140.000000
 20
-202.999954
 11
150.000000
 21
-202.999954
  0
LINE
  8
0
 10
110.000000
 20
-195.499954
 11
110.000000
 21
-210.499954
  0
CIRCLE
  8
0
 10
145.000000
 20
-202.999954
 40
3.500000
  0
CIRCLE
  8
0
 10
131.000000
 20
-183.999954
 40
10.477499
  0
CIRCLE
  8
0
 10
131.000000
 20
-183.999954
 40
9.315500
  0
CIRCLE
  8
0
 10
118.000000
 20
-219.999954
 40
10.477499
  0
CIRCLE
  8
0
 10
118.000000
 20
-219.999954
 40
9.315500
  0
POINT
  8
0
 10
145.000000
 20
-202.999954
  0
LINE
  8
0
 10
188.000000
 20
-237.999954
 11
145.000000
 21
-237.999954
  0
LINE
  8
0
 10
188.000000
 20
-168.999954
 11
188.000000
 21
-195.749954
  0
LINE
  8
0
 10
180.000000
 20
-210.499954
 11
180.000000
 21
-195.499954
  0
LINE
  8
0
 10
174.000000
 20
-177.291733
 11
174.000000
 21
-190.708145
  0
LINE
  8
0
 10
180.000000
 20
-195.499954
 11
196.000000
 21
-195.499954
  0
LINE
  8
0
 10
180.000000
 20
-210.499954
 11
196.000000
 21
-210.499954
  0
LINE
  8
0
 10
186.499985
 20
-203.865799
 11
188.000000
 21
-204.731827
  0
LINE
  8
0
 10
186.500031
 20
-202.133926
 11
186.500031
 21
-203.865982
  0
LINE
  8
0
 10
187.999863
 20
-201.267593
 11
186.499863
 21
-202.133621
  0
LINE
  8
0
 10
188.000229
 20
-201.267181
 11
189.500214
 21
-202.133209
  0
LINE
  8
0
 10
189.500031
 20
-202.133926
 11
189.500031
 21
-203.865982
  0
LINE
  8
0
 10
187.999893
 20
-204.731949
 11
189.499863
 21
-203.865936
  0
LINE
  8
0
 10
188.000000
 20
-210.249954
 11
188.000000
 21
-237.999954
  0
LINE
  8
0
 10
180.000000
 20
-198.499954
 11
196.000000
 21
-198.499954
  0
LINE
  8
0
 10
180.000000
 20
-207.499954
 11
196.000000
 21
-207.499954
  0
LINE
  8
0
 10
161.000000
 20
-206.999954
 11
161.000000
 21
-232.999954
  0
LINE
  8
0
 10
174.000000
 20
-170.999954
 11
174.000000
 21
-196.999954
  0
LINE
  8
0
 10
161.000000
 20
-183.999954
 11
187.000000
 21
-183.999954
  0
LINE
  8
0
 10
148.000031
 20
-219.999954
 11
174.000000
 21
-219.999954
  0
LINE
  8
0
 10
188.000000
 20
-197.999954
 11
188.000000
 21
-207.999954
  0
LINE
  8
0
 10
183.000000
 20
-202.999954
 11
193.000000
 21
-202.999954
  0
LINE
  8
0
 10
153.000000
 20
-195.499954
 11
153.000000
 21
-210.499954
  0
CIRCLE
  8
0
 10
188.000000
 20
-202.999954
 40
3.500000
  0
CIRCLE
  8
0
 10
174.000000
 20
-183.999954
 40
10.477499
  0
CIRCLE
  8
0
 10
174.000000
 20
-183.999954
 40
9.315500
  0
CIRCLE
  8
0
 10
161.000000
 20
-219.999954
 40
10.477499
  0
CIRCLE
  8
0
 10
161.000000
 20
-219.999954
 40
9.315500
  0
ENDSEC
  0
EOF
