  0
SECTION
  2
HEADER
  0
ENDSEC
  0
SECTION
  2
TABLES
  0
TABLE
  2
LTYPE
 70
     4
  0
LTYPE
  2
CONTINUOUS
 70
    64
  3
Solid line
 72
    65
 73
     0
 40
0.000000
  0
LTYPE
  2
DASHED
 70
    64
  3
__ __ __ __ __ __ __ __ __ __ __ __ __ __ __
 72
    65
 73
     2
 40
3.500000
 49
2.000000
 49
-1.500000
  0
LTYPE
  2
CENTER
 70
    64
  3
____ _ ____ _ ____ _ ____ _ ____ _ ____ _ ____
 72
    65
 73
     4
 40
17.500000
 49
13.000000
 49
-1.500000
 49
1.500000
 49
-1.500000
  0
LTYPE
  2
PHANTOM
 70
    64
  3
_____ _ _ _____ _ _ _____ _ _ _____ _ _ ____  
 72
    65
 73
     6
 40
15.500000
 49
8.000000
 49
-1.500000
 49
1.500000
 49
-1.500000
 49
1.500000
 49
-1.500000
  0
LTYPE
  2
DASHED1
 70
    64
  3
__ __ __ __ __ __ __ __ __ __ __ __ __ __ __
 72
    65
 73
     2
 40
1.500000
 49
1.000000
 49
-0.500000
  0
LTYPE
  2
DASHED2
 70
    64
  3
__ __ __ __ __ __ __ __ __ __ __ __ __ __ __
 72
    65
 73
     2
 40
3.500000
 49
2.500000
 49
-1.000000
  0
LTYPE
  2
DASHED3
 70
    64
  3
__ __ __ __ __ __ __ __ __ __ __ __ __ __ __
 72
    65
 73
     2
 40
6.000000
 49
4.000000
 49
-2.000000
  0
LTYPE
  2
DASHED4
 70
    64
  3
__ __ __ __ __ __ __ __ __ __ __ __ __ __ __
 72
    65
 73
     2
 40
12.000000
 49
10.000000
 49
-2.000000
  0
LTYPE
  2
DASHED5
 70
    64
  3
__ __ __ __ __ __ __ __ __ __ __ __ __ __ __
 72
    65
 73
     2
 40
17.000000
 49
15.000000
 49
-2.000000
  0
LTYPE
  2
DASHED6
 70
    64
  3
__ __ __ __ __ __ __ __ __ __ __ __ __ __ __
 72
    65
 73
     2
 40
29.000000
 49
27.000000
 49
-2.000000
  0
LTYPE
  2
PHANTOM1
 70
    64
  3
_____ _ _ _____ _ _ _____ _ _ _____ _ _ ____  
 72
    65
 73
     6
 40
31.000000
 49
25.000000
 49
-1.500000
 49
1.000000
 49
-1.000000
 49
1.000000
 49
-1.500000
  0
LTYPE
  2
PHANTOM2
 70
    64
  3
_____ _ _ _____ _ _ _____ _ _ _____ _ _ ____  
 72
    65
 73
     6
 40
36.000000
 49
27.000000
 49
-1.500000
 49
2.500000
 49
-1.000000
 49
2.500000
 49
-1.500000
  0
LTYPE
  2
PHANTOM3
 70
    64
  3
_____ _ _ _____ _ _ _____ _ _ _____ _ _ ____  
 72
    65
 73
     6
 40
78.000000
 49
64.000000
 49
-2.000000
 49
4.000000
 49
-2.000000
 49
4.000000
 49
-2.000000
  0
LTYPE
  2
CENTER1
 70
    64
  3
____ _ ____ _ ____ _ ____ _ ____ _ ____ _ ____
 72
    65
 73
     4
 40
19.000000
 49
14.000000
 49
-1.000000
 49
3.000000
 49
-1.000000
  0
LTYPE
  2
CENTER2
 70
    64
  3
____ _ ____ _ ____ _ ____ _ ____ _ ____ _ ____
 72
    65
 73
     4
 40
28.500000
 49
25.000000
 49
-1.000000
 49
1.500000
 49
-1.000000
  0
LTYPE
  2
CENTER3
 70
    64
  3
____ _ ____ _ ____ _ ____ _ ____ _ ____ _ ____
 72
    65
 73
     4
 40
31.500000
 49
27.000000
 49
-1.000000
 49
2.500000
 49
-1.000000
  0
LTYPE
  2
CENTER4
 70
    64
  3
____ _ ____ _ ____ _ ____ _ ____ _ ____ _ ____
 72
    65
 73
     4
 40
50.000000
 49
45.000000
 49
-1.000000
 49
3.000000
 49
-1.000000
  0
LTYPE
  2
CENTER5
 70
    64
  3
____ _ ____ _ ____ _ ____ _ ____ _ ____ _ ____
 72
    65
 73
     4
 40
100.000000
 49
92.000000
 49
-2.000000
 49
4.000000
 49
-2.000000
  0
LTYPE
  2
SBK1
 70
    64
  3
______ _ _ _ ______ _ _ _ ______ _ _ _ _____  
 72
    65
 73
     8
 40
60.500000
 49
45.000000
 49
-2.000000
 49
2.500000
 49
-2.000000
 49
2.500000
 49
-2.000000
 49
2.500000
 49
-2.000000
  0
LTYPE
  2
SBK2
 70
    64
  3
______ _ _ _ ______ _ _ _ ______ _ _ _ _____  
 72
    65
 73
     8
 40
84.000000
 49
64.000000
 49
-2.000000
 49
4.000000
 49
-2.000000
 49
4.000000
 49
-2.000000
 49
4.000000
 49
-2.000000
  0
LTYPE
  2
STCH
 70
    64
  3
__ __ __ __ __ __ __ __ __ __ __ __ __ __ __
 72
    65
 73
     2
 40
3.000000
 49
1.000000
 49
-2.000000
  0
LTYPE
  2
MTCH
 70
    64
  3
_____ _ _ _____ _ _ _____ _ _ _____ _ _ ____  
 72
    65
 73
     6
 40
80.000000
 49
66.000000
 49
-2.000000
 49
4.000000
 49
-2.000000
 49
4.000000
 49
-2.000000
  0
ENDTAB
  0
TABLE
  2
LAYER
 70
     1
  0
LAYER
  2
0
 70
     0
 62
     7
  6
CONTINUOUS
  0
ENDTAB
  0
TABLE
  2
STYLE
 70
     1
  0
STYLE
  2
STANDARD
 70
     0
 40
0.000000
 41
1.000000
 50
0.000000
 71
     0
 42
0.200000
  3
txt
  4
BIGFONT
  0
ENDTAB
  0
TABLE
  2
VIEW
 70
     0
  0
ENDTAB
  0
ENDSEC
  0
SECTION
  2
BLOCKS
  0
ENDSEC
  0
SECTION
  2
ENTITIES
  0
LINE
  8
0
 10
-299.250000
 20
276.250000
 11
-299.250000
 21
261.250000
  0
LINE
  8
0
 10
299.799988
 20
276.250000
 11
299.799988
 21
261.250000
  0
LINE
  8
0
 10
-399.250000
 20
261.250000
 11
-299.250000
 21
261.250000
  0
LINE
  8
0
 10
299.799988
 20
-256.750000
 11
299.799988
 21
-276.750000
  0
LINE
  8
0
 10
299.799988
 20
261.250000
 11
399.799988
 21
261.250000
  0
LINE
  8
0
 10
299.799988
 20
-256.750000
 11
399.799988
 21
-256.750000
  0
LINE
  8
0
 10
-420.500000
 20
297.000000
 11
420.500000
 21
297.000000
  0
LINE
  8
0
 10
-420.500000
 20
-297.000000
 11
420.500000
 21
-297.000000
  0
LINE
  8
0
 10
420.500000
 20
297.000000
 11
420.500000
 21
-297.000000
  0
LINE
  8
0
 10
-420.500000
 20
297.000000
 11
-420.500000
 21
-297.000000
  0
LINE
  8
0
 10
399.799988
 20
276.250000
 11
399.799988
 21
-276.750000
  0
LINE
  8
0
 10
-399.250000
 20
276.250000
 11
-399.250000
 21
-276.750000
  0
LINE
  8
0
 10
-399.250000
 20
276.250000
 11
399.799988
 21
276.250000
  0
LINE
  8
0
 10
-399.250000
 20
-276.750000
 11
399.799988
 21
-276.750000
  0
TEXT
  8
0
 10
-390.142517
 20
262.549988
 40
8.000000
  1
630M*AT-37
 50
0.000000
 41
1.052632
 51
0.000000
  7
STANDARD
  0
TEXT
  8
0
 10
305.721680
 20
264.529999
 40
5.800000
  1
DATE: MAY ,1992
 50
0.000000
 41
1.052632
 51
0.000000
  7
STANDARD
  0
TEXT
  8
0
 10
295.700867
 20
-272.049988
 40
7.000000
  1
ＫＯＧＡＮＥＩ，ＣＯＲＰ．
 50
0.000000
 41
0.902367
 51
15.000000
  7
STANDARD
  0
TEXT
  8
0
 10
-388.142487
 20
232.550003
 40
8.000000
  1
MODEL: 630M*AT-37
 50
0.000000
 41
1.052632
 51
0.000000
  7
STANDARD
  0
POINT
  8
0
 10
-19.999996
 20
-69.999992
  0
POINT
  8
0
 10
224.000000
 20
-69.999992
  0
POINT
  8
0
 10
-19.999996
 20
-69.999992
  0
LINE
  8
0
 10
36.999973
 20
-86.798546
 11
36.999973
 21
62.853600
  0
LINE
  8
0
 10
31.999973
 20
-48.000023
 11
31.999973
 21
9.999977
  0
LINE
  8
0
 10
41.999973
 20
-48.000023
 11
41.999973
 21
9.999977
  0
LINE
  8
0
 10
30.999973
 20
-48.000023
 11
30.999973
 21
9.999977
  0
LINE
  8
0
 10
42.999973
 20
-48.000023
 11
42.999973
 21
9.999977
  0
LINE
  8
0
 10
54.249973
 20
-41.000023
 11
54.249973
 21
-30.000023
  0
LINE
  8
0
 10
48.750004
 20
-35.499992
 11
59.750004
 21
-35.499992
  0
LINE
  8
0
 10
32.000004
 20
1.000008
 11
42.000004
 21
1.000008
  0
LINE
  8
0
 10
32.000004
 20
-38.999992
 11
42.000004
 21
-38.999992
  0
LINE
  8
0
 10
33.000004
 20
11.000008
 11
41.000004
 21
11.000008
  0
LINE
  8
0
 10
33.000004
 20
-48.999992
 11
41.000004
 21
-48.999992
  0
LINE
  8
0
 10
33.000004
 20
12.000008
 11
41.000004
 21
12.000008
  0
LINE
  8
0
 10
33.000004
 20
-49.999992
 11
41.000004
 21
-49.999992
  0
LINE
  8
0
 10
55.499973
 20
11.499977
 11
55.499973
 21
18.499977
  0
LINE
  8
0
 10
49.699986
 20
18.500008
 11
55.500004
 21
18.500008
  0
LINE
  8
0
 10
49.699986
 20
11.499977
 11
49.699986
 21
18.499977
  0
LINE
  8
0
 10
49.699986
 20
11.500008
 11
55.500004
 21
11.500008
  0
LINE
  8
0
 10
24.299992
 20
-49.499992
 11
18.500004
 21
-49.499992
  0
LINE
  8
0
 10
24.299992
 20
-49.500023
 11
24.299992
 21
-56.500023
  0
LINE
  8
0
 10
24.299992
 20
-56.499992
 11
18.500004
 21
-56.499992
  0
LINE
  8
0
 10
18.499973
 20
-49.500023
 11
18.499973
 21
-56.500023
  0
LINE
  8
0
 10
82.149994
 20
-93.499992
 11
82.149994
 21
-94.200005
  0
LINE
  8
0
 10
77.849976
 20
-93.499992
 11
77.849976
 21
-94.200005
  0
LINE
  8
0
 10
77.849976
 20
-94.200005
 11
82.149963
 21
-94.200005
  0
LINE
  8
0
 10
16.000004
 20
-59.499992
 11
58.000004
 21
-59.499992
  0
LINE
  8
0
 10
16.000004
 20
21.500008
 11
58.000004
 21
21.500008
  0
LINE
  8
0
 10
17.500004
 20
-69.499992
 11
56.500004
 21
-69.499992
  0
LINE
  8
0
 10
17.500004
 20
31.500008
 11
56.500004
 21
31.500008
  0
LINE
  8
0
 10
24.000004
 20
55.500008
 11
50.000004
 21
55.500008
  0
LINE
  8
0
 10
57.999973
 20
-68.000023
 11
57.999973
 21
29.999977
  0
LINE
  8
0
 10
15.999973
 20
-78.999992
 11
15.999973
 21
44.000008
  0
LINE
  8
0
 10
20.999973
 20
31.499977
 11
20.999973
 21
52.499977
  0
LINE
  8
0
 10
52.999973
 20
31.499977
 11
52.999973
 21
52.499977
  0
LINE
  8
0
 10
54.250004
 20
-39.499992
 11
58.000004
 21
-39.499992
  0
LINE
  8
0
 10
54.250004
 20
-31.499992
 11
58.000004
 21
-31.499992
  0
LINE
  8
0
 10
54.249973
 20
2.999977
 11
54.249973
 21
-8.000023
  0
LINE
  8
0
 10
48.750004
 20
-2.499992
 11
59.750004
 21
-2.499992
  0
LINE
  8
0
 10
54.250004
 20
1.500008
 11
58.000004
 21
1.500008
  0
LINE
  8
0
 10
54.250004
 20
-6.499992
 11
58.000004
 21
-6.499992
  0
LINE
  8
0
 10
19.749973
 20
-41.000023
 11
19.749973
 21
-30.000023
  0
LINE
  8
0
 10
25.250004
 20
-35.499992
 11
14.250004
 21
-35.499992
  0
LINE
  8
0
 10
19.750004
 20
-39.499992
 11
16.000004
 21
-39.499992
  0
LINE
  8
0
 10
19.750004
 20
-31.499992
 11
16.000004
 21
-31.499992
  0
LINE
  8
0
 10
19.750004
 20
1.500008
 11
16.000004
 21
1.500008
  0
LINE
  8
0
 10
19.750004
 20
-6.499992
 11
16.000004
 21
-6.499992
  0
LINE
  8
0
 10
-17.137112
 20
-18.999992
 11
222.364929
 21
-18.999992
  0
LINE
  8
0
 10
21.249973
 20
-36.366051
 11
21.249973
 21
-34.633995
  0
LINE
  8
0
 10
18.249973
 20
-36.366051
 11
18.249973
 21
-34.633995
  0
LINE
  8
0
 10
21.249832
 20
-34.633957
 11
19.749855
 21
-33.767944
  0
LINE
  8
0
 10
19.749756
 20
-37.232166
 11
18.249752
 21
-36.366138
  0
LINE
  8
0
 10
19.750057
 20
-37.232189
 11
21.250034
 21
-36.366173
  0
LINE
  8
0
 10
19.749992
 20
-33.768173
 11
18.249989
 21
-34.634201
  0
LINE
  8
0
 10
54.250019
 20
-33.768276
 11
52.750042
 21
-34.634293
  0
LINE
  8
0
 10
54.250126
 20
-37.232216
 11
55.750126
 21
-36.366184
  0
LINE
  8
0
 10
55.749973
 20
-36.366051
 11
55.749973
 21
-34.633995
  0
LINE
  8
0
 10
52.749973
 20
-36.366051
 11
52.749973
 21
-34.633995
  0
LINE
  8
0
 10
55.749859
 20
-34.633972
 11
54.249859
 21
-33.767944
  0
LINE
  8
0
 10
54.249744
 20
-37.232128
 11
52.749714
 21
-36.366089
  0
LINE
  8
0
 10
54.250042
 20
-4.232140
 11
55.750042
 21
-3.366112
  0
LINE
  8
0
 10
54.249798
 20
-4.232018
 11
52.749798
 21
-3.365990
  0
LINE
  8
0
 10
52.749973
 20
-3.366051
 11
52.749973
 21
-1.633995
  0
LINE
  8
0
 10
54.250004
 20
-0.768150
 11
52.750027
 21
-1.634163
  0
LINE
  8
0
 10
55.749882
 20
-1.634010
 11
54.249874
 21
-0.767982
  0
LINE
  8
0
 10
55.749973
 20
-3.366051
 11
55.749973
 21
-1.633995
  0
LINE
  8
0
 10
-23.999996
 20
-60.999992
 11
-13.000027
 21
-60.999992
  0
LINE
  8
0
 10
-19.999996
 20
-74.499992
 11
-24.999996
 21
-74.499992
  0
LINE
  8
0
 10
-19.999996
 20
-65.499992
 11
-24.999996
 21
-65.499992
  0
LINE
  8
0
 10
-19.999996
 20
-62.928215
 11
-19.999996
 21
-76.696556
  0
LINE
  8
0
 10
-25.999996
 20
-62.999992
 11
-25.999996
 21
-64.499992
  0
LINE
  8
0
 10
-25.999996
 20
-75.499992
 11
-25.999996
 21
-76.999992
  0
LINE
  8
0
 10
-23.999996
 20
26.000008
 11
-13.000027
 21
26.000008
  0
LINE
  8
0
 10
-23.999996
 20
44.000008
 11
16.149967
 21
44.000008
  0
LINE
  8
0
 10
-19.999996
 20
30.500008
 11
-24.999996
 21
30.500008
  0
LINE
  8
0
 10
-19.999996
 20
39.500008
 11
-24.999996
 21
39.500008
  0
LINE
  8
0
 10
-19.999996
 20
42.071785
 11
-19.999996
 21
28.303444
  0
LINE
  8
0
 10
-25.999996
 20
42.000008
 11
-25.999996
 21
40.500008
  0
LINE
  8
0
 10
-12.000027
 20
41.000008
 11
-12.000027
 21
-75.999992
  0
LINE
  8
0
 10
-25.999996
 20
29.500008
 11
-25.999996
 21
28.000008
  0
LINE
  8
0
 10
-26.521847
 20
35.000008
 11
-8.543941
 21
35.000008
  0
LINE
  8
0
 10
216.000000
 20
41.000008
 11
216.000000
 21
-75.999992
  0
LINE
  8
0
 10
58.999973
 20
44.000008
 11
58.999973
 21
-78.999992
  0
LINE
  8
0
 10
230.000000
 20
29.500008
 11
230.000000
 21
28.000008
  0
LINE
  8
0
 10
230.521851
 20
35.000008
 11
212.543945
 21
35.000008
  0
LINE
  8
0
 10
230.000000
 20
42.000008
 11
230.000000
 21
40.500008
  0
LINE
  8
0
 10
224.000000
 20
42.071785
 11
224.000000
 21
28.303444
  0
LINE
  8
0
 10
224.000000
 20
39.500008
 11
229.000000
 21
39.500008
  0
LINE
  8
0
 10
224.000000
 20
30.500008
 11
229.000000
 21
30.500008
  0
LINE
  8
0
 10
228.000000
 20
44.000008
 11
187.849976
 21
44.000008
  0
LINE
  8
0
 10
228.000000
 20
26.000008
 11
217.000000
 21
26.000008
  0
LINE
  8
0
 10
230.000000
 20
-75.499992
 11
230.000000
 21
-76.999992
  0
LINE
  8
0
 10
230.390533
 20
-69.999992
 11
212.543945
 21
-69.999992
  0
LINE
  8
0
 10
230.000000
 20
-62.999992
 11
230.000000
 21
-64.499992
  0
LINE
  8
0
 10
224.000000
 20
-62.928215
 11
224.000000
 21
-76.696556
  0
LINE
  8
0
 10
223.999969
 20
-65.499992
 11
228.999969
 21
-65.499992
  0
LINE
  8
0
 10
223.999969
 20
-74.499992
 11
228.999969
 21
-74.499992
  0
LINE
  8
0
 10
227.999969
 20
-60.999992
 11
217.000000
 21
-60.999992
  0
LINE
  8
0
 10
58.999973
 20
33.500008
 11
52.999973
 21
33.500008
  0
LINE
  8
0
 10
165.999969
 20
-86.753716
 11
165.999969
 21
64.005623
  0
LINE
  8
0
 10
117.999969
 20
-48.000023
 11
117.999969
 21
9.999977
  0
LINE
  8
0
 10
127.999969
 20
-48.000023
 11
127.999969
 21
9.999977
  0
LINE
  8
0
 10
116.999969
 20
-48.000023
 11
116.999969
 21
9.999977
  0
LINE
  8
0
 10
128.999969
 20
-48.000023
 11
128.999969
 21
9.999977
  0
LINE
  8
0
 10
148.750000
 20
-8.000023
 11
148.750000
 21
2.999977
  0
LINE
  8
0
 10
106.999969
 20
-90.500023
 11
106.999969
 21
-69.500023
  0
LINE
  8
0
 10
138.999969
 20
-90.500023
 11
138.999969
 21
-69.500023
  0
LINE
  8
0
 10
143.250000
 20
-2.500023
 11
154.250000
 21
-2.500023
  0
LINE
  8
0
 10
118.000000
 20
1.000008
 11
128.000000
 21
1.000008
  0
LINE
  8
0
 10
118.000000
 20
-38.999992
 11
128.000000
 21
-38.999992
  0
LINE
  8
0
 10
119.000000
 20
11.000008
 11
127.000000
 21
11.000008
  0
LINE
  8
0
 10
119.000000
 20
-48.999992
 11
127.000000
 21
-48.999992
  0
LINE
  8
0
 10
119.000000
 20
12.000008
 11
127.000000
 21
12.000008
  0
LINE
  8
0
 10
119.000000
 20
-49.999992
 11
127.000000
 21
-49.999992
  0
LINE
  8
0
 10
141.499969
 20
11.499977
 11
141.499969
 21
18.499977
  0
LINE
  8
0
 10
135.699982
 20
18.500008
 11
141.500000
 21
18.500008
  0
LINE
  8
0
 10
135.699982
 20
11.499977
 11
135.699982
 21
18.499977
  0
LINE
  8
0
 10
135.699982
 20
11.500008
 11
141.500000
 21
11.500008
  0
LINE
  8
0
 10
110.299988
 20
-49.499992
 11
104.500000
 21
-49.499992
  0
LINE
  8
0
 10
110.299988
 20
-49.500023
 11
110.299988
 21
-56.500023
  0
LINE
  8
0
 10
110.299988
 20
-56.499992
 11
104.500000
 21
-56.499992
  0
LINE
  8
0
 10
104.499969
 20
-49.500023
 11
104.499969
 21
-56.500023
  0
LINE
  8
0
 10
102.000000
 20
-59.499992
 11
144.000000
 21
-59.499992
  0
LINE
  8
0
 10
102.000000
 20
21.500008
 11
144.000000
 21
21.500008
  0
LINE
  8
0
 10
103.500000
 20
-69.499992
 11
142.500000
 21
-69.499992
  0
LINE
  8
0
 10
103.500000
 20
31.500008
 11
142.500000
 21
31.500008
  0
LINE
  8
0
 10
110.000000
 20
55.500008
 11
136.000000
 21
55.500008
  0
LINE
  8
0
 10
110.000000
 20
-93.500023
 11
136.000000
 21
-93.500023
  0
LINE
  8
0
 10
143.999969
 20
-68.000023
 11
143.999969
 21
29.999977
  0
LINE
  8
0
 10
101.999969
 20
-68.000023
 11
101.999969
 21
29.999977
  0
LINE
  8
0
 10
106.999969
 20
31.499977
 11
106.999969
 21
52.499977
  0
LINE
  8
0
 10
138.999969
 20
31.499977
 11
138.999969
 21
52.499977
  0
LINE
  8
0
 10
140.250000
 20
-39.499992
 11
144.000000
 21
-39.499992
  0
LINE
  8
0
 10
140.250000
 20
-31.499992
 11
144.000000
 21
-31.499992
  0
LINE
  8
0
 10
140.249969
 20
2.999977
 11
140.249969
 21
-8.000023
  0
LINE
  8
0
 10
134.750000
 20
-2.499992
 11
145.750000
 21
-2.499992
  0
LINE
  8
0
 10
140.250000
 20
1.500008
 11
144.000000
 21
1.500008
  0
LINE
  8
0
 10
140.250000
 20
-6.499992
 11
144.000000
 21
-6.499992
  0
LINE
  8
0
 10
105.749969
 20
-41.000023
 11
105.749969
 21
-30.000023
  0
LINE
  8
0
 10
111.250000
 20
-35.499992
 11
100.250000
 21
-35.499992
  0
LINE
  8
0
 10
105.750000
 20
-39.499992
 11
102.000000
 21
-39.499992
  0
LINE
  8
0
 10
105.750000
 20
-31.499992
 11
102.000000
 21
-31.499992
  0
LINE
  8
0
 10
105.749969
 20
2.999977
 11
105.749969
 21
-8.000023
  0
LINE
  8
0
 10
111.250000
 20
-2.499992
 11
100.250000
 21
-2.499992
  0
LINE
  8
0
 10
105.750000
 20
1.500008
 11
102.000000
 21
1.500008
  0
LINE
  8
0
 10
105.750000
 20
-6.499992
 11
102.000000
 21
-6.499992
  0
LINE
  8
0
 10
107.249969
 20
-36.366051
 11
107.249969
 21
-34.633995
  0
LINE
  8
0
 10
104.249969
 20
-36.366051
 11
104.249969
 21
-34.633995
  0
LINE
  8
0
 10
107.249863
 20
-34.633976
 11
105.749908
 21
-33.767979
  0
LINE
  8
0
 10
105.749802
 20
-37.232056
 11
104.249786
 21
-36.366032
  0
LINE
  8
0
 10
105.750122
 20
-37.232319
 11
107.250092
 21
-36.366302
  0
LINE
  8
0
 10
105.750015
 20
-33.768253
 11
104.250015
 21
-34.634281
  0
LINE
  8
0
 10
148.750015
 20
-0.768379
 11
147.250015
 21
-1.634407
  0
LINE
  8
0
 10
148.750153
 20
-4.232323
 11
150.250168
 21
-3.366295
  0
LINE
  8
0
 10
150.250000
 20
-3.366051
 11
150.250000
 21
-1.633995
  0
LINE
  8
0
 10
147.250000
 20
-3.366051
 11
147.250000
 21
-1.633995
  0
LINE
  8
0
 10
150.249893
 20
-1.634033
 11
148.749893
 21
-0.768005
  0
LINE
  8
0
 10
148.749771
 20
-4.232040
 11
147.249771
 21
-3.366013
  0
LINE
  8
0
 10
105.750000
 20
-0.768242
 11
104.249969
 21
-1.634285
  0
LINE
  8
0
 10
105.750122
 20
-4.232208
 11
107.250092
 21
-3.366196
  0
LINE
  8
0
 10
107.249969
 20
-3.366051
 11
107.249969
 21
-1.633995
  0
LINE
  8
0
 10
104.249969
 20
-3.366051
 11
104.249969
 21
-1.633995
  0
LINE
  8
0
 10
107.249908
 20
-1.633972
 11
105.749924
 21
-0.767960
  0
LINE
  8
0
 10
105.749832
 20
-4.232002
 11
104.249832
 21
-3.365974
  0
LINE
  8
0
 10
140.250107
 20
-4.232285
 11
141.750076
 21
-3.366264
  0
LINE
  8
0
 10
140.249817
 20
-4.231918
 11
138.749817
 21
-3.365891
  0
LINE
  8
0
 10
138.749969
 20
-3.366051
 11
138.749969
 21
-1.633995
  0
LINE
  8
0
 10
140.250000
 20
-0.768272
 11
138.750031
 21
-1.634285
  0
LINE
  8
0
 10
141.749908
 20
-1.633957
 11
140.249908
 21
-0.767929
  0
LINE
  8
0
 10
141.749969
 20
-3.366051
 11
141.749969
 21
-1.633995
  0
LINE
  8
0
 10
187.999969
 20
44.000008
 11
187.999969
 21
-78.999992
  0
LINE
  8
0
 10
227.999969
 20
-78.999992
 11
138.999969
 21
-78.999992
  0
LINE
  8
0
 10
187.999969
 20
33.500008
 11
138.999969
 21
33.500008
  0
LINE
  8
0
 10
106.999969
 20
33.500008
 11
101.999969
 21
33.500008
  0
LINE
  8
0
 10
106.999969
 20
-78.999992
 11
101.999969
 21
-78.999992
  0
LINE
  8
0
 10
79.999969
 20
-99.712181
 11
79.999969
 21
61.044472
  0
LINE
  8
0
 10
74.999969
 20
-48.000023
 11
74.999969
 21
9.999977
  0
LINE
  8
0
 10
84.999969
 20
-48.000023
 11
84.999969
 21
9.999977
  0
LINE
  8
0
 10
73.999969
 20
-48.000023
 11
73.999969
 21
9.999977
  0
LINE
  8
0
 10
85.999969
 20
-48.000023
 11
85.999969
 21
9.999977
  0
LINE
  8
0
 10
97.249969
 20
-41.000023
 11
97.249969
 21
-30.000023
  0
LINE
  8
0
 10
63.999973
 20
-90.500023
 11
63.999973
 21
-69.500023
  0
LINE
  8
0
 10
95.999969
 20
-90.500023
 11
95.999969
 21
-69.500023
  0
LINE
  8
0
 10
91.750000
 20
-35.499992
 11
102.750000
 21
-35.499992
  0
LINE
  8
0
 10
75.000000
 20
1.000008
 11
85.000000
 21
1.000008
  0
LINE
  8
0
 10
75.000000
 20
-38.999992
 11
85.000000
 21
-38.999992
  0
LINE
  8
0
 10
76.000000
 20
11.000008
 11
84.000000
 21
11.000008
  0
LINE
  8
0
 10
76.000000
 20
-48.999992
 11
84.000000
 21
-48.999992
  0
LINE
  8
0
 10
76.000000
 20
12.000008
 11
84.000000
 21
12.000008
  0
LINE
  8
0
 10
76.000000
 20
-49.999992
 11
84.000000
 21
-49.999992
  0
LINE
  8
0
 10
98.499969
 20
11.499977
 11
98.499969
 21
18.499977
  0
LINE
  8
0
 10
92.699982
 20
18.500008
 11
98.500000
 21
18.500008
  0
LINE
  8
0
 10
92.699982
 20
11.499977
 11
92.699982
 21
18.499977
  0
LINE
  8
0
 10
92.699982
 20
11.500008
 11
98.500000
 21
11.500008
  0
LINE
  8
0
 10
67.299988
 20
-49.499992
 11
61.500004
 21
-49.499992
  0
LINE
  8
0
 10
67.299988
 20
-49.500023
 11
67.299988
 21
-56.500023
  0
LINE
  8
0
 10
67.299988
 20
-56.499992
 11
61.500004
 21
-56.499992
  0
LINE
  8
0
 10
61.499973
 20
-49.500023
 11
61.499973
 21
-56.500023
  0
LINE
  8
0
 10
59.000004
 20
-59.499992
 11
101.000000
 21
-59.499992
  0
LINE
  8
0
 10
59.000004
 20
21.500008
 11
101.000000
 21
21.500008
  0
LINE
  8
0
 10
60.500004
 20
-69.499992
 11
99.500000
 21
-69.499992
  0
LINE
  8
0
 10
60.500004
 20
31.500008
 11
99.500000
 21
31.500008
  0
LINE
  8
0
 10
67.000000
 20
55.500008
 11
93.000000
 21
55.500008
  0
LINE
  8
0
 10
67.000000
 20
-93.500023
 11
93.000000
 21
-93.500023
  0
LINE
  8
0
 10
100.999969
 20
-68.000023
 11
100.999969
 21
29.999977
  0
LINE
  8
0
 10
58.999973
 20
-68.000023
 11
58.999973
 21
29.999977
  0
LINE
  8
0
 10
63.999973
 20
31.499977
 11
63.999973
 21
52.499977
  0
LINE
  8
0
 10
95.999969
 20
31.499977
 11
95.999969
 21
52.499977
  0
LINE
  8
0
 10
97.250000
 20
-39.499992
 11
101.000000
 21
-39.499992
  0
LINE
  8
0
 10
97.250000
 20
-31.499992
 11
101.000000
 21
-31.499992
  0
LINE
  8
0
 10
97.249969
 20
2.999977
 11
97.249969
 21
-8.000023
  0
LINE
  8
0
 10
91.750000
 20
-2.499992
 11
102.750000
 21
-2.499992
  0
LINE
  8
0
 10
97.250000
 20
1.500008
 11
101.000000
 21
1.500008
  0
LINE
  8
0
 10
97.250000
 20
-6.499992
 11
101.000000
 21
-6.499992
  0
LINE
  8
0
 10
62.749973
 20
-41.000023
 11
62.749973
 21
-30.000023
  0
LINE
  8
0
 10
68.250000
 20
-35.499992
 11
57.250004
 21
-35.499992
  0
LINE
  8
0
 10
62.750004
 20
-39.499992
 11
59.000004
 21
-39.499992
  0
LINE
  8
0
 10
62.750004
 20
-31.499992
 11
59.000004
 21
-31.499992
  0
LINE
  8
0
 10
62.749973
 20
2.999977
 11
62.749973
 21
-8.000023
  0
LINE
  8
0
 10
68.250000
 20
-2.499992
 11
57.250004
 21
-2.499992
  0
LINE
  8
0
 10
62.750004
 20
1.500008
 11
59.000004
 21
1.500008
  0
LINE
  8
0
 10
62.750004
 20
-6.499992
 11
59.000004
 21
-6.499992
  0
LINE
  8
0
 10
64.249969
 20
-36.366051
 11
64.249969
 21
-34.633995
  0
LINE
  8
0
 10
61.249973
 20
-36.366051
 11
61.249973
 21
-34.633995
  0
LINE
  8
0
 10
64.249878
 20
-34.634010
 11
62.749874
 21
-33.767982
  0
LINE
  8
0
 10
62.749821
 20
-37.232174
 11
61.249813
 21
-36.366150
  0
LINE
  8
0
 10
62.750072
 20
-37.232246
 11
64.250046
 21
-36.366234
  0
LINE
  8
0
 10
62.750004
 20
-33.768211
 11
61.250027
 21
-34.634224
  0
LINE
  8
0
 10
97.250015
 20
-33.768291
 11
95.750015
 21
-34.634319
  0
LINE
  8
0
 10
97.250137
 20
-37.232327
 11
98.750137
 21
-36.366299
  0
LINE
  8
0
 10
98.749969
 20
-36.366051
 11
98.749969
 21
-34.633995
  0
LINE
  8
0
 10
95.749969
 20
-36.366051
 11
95.749969
 21
-34.633995
  0
LINE
  8
0
 10
98.749893
 20
-34.634022
 11
97.249878
 21
-33.767994
  0
LINE
  8
0
 10
97.249741
 20
-37.232056
 11
95.749725
 21
-36.366028
  0
LINE
  8
0
 10
62.749989
 20
-0.768204
 11
61.249989
 21
-1.634232
  0
LINE
  8
0
 10
62.750065
 20
-4.232124
 11
64.250061
 21
-3.366096
  0
LINE
  8
0
 10
64.249969
 20
-3.366051
 11
64.249969
 21
-1.633995
  0
LINE
  8
0
 10
61.249973
 20
-3.366051
 11
61.249973
 21
-1.633995
  0
LINE
  8
0
 10
64.249878
 20
-1.633980
 11
62.749905
 21
-0.767967
  0
LINE
  8
0
 10
62.749790
 20
-4.232056
 11
61.249783
 21
-3.366028
  0
LINE
  8
0
 10
97.250061
 20
-4.232208
 11
98.750061
 21
-3.366180
  0
LINE
  8
0
 10
97.249847
 20
-4.231956
 11
95.749847
 21
-3.365929
  0
LINE
  8
0
 10
95.749969
 20
-3.366051
 11
95.749969
 21
-1.633995
  0
LINE
  8
0
 10
97.250015
 20
-0.768196
 11
95.750000
 21
-1.634224
  0
LINE
  8
0
 10
98.749878
 20
-1.633987
 11
97.249878
 21
-0.767960
  0
LINE
  8
0
 10
98.749969
 20
-3.366051
 11
98.749969
 21
-1.633995
  0
LINE
  8
0
 10
144.999969
 20
44.000008
 11
144.999969
 21
-78.999992
  0
LINE
  8
0
 10
101.999969
 20
-78.999992
 11
95.999969
 21
-78.999992
  0
LINE
  8
0
 10
101.999969
 20
33.500008
 11
95.999969
 21
33.500008
  0
LINE
  8
0
 10
63.999973
 20
33.500008
 11
58.999973
 21
33.500008
  0
LINE
  8
0
 10
63.999973
 20
-78.999992
 11
-23.999996
 21
-78.999992
  0
LINE
  8
0
 10
19.749973
 20
2.999977
 11
19.749973
 21
-8.000023
  0
LINE
  8
0
 10
19.749771
 20
-4.232132
 11
18.249767
 21
-3.366104
  0
LINE
  8
0
 10
25.250004
 20
-2.499992
 11
14.250004
 21
-2.499992
  0
LINE
  8
0
 10
18.249973
 20
-3.366051
 11
18.249973
 21
-1.633995
  0
LINE
  8
0
 10
19.749954
 20
-0.768120
 11
18.249950
 21
-1.634148
  0
LINE
  8
0
 10
21.249889
 20
-1.634003
 11
19.749886
 21
-0.767975
  0
LINE
  8
0
 10
21.249973
 20
-3.366051
 11
21.249973
 21
-1.633995
  0
LINE
  8
0
 10
19.750031
 20
-4.232094
 11
21.250031
 21
-3.366058
  0
LINE
  8
0
 10
39.149967
 20
56.200020
 11
34.849979
 21
56.200020
  0
LINE
  8
0
 10
39.149998
 20
55.500008
 11
39.149998
 21
56.200020
  0
LINE
  8
0
 10
34.849979
 20
55.500008
 11
34.849979
 21
56.200020
  0
LINE
  8
0
 10
125.149994
 20
-93.499992
 11
125.149994
 21
-94.200005
  0
LINE
  8
0
 10
120.850006
 20
-93.499992
 11
120.850006
 21
-94.200005
  0
LINE
  8
0
 10
120.850006
 20
-94.200005
 11
125.149994
 21
-94.200005
  0
LINE
  8
0
 10
125.149994
 20
56.199989
 11
120.850006
 21
56.199989
  0
LINE
  8
0
 10
125.149994
 20
55.499977
 11
125.149994
 21
56.199989
  0
LINE
  8
0
 10
120.850006
 20
55.499977
 11
120.850006
 21
56.199989
  0
LINE
  8
0
 10
82.149963
 20
56.200020
 11
77.849976
 21
56.200020
  0
LINE
  8
0
 10
82.149994
 20
55.500008
 11
82.149994
 21
56.200020
  0
LINE
  8
0
 10
77.849976
 20
55.500008
 11
77.849976
 21
56.200020
  0
LINE
  8
0
 10
122.999969
 20
-98.827904
 11
122.999969
 21
61.768120
  0
LINE
  8
0
 10
101.999969
 20
44.000008
 11
101.999969
 21
-78.999992
  0
LINE
  8
0
 10
144.999969
 20
-63.999992
 11
144.999969
 21
26.000008
  0
LINE
  8
0
 10
186.999969
 20
-63.999992
 11
186.999969
 21
26.000008
  0
LINE
  8
0
 10
144.999969
 20
-63.999992
 11
186.999969
 21
-63.999992
  0
LINE
  8
0
 10
144.999969
 20
26.000008
 11
186.999969
 21
26.000008
  0
LINE
  8
0
 10
140.249969
 20
-41.000023
 11
140.249969
 21
-30.000023
  0
LINE
  8
0
 10
134.750000
 20
-35.499992
 11
145.750000
 21
-35.499992
  0
LINE
  8
0
 10
140.249771
 20
-37.231995
 11
138.749771
 21
-36.365967
  0
LINE
  8
0
 10
140.249985
 20
-33.768291
 11
138.749985
 21
-34.634319
  0
LINE
  8
0
 10
140.250153
 20
-37.232277
 11
141.750153
 21
-36.366249
  0
LINE
  8
0
 10
141.749969
 20
-36.366051
 11
141.749969
 21
-34.633995
  0
LINE
  8
0
 10
138.749969
 20
-36.366051
 11
138.749969
 21
-34.633995
  0
LINE
  8
0
 10
141.749878
 20
-34.633953
 11
140.249863
 21
-33.767925
  0
LINE
  8
0
 10
183.250000
 20
-41.000023
 11
183.250000
 21
-30.000023
  0
LINE
  8
0
 10
177.750000
 20
-35.500023
 11
188.750000
 21
-35.500023
  0
LINE
  8
0
 10
183.249771
 20
-37.232018
 11
181.749771
 21
-36.365993
  0
LINE
  8
0
 10
183.250015
 20
-33.768341
 11
181.750000
 21
-34.634369
  0
LINE
  8
0
 10
183.250153
 20
-37.232262
 11
184.750153
 21
-36.366234
  0
LINE
  8
0
 10
184.750000
 20
-36.366051
 11
184.750000
 21
-34.633995
  0
LINE
  8
0
 10
181.750000
 20
-36.366051
 11
181.750000
 21
-34.633995
  0
LINE
  8
0
 10
184.749908
 20
-34.633976
 11
183.249908
 21
-33.767948
  0
LINE
  8
0
 10
148.749969
 20
-41.000023
 11
148.749969
 21
-30.000023
  0
LINE
  8
0
 10
143.249969
 20
-35.500023
 11
154.249969
 21
-35.500023
  0
LINE
  8
0
 10
148.749771
 20
-37.232052
 11
147.249756
 21
-36.366024
  0
LINE
  8
0
 10
148.750000
 20
-33.768337
 11
147.250000
 21
-34.634365
  0
LINE
  8
0
 10
148.750168
 20
-37.232327
 11
150.250168
 21
-36.366299
  0
LINE
  8
0
 10
150.249969
 20
-36.366051
 11
150.249969
 21
-34.633995
  0
LINE
  8
0
 10
147.249969
 20
-36.366051
 11
147.249969
 21
-34.633995
  0
LINE
  8
0
 10
150.249832
 20
-34.633995
 11
148.749832
 21
-33.767967
  0
LINE
  8
0
 10
183.250000
 20
-8.000023
 11
183.250000
 21
2.999977
  0
LINE
  8
0
 10
177.750000
 20
-2.500023
 11
188.750000
 21
-2.500023
  0
LINE
  8
0
 10
183.249771
 20
-4.232048
 11
181.749756
 21
-3.366020
  0
LINE
  8
0
 10
183.250031
 20
-0.768394
 11
181.750031
 21
-1.634422
  0
LINE
  8
0
 10
183.250183
 20
-4.232330
 11
184.750183
 21
-3.366302
  0
LINE
  8
0
 10
184.750000
 20
-3.366051
 11
184.750000
 21
-1.633995
  0
LINE
  8
0
 10
181.750000
 20
-3.366051
 11
181.750000
 21
-1.633995
  0
LINE
  8
0
 10
184.749893
 20
-1.634010
 11
183.249893
 21
-0.767982
  0
LINE
  8
0
 10
-9.457790
 20
-69.999992
 11
-29.112637
 21
-69.999992
  0
LINE
  8
0
 10
16.149967
 20
34.299995
 11
20.999973
 21
34.299995
  0
LINE
  8
0
 10
20.999973
 20
33.500008
 11
15.999973
 21
33.500008
  0
LINE
  8
0
 10
58.849979
 20
44.000008
 11
59.149967
 21
44.000008
  0
LINE
  8
0
 10
52.999973
 20
34.299995
 11
58.849979
 21
34.299995
  0
LINE
  8
0
 10
59.149967
 20
34.299995
 11
63.999973
 21
34.299995
  0
LINE
  8
0
 10
95.999969
 20
34.299995
 11
101.849976
 21
34.299995
  0
LINE
  8
0
 10
102.149963
 20
34.299995
 11
106.999969
 21
34.299995
  0
LINE
  8
0
 10
138.999969
 20
34.299995
 11
144.849976
 21
34.299995
  0
LINE
  8
0
 10
145.149963
 20
34.299995
 11
187.849976
 21
34.299995
  0
LINE
  8
0
 10
145.149963
 20
34.299995
 11
145.149963
 21
86.000008
  0
LINE
  8
0
 10
187.849976
 20
34.299995
 11
187.849976
 21
86.000008
  0
LINE
  8
0
 10
102.149963
 20
44.000008
 11
101.849976
 21
44.000008
  0
LINE
  8
0
 10
145.149963
 20
44.000008
 11
144.849976
 21
44.000008
  0
LINE
  8
0
 10
184.849976
 20
89.000008
 11
148.149963
 21
89.000008
  0
LINE
  8
0
 10
102.149963
 20
34.299995
 11
102.149963
 21
86.000008
  0
LINE
  8
0
 10
144.849976
 20
34.299995
 11
144.849976
 21
86.000008
  0
LINE
  8
0
 10
141.849976
 20
89.000008
 11
105.149963
 21
89.000008
  0
LINE
  8
0
 10
59.149967
 20
34.299995
 11
59.149967
 21
86.000008
  0
LINE
  8
0
 10
101.849976
 20
34.299995
 11
101.849976
 21
86.000008
  0
LINE
  8
0
 10
98.849976
 20
89.000008
 11
62.149967
 21
89.000008
  0
LINE
  8
0
 10
16.149967
 20
34.299995
 11
16.149967
 21
86.000008
  0
LINE
  8
0
 10
58.849979
 20
34.299995
 11
58.849979
 21
86.000008
  0
LINE
  8
0
 10
55.849979
 20
89.000008
 11
19.149967
 21
89.000008
  0
LINE
  8
0
 10
144.999969
 20
-4.750023
 11
146.069061
 21
-4.750023
  0
LINE
  8
0
 10
144.999969
 20
-0.250023
 11
146.069061
 21
-0.250023
  0
LINE
  8
0
 10
186.999969
 20
-4.750023
 11
185.930878
 21
-4.750023
  0
LINE
  8
0
 10
186.999969
 20
-0.250023
 11
185.930878
 21
-0.250023
  0
LINE
  8
0
 10
144.999969
 20
-33.249962
 11
146.069061
 21
-33.249962
  0
LINE
  8
0
 10
144.999969
 20
-37.749962
 11
146.069061
 21
-37.749962
  0
LINE
  8
0
 10
186.999969
 20
-33.249962
 11
185.930878
 21
-33.249962
  0
LINE
  8
0
 10
186.999969
 20
-37.749962
 11
185.930878
 21
-37.749962
  0
LINE
  8
0
 10
98.849976
 20
89.000008
 11
62.149967
 21
89.000008
  0
LINE
  8
0
 10
141.849976
 20
89.000008
 11
105.149963
 21
89.000008
  0
LINE
  8
0
 10
184.849976
 20
89.000008
 11
148.149963
 21
89.000008
  0
LINE
  8
0
 10
37.499973
 20
80.205086
 11
37.499973
 21
103.967049
  0
LINE
  8
0
 10
80.499969
 20
81.982491
 11
80.499969
 21
103.967049
  0
LINE
  8
0
 10
123.499969
 20
82.772438
 11
123.499969
 21
103.967049
  0
LINE
  8
0
 10
166.499969
 20
83.759865
 11
166.499969
 21
103.967049
  0
LINE
  8
0
 10
26.674473
 20
99.000008
 11
26.674473
 21
94.000008
  0
LINE
  8
0
 10
48.325901
 20
94.000008
 11
26.674473
 21
94.000008
  0
LINE
  8
0
 10
46.815403
 20
94.000008
 11
46.815403
 21
89.000008
  0
LINE
  8
0
 10
28.184361
 20
94.000008
 11
28.184361
 21
89.000008
  0
LINE
  8
0
 10
48.325901
 20
99.000008
 11
48.325901
 21
94.000008
  0
LINE
  8
0
 10
39.999973
 20
99.000008
 11
39.999973
 21
94.000008
  0
LINE
  8
0
 10
45.499973
 20
99.000008
 11
45.499973
 21
94.000008
  0
LINE
  8
0
 10
34.999973
 20
99.000008
 11
34.999973
 21
94.000008
  0
LINE
  8
0
 10
29.499821
 20
99.000008
 11
29.499821
 21
94.000008
  0
LINE
  8
0
 10
29.173862
 20
99.000008
 11
29.173862
 21
94.000008
  0
LINE
  8
0
 10
48.325901
 20
99.000008
 11
26.674473
 21
99.000008
  0
LINE
  8
0
 10
45.825901
 20
99.000008
 11
45.825901
 21
94.000008
  0
LINE
  8
0
 10
69.674469
 20
99.000008
 11
69.674469
 21
94.000008
  0
LINE
  8
0
 10
91.325897
 20
94.000008
 11
69.674469
 21
94.000008
  0
LINE
  8
0
 10
89.815399
 20
94.000008
 11
89.815399
 21
89.000008
  0
LINE
  8
0
 10
71.184357
 20
94.000008
 11
71.184357
 21
89.000008
  0
LINE
  8
0
 10
91.325897
 20
99.000008
 11
91.325897
 21
94.000008
  0
LINE
  8
0
 10
82.999969
 20
99.000008
 11
82.999969
 21
94.000008
  0
LINE
  8
0
 10
88.499969
 20
99.000008
 11
88.499969
 21
94.000008
  0
LINE
  8
0
 10
77.999969
 20
99.000008
 11
77.999969
 21
94.000008
  0
LINE
  8
0
 10
72.499817
 20
99.000008
 11
72.499817
 21
94.000008
  0
LINE
  8
0
 10
72.173859
 20
99.000008
 11
72.173859
 21
94.000008
  0
LINE
  8
0
 10
91.325897
 20
99.000008
 11
69.674469
 21
99.000008
  0
LINE
  8
0
 10
88.825897
 20
99.000008
 11
88.825897
 21
94.000008
  0
LINE
  8
0
 10
112.674469
 20
99.000008
 11
112.674469
 21
94.000008
  0
LINE
  8
0
 10
134.325897
 20
94.000008
 11
112.674469
 21
94.000008
  0
LINE
  8
0
 10
132.815399
 20
94.000008
 11
132.815399
 21
89.000008
  0
LINE
  8
0
 10
114.184357
 20
94.000008
 11
114.184357
 21
89.000008
  0
LINE
  8
0
 10
134.325897
 20
99.000008
 11
134.325897
 21
94.000008
  0
LINE
  8
0
 10
125.999969
 20
99.000008
 11
125.999969
 21
94.000008
  0
LINE
  8
0
 10
131.499969
 20
99.000008
 11
131.499969
 21
94.000008
  0
LINE
  8
0
 10
120.999969
 20
99.000008
 11
120.999969
 21
94.000008
  0
LINE
  8
0
 10
115.499817
 20
99.000008
 11
115.499817
 21
94.000008
  0
LINE
  8
0
 10
115.173859
 20
99.000008
 11
115.173859
 21
94.000008
  0
LINE
  8
0
 10
134.325897
 20
99.000008
 11
112.674469
 21
99.000008
  0
LINE
  8
0
 10
131.825897
 20
99.000008
 11
131.825897
 21
94.000008
  0
LINE
  8
0
 10
155.674469
 20
99.000008
 11
155.674469
 21
94.000008
  0
LINE
  8
0
 10
177.325897
 20
94.000008
 11
155.674469
 21
94.000008
  0
LINE
  8
0
 10
175.815399
 20
94.000008
 11
175.815399
 21
89.000008
  0
LINE
  8
0
 10
157.184357
 20
94.000008
 11
157.184357
 21
89.000008
  0
LINE
  8
0
 10
177.325897
 20
99.000008
 11
177.325897
 21
94.000008
  0
LINE
  8
0
 10
168.999969
 20
99.000008
 11
168.999969
 21
94.000008
  0
LINE
  8
0
 10
174.499969
 20
99.000008
 11
174.499969
 21
94.000008
  0
LINE
  8
0
 10
163.999969
 20
99.000008
 11
163.999969
 21
94.000008
  0
LINE
  8
0
 10
158.499817
 20
99.000008
 11
158.499817
 21
94.000008
  0
LINE
  8
0
 10
158.173859
 20
99.000008
 11
158.173859
 21
94.000008
  0
LINE
  8
0
 10
177.325897
 20
99.000008
 11
155.674469
 21
99.000008
  0
LINE
  8
0
 10
174.825897
 20
99.000008
 11
174.825897
 21
94.000008
  0
LINE
  8
0
 10
29.384373
 20
94.000008
 11
29.384373
 21
89.000008
  0
LINE
  8
0
 10
45.615391
 20
94.000008
 11
45.615391
 21
89.000008
  0
LINE
  8
0
 10
72.384369
 20
94.000008
 11
72.384369
 21
89.000008
  0
LINE
  8
0
 10
88.615387
 20
94.000008
 11
88.615387
 21
89.000008
  0
LINE
  8
0
 10
115.384369
 20
94.000008
 11
115.384369
 21
89.000008
  0
LINE
  8
0
 10
131.615387
 20
94.000008
 11
131.615387
 21
89.000008
  0
LINE
  8
0
 10
158.384369
 20
94.000008
 11
158.384369
 21
89.000008
  0
LINE
  8
0
 10
174.615387
 20
94.000008
 11
174.615387
 21
89.000008
  0
ARC
  8
0
 10
41.000004
 20
9.999977
 40
2.000000
 50
0.000000
 51
90.000000
  0
ARC
  8
0
 10
33.000004
 20
9.999977
 40
2.000000
 50
90.000000
 51
180.000000
  0
ARC
  8
0
 10
33.000004
 20
-48.000023
 40
2.000000
 50
180.000000
 51
270.000000
  0
ARC
  8
0
 10
41.000004
 20
-48.000023
 40
2.000000
 50
270.000000
 51
0.000000
  0
ARC
  8
0
 10
41.000004
 20
9.999977
 40
1.000000
 50
0.000000
 51
90.000000
  0
ARC
  8
0
 10
33.000004
 20
9.999977
 40
1.000000
 50
90.000000
 51
180.000000
  0
ARC
  8
0
 10
33.000004
 20
-48.000023
 40
1.000000
 50
180.000000
 51
270.000000
  0
ARC
  8
0
 10
41.000004
 20
-48.000023
 40
1.000000
 50
270.000000
 51
0.000000
  0
ARC
  8
0
 10
50.000004
 20
52.499977
 40
3.000000
 50
0.000000
 51
90.000000
  0
ARC
  8
0
 10
24.000004
 20
52.499977
 40
3.000000
 50
90.000076
 51
180.000000
  0
ARC
  8
0
 10
17.500004
 20
29.999977
 40
1.500000
 50
90.000000
 51
180.000000
  0
ARC
  8
0
 10
17.500004
 20
-68.000023
 40
1.500000
 50
180.000000
 51
270.000000
  0
ARC
  8
0
 10
56.500004
 20
-68.000023
 40
1.500000
 50
270.000000
 51
0.000000
  0
ARC
  8
0
 10
56.500004
 20
29.999977
 40
1.500000
 50
0.000000
 51
90.000000
  0
CIRCLE
  8
0
 10
54.250004
 20
-35.500023
 40
3.500000
  0
ARC
  8
0
 10
54.250004
 20
-35.500023
 40
4.000000
 50
90.000000
 51
270.000000
  0
CIRCLE
  8
0
 10
54.250004
 20
-2.500023
 40
3.500000
  0
ARC
  8
0
 10
54.250004
 20
-2.500023
 40
4.000000
 50
90.000000
 51
270.000000
  0
CIRCLE
  8
0
 10
19.750004
 20
-35.500023
 40
3.500000
  0
ARC
  8
0
 10
19.750004
 20
-35.500023
 40
4.000000
 50
269.999939
 51
89.999947
  0
ARC
  8
0
 10
19.750004
 20
-2.500023
 40
4.000000
 50
269.999939
 51
89.999947
  0
ARC
  8
0
 10
-23.999996
 20
-76.999992
 40
2.000000
 50
180.000000
 51
269.999939
  0
ARC
  8
0
 10
-23.999996
 20
-62.999992
 40
2.000000
 50
90.000053
 51
180.000000
  0
ARC
  8
0
 10
-23.999996
 20
28.000008
 40
2.000000
 50
180.000000
 51
269.999939
  0
ARC
  8
0
 10
-23.999996
 20
42.000008
 40
2.000000
 50
90.000053
 51
180.000000
  0
ARC
  8
0
 10
-13.000027
 20
-59.999992
 40
1.000000
 50
270.000000
 51
0.000000
  0
ARC
  8
0
 10
-12.999996
 20
25.000008
 40
1.000000
 50
0.000000
 51
89.999893
  0
ARC
  8
0
 10
-24.999996
 20
-64.499992
 40
1.000000
 50
180.000000
 51
270.000000
  0
ARC
  8
0
 10
-19.999996
 20
-69.999992
 40
4.500000
 50
269.999939
 51
89.999924
  0
ARC
  8
0
 10
-24.999996
 20
29.500008
 40
1.000000
 50
90.000000
 51
180.000000
  0
ARC
  8
0
 10
-24.999996
 20
40.500008
 40
1.000000
 50
180.000000
 51
270.000000
  0
ARC
  8
0
 10
-19.999996
 20
35.000008
 40
4.500000
 50
269.999939
 51
89.999924
  0
ARC
  8
0
 10
-24.999996
 20
-75.499992
 40
1.000000
 50
90.000000
 51
180.000000
  0
ARC
  8
0
 10
-9.000027
 20
-75.999992
 40
3.000000
 50
180.000000
 51
269.999969
  0
ARC
  8
0
 10
213.000000
 20
-75.999992
 40
3.000000
 50
270.000000
 51
359.999847
  0
ARC
  8
0
 10
228.999969
 20
-75.499992
 40
1.000000
 50
0.000000
 51
90.000000
  0
ARC
  8
0
 10
224.000000
 20
35.000008
 40
4.500000
 50
90.000000
 51
270.000000
  0
ARC
  8
0
 10
229.000000
 20
40.500008
 40
1.000000
 50
270.000000
 51
0.000000
  0
ARC
  8
0
 10
229.000000
 20
29.500008
 40
1.000000
 50
0.000000
 51
90.000000
  0
ARC
  8
0
 10
223.999969
 20
-69.999992
 40
4.500000
 50
90.000000
 51
270.000000
  0
ARC
  8
0
 10
228.999969
 20
-64.499992
 40
1.000000
 50
270.000000
 51
0.000000
  0
ARC
  8
0
 10
217.000000
 20
25.000008
 40
1.000000
 50
90.000000
 51
180.000000
  0
ARC
  8
0
 10
217.000000
 20
-59.999992
 40
1.000000
 50
180.000000
 51
270.000000
  0
ARC
  8
0
 10
228.000000
 20
42.000008
 40
2.000000
 50
0.000000
 51
90.000000
  0
ARC
  8
0
 10
228.000000
 20
28.000008
 40
2.000000
 50
270.000000
 51
0.000000
  0
ARC
  8
0
 10
227.999969
 20
-62.999992
 40
2.000000
 50
359.999878
 51
90.000000
  0
ARC
  8
0
 10
227.999969
 20
-76.999992
 40
2.000000
 50
270.000000
 51
0.000000
  0
ARC
  8
0
 10
105.750000
 20
-2.500023
 40
4.000000
 50
270.000000
 51
89.999779
  0
CIRCLE
  8
0
 10
105.750000
 20
-2.500023
 40
3.500000
  0
ARC
  8
0
 10
127.000000
 20
9.999977
 40
2.000000
 50
0.000000
 51
90.000000
  0
ARC
  8
0
 10
119.000000
 20
9.999977
 40
2.000000
 50
90.000000
 51
180.000000
  0
ARC
  8
0
 10
119.000000
 20
-48.000023
 40
2.000000
 50
180.000000
 51
270.000000
  0
ARC
  8
0
 10
127.000000
 20
-48.000023
 40
2.000000
 50
270.000000
 51
0.000000
  0
ARC
  8
0
 10
127.000000
 20
9.999977
 40
1.000000
 50
0.000000
 51
90.000000
  0
ARC
  8
0
 10
119.000000
 20
9.999977
 40
1.000000
 50
90.000000
 51
180.000000
  0
ARC
  8
0
 10
119.000000
 20
-48.000023
 40
1.000000
 50
180.000000
 51
270.000000
  0
ARC
  8
0
 10
127.000000
 20
-48.000023
 40
1.000000
 50
270.000000
 51
0.000000
  0
ARC
  8
0
 10
136.000000
 20
52.499977
 40
3.000000
 50
0.000000
 51
90.000000
  0
ARC
  8
0
 10
110.000000
 20
52.499977
 40
3.000000
 50
90.000000
 51
180.000000
  0
ARC
  8
0
 10
110.000000
 20
-90.500023
 40
3.000000
 50
180.000000
 51
270.000000
  0
ARC
  8
0
 10
136.000000
 20
-90.500023
 40
3.000000
 50
270.000000
 51
0.000000
  0
ARC
  8
0
 10
103.500000
 20
29.999977
 40
1.500000
 50
90.000000
 51
180.000000
  0
ARC
  8
0
 10
103.500000
 20
-68.000023
 40
1.500000
 50
180.000000
 51
270.000000
  0
ARC
  8
0
 10
142.500000
 20
-68.000023
 40
1.500000
 50
270.000000
 51
0.000000
  0
ARC
  8
0
 10
142.500000
 20
29.999977
 40
1.500000
 50
0.000000
 51
90.000000
  0
CIRCLE
  8
0
 10
148.750000
 20
-2.500023
 40
3.500000
  0
ARC
  8
0
 10
140.250000
 20
-35.500023
 40
4.000000
 50
90.000000
 51
270.000000
  0
CIRCLE
  8
0
 10
140.250000
 20
-2.500023
 40
3.500000
  0
ARC
  8
0
 10
140.250000
 20
-2.500023
 40
4.000000
 50
90.000000
 51
270.000000
  0
CIRCLE
  8
0
 10
105.750000
 20
-35.500023
 40
3.500000
  0
ARC
  8
0
 10
105.750000
 20
-35.500023
 40
4.000000
 50
270.000000
 51
89.999779
  0
ARC
  8
0
 10
62.750004
 20
-2.500023
 40
4.000000
 50
270.000000
 51
89.999893
  0
CIRCLE
  8
0
 10
62.750004
 20
-2.500023
 40
3.500000
  0
ARC
  8
0
 10
84.000000
 20
9.999977
 40
2.000000
 50
0.000000
 51
90.000000
  0
ARC
  8
0
 10
76.000000
 20
9.999977
 40
2.000000
 50
90.000000
 51
180.000000
  0
ARC
  8
0
 10
76.000000
 20
-48.000023
 40
2.000000
 50
180.000000
 51
270.000000
  0
ARC
  8
0
 10
84.000000
 20
-48.000023
 40
2.000000
 50
270.000000
 51
0.000000
  0
ARC
  8
0
 10
84.000000
 20
9.999977
 40
1.000000
 50
0.000000
 51
90.000000
  0
ARC
  8
0
 10
76.000000
 20
9.999977
 40
1.000000
 50
90.000000
 51
180.000000
  0
ARC
  8
0
 10
76.000000
 20
-48.000023
 40
1.000000
 50
180.000000
 51
270.000000
  0
ARC
  8
0
 10
84.000000
 20
-48.000023
 40
1.000000
 50
270.000000
 51
0.000000
  0
ARC
  8
0
 10
93.000000
 20
52.499977
 40
3.000000
 50
0.000000
 51
90.000000
  0
ARC
  8
0
 10
67.000000
 20
52.499977
 40
3.000000
 50
90.000000
 51
180.000000
  0
ARC
  8
0
 10
67.000000
 20
-90.500023
 40
3.000000
 50
180.000000
 51
270.000000
  0
ARC
  8
0
 10
93.000000
 20
-90.500023
 40
3.000000
 50
270.000000
 51
0.000000
  0
ARC
  8
0
 10
60.500004
 20
29.999977
 40
1.500000
 50
90.000000
 51
180.000000
  0
ARC
  8
0
 10
60.500004
 20
-68.000023
 40
1.500000
 50
180.000000
 51
270.000000
  0
ARC
  8
0
 10
99.500000
 20
-68.000023
 40
1.500000
 50
270.000000
 51
0.000000
  0
ARC
  8
0
 10
99.500000
 20
29.999977
 40
1.500000
 50
0.000000
 51
90.000000
  0
CIRCLE
  8
0
 10
97.250000
 20
-35.500023
 40
3.500000
  0
ARC
  8
0
 10
97.250000
 20
-35.500023
 40
4.000000
 50
90.000000
 51
270.000000
  0
CIRCLE
  8
0
 10
97.250000
 20
-2.500023
 40
3.500000
  0
ARC
  8
0
 10
97.250000
 20
-2.500023
 40
4.000000
 50
90.000000
 51
270.000000
  0
CIRCLE
  8
0
 10
62.750004
 20
-35.500023
 40
3.500000
  0
ARC
  8
0
 10
62.750004
 20
-35.500023
 40
4.000000
 50
270.000000
 51
89.999893
  0
CIRCLE
  8
0
 10
19.750004
 20
-2.500023
 40
3.500000
  0
CIRCLE
  8
0
 10
140.250000
 20
-35.500023
 40
3.500000
  0
CIRCLE
  8
0
 10
183.250000
 20
-35.500023
 40
3.500000
  0
CIRCLE
  8
0
 10
148.749969
 20
-35.500023
 40
3.500000
  0
CIRCLE
  8
0
 10
183.250000
 20
-2.500023
 40
3.500000
  0
ARC
  8
0
 10
148.149963
 20
86.000008
 40
3.000000
 50
90.000000
 51
180.000000
  0
ARC
  8
0
 10
184.849976
 20
86.000008
 40
3.000000
 50
0.000000
 51
90.000000
  0
ARC
  8
0
 10
105.149963
 20
86.000008
 40
3.000000
 50
90.000000
 51
180.000000
  0
ARC
  8
0
 10
141.849976
 20
86.000008
 40
3.000000
 50
0.000000
 51
90.000000
  0
ARC
  8
0
 10
62.149967
 20
86.000008
 40
3.000000
 50
90.000000
 51
180.000000
  0
ARC
  8
0
 10
98.849976
 20
86.000008
 40
3.000000
 50
0.000000
 51
90.000000
  0
ARC
  8
0
 10
19.149967
 20
86.000008
 40
3.000000
 50
90.000000
 51
180.000000
  0
ARC
  8
0
 10
55.849979
 20
86.000008
 40
3.000000
 50
0.000000
 51
90.000000
  0
ARC
  8
0
 10
-9.000027
 20
41.000008
 40
3.000000
 50
89.999985
 51
180.000000
  0
ARC
  8
0
 10
213.000000
 20
41.000008
 40
3.000000
 50
0.000000
 51
90.000000
  0
TEXT
  8
0
 10
22.692747
 20
-51.840023
 40
2.400000
  1
B
 50
180.000000
 41
1.052632
 51
0.000000
  7
STANDARD
  0
TEXT
  8
0
 10
51.307259
 20
13.839977
 40
2.400000
  1
A
 50
0.000000
 41
1.052632
 51
0.000000
  7
STANDARD
  0
TEXT
  8
0
 10
108.692741
 20
-51.840023
 40
2.400000
  1
B
 50
180.000000
 41
1.052632
 51
0.000000
  7
STANDARD
  0
TEXT
  8
0
 10
137.307251
 20
13.839977
 40
2.400000
  1
A
 50
0.000000
 41
1.052632
 51
0.000000
  7
STANDARD
  0
TEXT
  8
0
 10
65.692741
 20
-51.840023
 40
2.400000
  1
B
 50
180.000000
 41
1.052632
 51
0.000000
  7
STANDARD
  0
TEXT
  8
0
 10
94.307259
 20
13.839977
 40
2.400000
  1
A
 50
0.000000
 41
1.052632
 51
0.000000
  7
STANDARD
  0
POINT
  8
0
 10
-19.999996
 20
239.999954
  0
POINT
  8
0
 10
224.000000
 20
239.999954
  0
LINE
  8
0
 10
179.749908
 20
158.400101
 11
186.749908
 21
158.400101
  0
LINE
  8
0
 10
183.249908
 20
157.637405
 11
183.249908
 21
164.005325
  0
LINE
  8
0
 10
186.749908
 20
158.400101
 11
186.749908
 21
162.400101
  0
LINE
  8
0
 10
179.749908
 20
158.400101
 11
179.749908
 21
162.400101
  0
LINE
  8
0
 10
187.999908
 20
204.731995
 11
189.499908
 21
203.865967
  0
LINE
  8
0
 10
189.499908
 20
202.133987
 11
189.499908
 21
203.866165
  0
LINE
  8
0
 10
188.000229
 20
201.267120
 11
189.500351
 21
202.133209
  0
LINE
  8
0
 10
144.999969
 20
167.400101
 11
186.999908
 21
167.400101
  0
LINE
  8
0
 10
15.999973
 20
168.999954
 11
15.999973
 21
195.749954
  0
LINE
  8
0
 10
-25.000027
 20
227.999954
 11
-9.000027
 21
227.999954
  0
LINE
  8
0
 10
-26.000027
 20
228.999954
 11
-26.000027
 21
239.999954
  0
LINE
  8
0
 10
-26.000027
 20
239.999954
 11
15.999973
 21
239.999954
  0
LINE
  8
0
 10
-12.000027
 20
171.999954
 11
-12.000027
 21
226.999954
  0
LINE
  8
0
 10
15.999973
 20
195.499954
 11
7.999973
 21
195.499954
  0
LINE
  8
0
 10
15.999973
 20
210.499954
 11
7.999973
 21
210.499954
  0
LINE
  8
0
 10
7.999973
 20
210.499954
 11
7.999973
 21
195.499954
  0
LINE
  8
0
 10
195.999908
 20
210.499954
 11
195.999908
 21
195.499954
  0
LINE
  8
0
 10
187.999908
 20
210.499954
 11
195.999908
 21
210.499954
  0
LINE
  8
0
 10
187.999908
 20
195.499954
 11
195.999908
 21
195.499954
  0
LINE
  8
0
 10
215.999908
 20
171.999954
 11
215.999908
 21
226.999954
  0
LINE
  8
0
 10
212.999908
 20
168.999954
 11
187.999908
 21
168.999954
  0
LINE
  8
0
 10
229.999908
 20
239.999954
 11
187.999908
 21
239.999954
  0
LINE
  8
0
 10
229.999908
 20
228.999954
 11
229.999908
 21
239.999954
  0
LINE
  8
0
 10
228.999908
 20
227.999954
 11
212.999908
 21
227.999954
  0
LINE
  8
0
 10
143.499969
 20
203.865936
 11
144.999969
 21
204.731964
  0
LINE
  8
0
 10
143.500000
 20
202.133987
 11
143.500000
 21
203.866165
  0
LINE
  8
0
 10
144.999802
 20
201.267715
 11
143.499817
 21
202.133728
  0
LINE
  8
0
 10
15.999973
 20
210.249954
 11
15.999973
 21
239.999954
  0
LINE
  8
0
 10
195.249908
 20
195.749954
 11
195.249908
 21
210.249954
  0
LINE
  8
0
 10
187.999908
 20
207.499954
 11
195.249908
 21
207.499954
  0
LINE
  8
0
 10
187.999908
 20
198.499954
 11
195.249908
 21
198.499954
  0
LINE
  8
0
 10
8.749973
 20
198.499954
 11
15.999973
 21
198.499954
  0
LINE
  8
0
 10
8.749973
 20
207.499954
 11
15.999973
 21
207.499954
  0
LINE
  8
0
 10
8.749973
 20
210.249954
 11
15.999973
 21
210.249954
  0
LINE
  8
0
 10
8.749973
 20
195.749954
 11
15.999973
 21
195.749954
  0
LINE
  8
0
 10
8.749973
 20
195.749954
 11
8.749973
 21
210.249954
  0
LINE
  8
0
 10
187.999908
 20
202.999954
 11
192.999908
 21
202.999954
  0
LINE
  8
0
 10
187.999908
 20
197.999954
 11
187.999908
 21
207.999954
  0
LINE
  8
0
 10
144.999969
 20
197.999954
 11
144.999969
 21
207.999954
  0
LINE
  8
0
 10
139.999969
 20
202.999954
 11
149.646011
 21
202.999954
  0
LINE
  8
0
 10
223.999908
 20
224.702347
 11
223.999908
 21
242.908157
  0
LINE
  8
0
 10
-20.000027
 20
225.477005
 11
-20.000027
 21
244.070267
  0
LINE
  8
0
 10
144.999969
 20
162.400101
 11
144.999969
 21
168.999954
  0
LINE
  8
0
 10
186.999908
 20
162.400101
 11
186.999908
 21
168.999954
  0
LINE
  8
0
 10
144.999969
 20
162.400101
 11
186.999908
 21
162.400101
  0
LINE
  8
0
 10
145.249969
 20
158.400101
 11
152.249969
 21
158.400101
  0
LINE
  8
0
 10
148.749969
 20
157.637405
 11
148.749969
 21
164.005325
  0
LINE
  8
0
 10
152.249969
 20
158.400101
 11
152.249969
 21
162.400101
  0
LINE
  8
0
 10
145.249969
 20
158.400101
 11
145.249969
 21
162.400101
  0
LINE
  8
0
 10
15.999973
 20
168.999954
 11
-9.000027
 21
168.999954
  0
LINE
  8
0
 10
187.999908
 20
239.999954
 11
187.999908
 21
237.768173
  0
LINE
  8
0
 10
165.999969
 20
173.218307
 11
165.999969
 21
155.628036
  0
LINE
  8
0
 10
15.999973
 20
168.999954
 11
58.999973
 21
168.999954
  0
LINE
  8
0
 10
58.999973
 20
210.249954
 11
58.999973
 21
238.199966
  0
LINE
  8
0
 10
15.999973
 20
238.199966
 11
58.999973
 21
238.199966
  0
LINE
  8
0
 10
145.000183
 20
201.267181
 11
146.500168
 21
202.133194
  0
LINE
  8
0
 10
146.500000
 20
202.133926
 11
146.500000
 21
203.865982
  0
LINE
  8
0
 10
144.999908
 20
204.731964
 11
146.499893
 21
203.865952
  0
LINE
  8
0
 10
15.999973
 20
198.499954
 11
16.149967
 21
198.499954
  0
LINE
  8
0
 10
15.999973
 20
207.499954
 11
16.149967
 21
207.499954
  0
LINE
  8
0
 10
15.999973
 20
210.249954
 11
16.149967
 21
210.249954
  0
LINE
  8
0
 10
15.999973
 20
195.749954
 11
16.149967
 21
195.749954
  0
LINE
  8
0
 10
58.999973
 20
169.199966
 11
58.999973
 21
195.749954
  0
LINE
  8
0
 10
58.999973
 20
168.999954
 11
101.999969
 21
168.999954
  0
LINE
  8
0
 10
101.999969
 20
210.249954
 11
101.999969
 21
238.199966
  0
LINE
  8
0
 10
80.499969
 20
164.208817
 11
80.499969
 21
243.295547
  0
LINE
  8
0
 10
58.999973
 20
238.199966
 11
101.999969
 21
238.199966
  0
LINE
  8
0
 10
58.999973
 20
197.999954
 11
58.999973
 21
207.999954
  0
LINE
  8
0
 10
101.999969
 20
169.199966
 11
101.999969
 21
195.749954
  0
LINE
  8
0
 10
101.999969
 20
168.999954
 11
144.999969
 21
168.999954
  0
LINE
  8
0
 10
144.999969
 20
210.249954
 11
144.999969
 21
238.199966
  0
LINE
  8
0
 10
101.999969
 20
238.199966
 11
144.999969
 21
238.199966
  0
LINE
  8
0
 10
101.999969
 20
197.999954
 11
101.999969
 21
207.999954
  0
LINE
  8
0
 10
144.999969
 20
168.999954
 11
144.999969
 21
195.749954
  0
LINE
  8
0
 10
144.999969
 20
168.999954
 11
187.999969
 21
168.999954
  0
LINE
  8
0
 10
187.999741
 20
201.267136
 11
186.499771
 21
202.133148
  0
LINE
  8
0
 10
186.499939
 20
202.133926
 11
186.499939
 21
203.865982
  0
LINE
  8
0
 10
188.000076
 20
204.731949
 11
186.500092
 21
203.865936
  0
LINE
  8
0
 10
187.999969
 20
210.249954
 11
187.999969
 21
238.199966
  0
LINE
  8
0
 10
187.999969
 20
197.999954
 11
187.999969
 21
207.999954
  0
LINE
  8
0
 10
187.999969
 20
202.999954
 11
182.999969
 21
202.999954
  0
LINE
  8
0
 10
166.499969
 20
164.208817
 11
166.499969
 21
243.295547
  0
LINE
  8
0
 10
144.999969
 20
238.199966
 11
187.999969
 21
238.199966
  0
LINE
  8
0
 10
144.999969
 20
197.999954
 11
144.999969
 21
207.999954
  0
LINE
  8
0
 10
187.999969
 20
168.999954
 11
187.999969
 21
195.749954
  0
LINE
  8
0
 10
37.499973
 20
164.208817
 11
37.499973
 21
243.295547
  0
LINE
  8
0
 10
15.999905
 20
204.731964
 11
17.499882
 21
203.865936
  0
LINE
  8
0
 10
14.499954
 20
203.865952
 11
15.999958
 21
204.731979
  0
LINE
  8
0
 10
14.500004
 20
202.133987
 11
14.500004
 21
203.866165
  0
LINE
  8
0
 10
15.999790
 20
201.267715
 11
14.499813
 21
202.133728
  0
LINE
  8
0
 10
15.999973
 20
197.999954
 11
15.999973
 21
207.999954
  0
LINE
  8
0
 10
10.999973
 20
202.999954
 11
20.646011
 21
202.999954
  0
LINE
  8
0
 10
16.000187
 20
201.267181
 11
17.500164
 21
202.133194
  0
LINE
  8
0
 10
17.500004
 20
202.133926
 11
17.500004
 21
203.865982
  0
LINE
  8
0
 10
58.999905
 20
204.731964
 11
60.499882
 21
203.865936
  0
LINE
  8
0
 10
57.499966
 20
203.865952
 11
58.999966
 21
204.731979
  0
LINE
  8
0
 10
57.500004
 20
202.133987
 11
57.500004
 21
203.866165
  0
LINE
  8
0
 10
58.999790
 20
201.267715
 11
57.499821
 21
202.133728
  0
LINE
  8
0
 10
58.999973
 20
197.999954
 11
58.999973
 21
207.999954
  0
LINE
  8
0
 10
53.999973
 20
202.999954
 11
63.646015
 21
202.999954
  0
LINE
  8
0
 10
59.000187
 20
201.267181
 11
60.500172
 21
202.133194
  0
LINE
  8
0
 10
60.500004
 20
202.133926
 11
60.500004
 21
203.865982
  0
LINE
  8
0
 10
101.999908
 20
204.731964
 11
103.499878
 21
203.865936
  0
LINE
  8
0
 10
100.499954
 20
203.865952
 11
101.999969
 21
204.731979
  0
LINE
  8
0
 10
100.500000
 20
202.133987
 11
100.500000
 21
203.866165
  0
LINE
  8
0
 10
101.999786
 20
201.267731
 11
100.499817
 21
202.133728
  0
LINE
  8
0
 10
101.999969
 20
197.999954
 11
101.999969
 21
207.999954
  0
LINE
  8
0
 10
96.999969
 20
202.999954
 11
106.646011
 21
202.999954
  0
LINE
  8
0
 10
102.000198
 20
201.267181
 11
103.500168
 21
202.133194
  0
LINE
  8
0
 10
103.500000
 20
202.133926
 11
103.500000
 21
203.865982
  0
ARC
  8
0
 10
187.999908
 20
202.999954
 40
3.500000
 50
270.000000
 51
90.000000
  0
ARC
  8
0
 10
-9.000027
 20
171.999954
 40
3.000000
 50
180.000000
 51
270.000031
  0
ARC
  8
0
 10
-13.000027
 20
226.999954
 40
1.000000
 50
0.000000
 51
90.000000
  0
ARC
  8
0
 10
-25.000027
 20
228.999954
 40
1.000000
 50
180.000000
 51
270.000000
  0
ARC
  8
0
 10
212.999908
 20
171.999954
 40
3.000000
 50
270.000000
 51
0.000000
  0
ARC
  8
0
 10
216.999908
 20
226.999954
 40
1.000000
 50
90.000000
 51
180.000000
  0
ARC
  8
0
 10
228.999908
 20
228.999954
 40
1.000000
 50
270.000000
 51
0.000000
  0
ARC
  8
0
 10
57.849979
 20
237.199966
 40
1.000000
 50
0.000000
 51
90.000000
  0
ARC
  8
0
 10
17.149967
 20
237.199966
 40
1.000000
 50
90.000000
 51
180.000000
  0
CIRCLE
  8
0
 10
15.999973
 20
202.999954
 40
3.500000
  0
ARC
  8
0
 10
100.849976
 20
237.199966
 40
1.000000
 50
0.000000
 51
90.000000
  0
ARC
  8
0
 10
60.149967
 20
237.199966
 40
1.000000
 50
90.000000
 51
180.000000
  0
ARC
  8
0
 10
143.849976
 20
237.199966
 40
1.000000
 50
0.000000
 51
90.000000
  0
ARC
  8
0
 10
103.149963
 20
237.199966
 40
1.000000
 50
90.000000
 51
180.000000
  0
ARC
  8
0
 10
187.999969
 20
202.999954
 40
3.500000
 50
90.000000
 51
270.000000
  0
ARC
  8
0
 10
186.849976
 20
237.199966
 40
1.000000
 50
0.000000
 51
90.000000
  0
ARC
  8
0
 10
146.149963
 20
237.199966
 40
1.000000
 50
90.000000
 51
180.000000
  0
POINT
  8
0
 10
15.999973
 20
202.999954
  0
POINT
  8
0
 10
53.999973
 20
220.499954
  0
POINT
  8
0
 10
20.999973
 20
176.499954
  0
POINT
  8
0
 10
53.999973
 20
176.499954
  0
POINT
  8
0
 10
20.999973
 20
220.499954
  0
POINT
  8
0
 10
15.999973
 20
202.999954
  0
LINE
  8
0
 10
19.149967
 20
228.199966
 11
55.849979
 21
228.199966
  0
LINE
  8
0
 10
16.149967
 20
206.997147
 11
16.149967
 21
225.199966
  0
LINE
  8
0
 10
16.149967
 20
172.199966
 11
16.149967
 21
199.002762
  0
LINE
  8
0
 10
19.149967
 20
169.199966
 11
55.849979
 21
169.199966
  0
LINE
  8
0
 10
58.849979
 20
172.199966
 11
58.849979
 21
199.002762
  0
LINE
  8
0
 10
58.849979
 20
206.997147
 11
58.849979
 21
225.199966
  0
LINE
  8
0
 10
17.132267
 20
176.499954
 11
25.360630
 21
176.499954
  0
LINE
  8
0
 10
22.272671
 20
177.348465
 11
21.848400
 21
176.924194
  0
LINE
  8
0
 10
21.848412
 20
177.772720
 11
21.424141
 21
177.348450
  0
LINE
  8
0
 10
20.999973
 20
172.453995
 11
20.999973
 21
180.810928
  0
LINE
  8
0
 10
20.575729
 20
177.348511
 11
20.151463
 21
177.772781
  0
LINE
  8
0
 10
20.151436
 20
177.772751
 11
19.727169
 21
177.348480
  0
LINE
  8
0
 10
20.151478
 20
176.924286
 11
19.727211
 21
177.348557
  0
LINE
  8
0
 10
20.151360
 20
176.075668
 11
19.727089
 21
175.651398
  0
LINE
  8
0
 10
20.151451
 20
175.227188
 11
19.727184
 21
175.651459
  0
LINE
  8
0
 10
20.575619
 20
175.651413
 11
20.151348
 21
175.227142
  0
LINE
  8
0
 10
21.848530
 20
175.227234
 11
21.424263
 21
175.651505
  0
LINE
  8
0
 10
22.272694
 20
175.651459
 11
21.848423
 21
175.227188
  0
LINE
  8
0
 10
22.272781
 20
175.651459
 11
21.848515
 21
176.075729
  0
LINE
  8
0
 10
22.272789
 20
177.348541
 11
21.848522
 21
177.772812
  0
LINE
  8
0
 10
16.149967
 20
193.199966
 11
58.849979
 21
193.199966
  0
LINE
  8
0
 10
16.149967
 20
191.199966
 11
58.849979
 21
191.199966
  0
LINE
  8
0
 10
16.149967
 20
188.199966
 11
58.849979
 21
188.199966
  0
LINE
  8
0
 10
16.149967
 20
186.199966
 11
58.849979
 21
186.199966
  0
LINE
  8
0
 10
16.149967
 20
183.199966
 11
58.849979
 21
183.199966
  0
LINE
  8
0
 10
16.149967
 20
181.199966
 11
58.849979
 21
181.199966
  0
LINE
  8
0
 10
17.132267
 20
220.499954
 11
25.360630
 21
220.499954
  0
LINE
  8
0
 10
22.272667
 20
221.348465
 11
21.848400
 21
220.924194
  0
LINE
  8
0
 10
21.848412
 20
221.772720
 11
21.424145
 21
221.348450
  0
LINE
  8
0
 10
20.999973
 20
216.453995
 11
20.999973
 21
224.810928
  0
LINE
  8
0
 10
20.575726
 20
221.348511
 11
20.151459
 21
221.772781
  0
LINE
  8
0
 10
20.151432
 20
221.772766
 11
19.727165
 21
221.348495
  0
LINE
  8
0
 10
20.151478
 20
220.924286
 11
19.727207
 21
221.348557
  0
LINE
  8
0
 10
20.151360
 20
220.075668
 11
19.727093
 21
219.651398
  0
LINE
  8
0
 10
20.151447
 20
219.227188
 11
19.727180
 21
219.651459
  0
LINE
  8
0
 10
20.575615
 20
219.651413
 11
20.151348
 21
219.227142
  0
LINE
  8
0
 10
21.848530
 20
219.227234
 11
21.424259
 21
219.651505
  0
LINE
  8
0
 10
22.272690
 20
219.651459
 11
21.848419
 21
219.227203
  0
LINE
  8
0
 10
22.272778
 20
219.651459
 11
21.848511
 21
220.075729
  0
LINE
  8
0
 10
22.272785
 20
221.348541
 11
21.848515
 21
221.772812
  0
LINE
  8
0
 10
50.132267
 20
220.499954
 11
58.360630
 21
220.499954
  0
LINE
  8
0
 10
55.272671
 20
221.348465
 11
54.848400
 21
220.924210
  0
LINE
  8
0
 10
54.848408
 20
221.772720
 11
54.424137
 21
221.348450
  0
LINE
  8
0
 10
53.999973
 20
216.453995
 11
53.999973
 21
224.810928
  0
LINE
  8
0
 10
53.575733
 20
221.348511
 11
53.151463
 21
221.772781
  0
LINE
  8
0
 10
53.151432
 20
221.772766
 11
52.727161
 21
221.348495
  0
LINE
  8
0
 10
53.151478
 20
220.924286
 11
52.727207
 21
221.348557
  0
LINE
  8
0
 10
53.151356
 20
220.075668
 11
52.727085
 21
219.651398
  0
LINE
  8
0
 10
53.151447
 20
219.227188
 11
52.727184
 21
219.651459
  0
LINE
  8
0
 10
53.575619
 20
219.651428
 11
53.151348
 21
219.227158
  0
LINE
  8
0
 10
54.848530
 20
219.227234
 11
54.424259
 21
219.651505
  0
LINE
  8
0
 10
55.272694
 20
219.651459
 11
54.848423
 21
219.227203
  0
LINE
  8
0
 10
55.272785
 20
219.651459
 11
54.848515
 21
220.075729
  0
LINE
  8
0
 10
55.272785
 20
221.348541
 11
54.848515
 21
221.772812
  0
LINE
  8
0
 10
50.132267
 20
176.499954
 11
58.360630
 21
176.499954
  0
LINE
  8
0
 10
55.272671
 20
177.348465
 11
54.848400
 21
176.924194
  0
LINE
  8
0
 10
54.848408
 20
177.772720
 11
54.424137
 21
177.348450
  0
LINE
  8
0
 10
53.999973
 20
172.453995
 11
53.999973
 21
180.810928
  0
LINE
  8
0
 10
53.575733
 20
177.348511
 11
53.151463
 21
177.772781
  0
LINE
  8
0
 10
53.151432
 20
177.772766
 11
52.727169
 21
177.348480
  0
LINE
  8
0
 10
53.151478
 20
176.924286
 11
52.727215
 21
177.348557
  0
LINE
  8
0
 10
53.151356
 20
176.075668
 11
52.727085
 21
175.651398
  0
LINE
  8
0
 10
53.151447
 20
175.227188
 11
52.727184
 21
175.651459
  0
LINE
  8
0
 10
53.575619
 20
175.651413
 11
53.151348
 21
175.227142
  0
LINE
  8
0
 10
54.848530
 20
175.227234
 11
54.424267
 21
175.651505
  0
LINE
  8
0
 10
55.272694
 20
175.651459
 11
54.848423
 21
175.227188
  0
LINE
  8
0
 10
55.272785
 20
175.651459
 11
54.848515
 21
176.075729
  0
LINE
  8
0
 10
55.272793
 20
177.348541
 11
54.848522
 21
177.772812
  0
LINE
  8
0
 10
23.749668
 20
207.199966
 11
51.008518
 21
207.199966
  0
LINE
  8
0
 10
48.326542
 20
203.836655
 11
48.326542
 21
200.949905
  0
LINE
  8
0
 10
45.825535
 20
199.506210
 11
48.325535
 21
200.949585
  0
LINE
  8
0
 10
48.325642
 20
210.562744
 11
48.000294
 21
210.374908
  0
LINE
  8
0
 10
45.825596
 20
214.892944
 11
45.500256
 21
214.705109
  0
LINE
  8
0
 10
45.825962
 20
214.894409
 11
48.325962
 21
213.451050
  0
LINE
  8
0
 10
48.325443
 20
210.563217
 11
48.325443
 21
213.449966
  0
LINE
  8
0
 10
48.325298
 20
203.836639
 11
47.999958
 21
204.024475
  0
LINE
  8
0
 10
45.825291
 20
199.506592
 11
45.499950
 21
199.694427
  0
LINE
  8
0
 10
26.674534
 20
203.836746
 11
26.674534
 21
200.949997
  0
LINE
  8
0
 10
29.174004
 20
199.505539
 11
26.674004
 21
200.948914
  0
LINE
  8
0
 10
26.675007
 20
203.836121
 11
27.000347
 21
204.023956
  0
LINE
  8
0
 10
29.174927
 20
199.506012
 11
29.500267
 21
199.693848
  0
LINE
  8
0
 10
39.999943
 20
218.256607
 11
39.999943
 21
217.880936
  0
LINE
  8
0
 10
34.999943
 20
218.256607
 11
34.999943
 21
217.880936
  0
LINE
  8
0
 10
35.000092
 20
218.256592
 11
37.500080
 21
219.699966
  0
LINE
  8
0
 10
39.999821
 20
218.256393
 11
37.499798
 21
219.699783
  0
LINE
  8
0
 10
39.999943
 20
196.518997
 11
39.999943
 21
196.143356
  0
LINE
  8
0
 10
34.999943
 20
196.518967
 11
34.999943
 21
196.143326
  0
LINE
  8
0
 10
29.174809
 20
214.893188
 11
26.674809
 21
213.449799
  0
LINE
  8
0
 10
26.673344
 20
210.563278
 11
26.673344
 21
213.450027
  0
LINE
  8
0
 10
40.000118
 20
196.143066
 11
37.500095
 21
194.699677
  0
LINE
  8
0
 10
34.999985
 20
196.143326
 11
37.499958
 21
194.699982
  0
LINE
  8
0
 10
26.674572
 20
210.563248
 11
26.999912
 21
210.375412
  0
LINE
  8
0
 10
29.174580
 20
214.893311
 11
29.499920
 21
214.705475
  0
LINE
  8
0
 10
39.999981
 20
217.880936
 11
45.499966
 21
214.705521
  0
LINE
  8
0
 10
35.000092
 20
217.880707
 11
29.500061
 21
214.705246
  0
LINE
  8
0
 10
45.500202
 20
199.694153
 11
40.000172
 21
196.518707
  0
LINE
  8
0
 10
29.499931
 20
199.694519
 11
34.999989
 21
196.519058
  0
LINE
  8
0
 10
47.999943
 20
210.375412
 11
47.999943
 21
204.024521
  0
LINE
  8
0
 10
26.999943
 20
210.375412
 11
26.999943
 21
204.024582
  0
ARC
  8
0
 10
19.149967
 20
225.199966
 40
3.000000
 50
90.000000
 51
180.000000
  0
ARC
  8
0
 10
15.999973
 20
202.999954
 40
3.999990
 50
272.149017
 51
87.850990
  0
ARC
  8
0
 10
19.149967
 20
172.199966
 40
3.000000
 50
180.000000
 51
270.000000
  0
ARC
  8
0
 10
55.849979
 20
172.199966
 40
3.000000
 50
270.000000
 51
0.000000
  0
ARC
  8
0
 10
58.999973
 20
202.999954
 40
3.999990
 50
92.149010
 51
267.850983
  0
ARC
  8
0
 10
55.849979
 20
225.199966
 40
3.000000
 50
0.000000
 51
90.000000
  0
ARC
  8
0
 10
20.999973
 20
177.772751
 40
0.600004
 50
225.000519
 51
314.999481
  0
ARC
  8
0
 10
19.727177
 20
176.499954
 40
0.600004
 50
314.999481
 51
45.000515
  0
ARC
  8
0
 10
20.999973
 20
175.227158
 40
0.600004
 50
45.000515
 51
134.999481
  0
ARC
  8
0
 10
22.272770
 20
176.499954
 40
0.600004
 50
134.999481
 51
225.000519
  0
CIRCLE
  8
0
 10
20.999973
 20
176.499954
 40
2.799999
  0
ARC
  8
0
 10
20.999973
 20
221.772751
 40
0.600004
 50
225.000519
 51
314.999481
  0
ARC
  8
0
 10
19.727177
 20
220.499954
 40
0.600004
 50
314.999481
 51
45.000515
  0
ARC
  8
0
 10
20.999973
 20
219.227158
 40
0.600004
 50
45.000515
 51
134.999481
  0
ARC
  8
0
 10
22.272770
 20
220.499954
 40
0.600004
 50
134.999481
 51
225.000519
  0
CIRCLE
  8
0
 10
20.999973
 20
220.499954
 40
2.799999
  0
ARC
  8
0
 10
53.999973
 20
221.772751
 40
0.600004
 50
225.000519
 51
314.999481
  0
ARC
  8
0
 10
52.727177
 20
220.499954
 40
0.600004
 50
314.999481
 51
45.000515
  0
ARC
  8
0
 10
53.999973
 20
219.227158
 40
0.600004
 50
45.000515
 51
134.999481
  0
ARC
  8
0
 10
55.272770
 20
220.499954
 40
0.600004
 50
134.999481
 51
225.000519
  0
CIRCLE
  8
0
 10
53.999973
 20
220.499954
 40
2.799999
  0
ARC
  8
0
 10
53.999973
 20
177.772751
 40
0.600004
 50
225.000519
 51
314.999481
  0
ARC
  8
0
 10
52.727177
 20
176.499954
 40
0.600004
 50
314.999481
 51
45.000515
  0
ARC
  8
0
 10
53.999973
 20
175.227158
 40
0.600004
 50
45.000515
 51
134.999481
  0
ARC
  8
0
 10
55.272770
 20
176.499954
 40
0.600004
 50
134.999481
 51
225.000519
  0
CIRCLE
  8
0
 10
53.999973
 20
176.499954
 40
2.799999
  0
ARC
  8
0
 10
37.499973
 20
207.199966
 40
11.900002
 50
335.476929
 51
24.535671
  0
ARC
  8
0
 10
37.499973
 20
207.199966
 40
11.900009
 50
275.464325
 51
324.533905
  0
ARC
  8
0
 10
37.499973
 20
207.199966
 40
11.900001
 50
35.477108
 51
84.540527
  0
ARC
  8
0
 10
37.499973
 20
207.199966
 40
11.900008
 50
95.462723
 51
144.537857
  0
ARC
  8
0
 10
37.499973
 20
207.199966
 40
11.899998
 50
155.477814
 51
204.536072
  0
ARC
  8
0
 10
37.499973
 20
207.199966
 40
11.900003
 50
215.477646
 51
264.536682
  0
CIRCLE
  8
0
 10
37.499973
 20
207.199966
 40
5.000000
  0
CIRCLE
  8
0
 10
37.499973
 20
207.199966
 40
7.500000
  0
POINT
  8
0
 10
58.999973
 20
202.999954
  0
POINT
  8
0
 10
96.999969
 20
220.499954
  0
POINT
  8
0
 10
63.999973
 20
176.499954
  0
POINT
  8
0
 10
96.999969
 20
176.499954
  0
POINT
  8
0
 10
63.999973
 20
220.499954
  0
POINT
  8
0
 10
58.999973
 20
202.999954
  0
LINE
  8
0
 10
62.149967
 20
228.199966
 11
98.849976
 21
228.199966
  0
LINE
  8
0
 10
59.149967
 20
206.997147
 11
59.149967
 21
225.199966
  0
LINE
  8
0
 10
59.149967
 20
172.199966
 11
59.149967
 21
199.002762
  0
LINE
  8
0
 10
62.149967
 20
169.199966
 11
98.849976
 21
169.199966
  0
LINE
  8
0
 10
101.849976
 20
172.199966
 11
101.849976
 21
199.002762
  0
LINE
  8
0
 10
101.849976
 20
206.997147
 11
101.849976
 21
225.199966
  0
LINE
  8
0
 10
60.132267
 20
176.499954
 11
68.360626
 21
176.499954
  0
LINE
  8
0
 10
65.272675
 20
177.348465
 11
64.848404
 21
176.924194
  0
LINE
  8
0
 10
64.848404
 20
177.772720
 11
64.424149
 21
177.348450
  0
LINE
  8
0
 10
63.999973
 20
172.453995
 11
63.999973
 21
180.810928
  0
LINE
  8
0
 10
63.575733
 20
177.348511
 11
63.151463
 21
177.772781
  0
LINE
  8
0
 10
63.151440
 20
177.772751
 11
62.727169
 21
177.348480
  0
LINE
  8
0
 10
63.151478
 20
176.924286
 11
62.727207
 21
177.348557
  0
LINE
  8
0
 10
63.151356
 20
176.075668
 11
62.727093
 21
175.651398
  0
LINE
  8
0
 10
63.151455
 20
175.227188
 11
62.727184
 21
175.651459
  0
LINE
  8
0
 10
63.575619
 20
175.651413
 11
63.151348
 21
175.227142
  0
LINE
  8
0
 10
64.848526
 20
175.227234
 11
64.424255
 21
175.651505
  0
LINE
  8
0
 10
65.272690
 20
175.651459
 11
64.848419
 21
175.227188
  0
LINE
  8
0
 10
65.272781
 20
175.651459
 11
64.848511
 21
176.075729
  0
LINE
  8
0
 10
65.272797
 20
177.348541
 11
64.848526
 21
177.772812
  0
LINE
  8
0
 10
59.149967
 20
193.199966
 11
101.849976
 21
193.199966
  0
LINE
  8
0
 10
59.149967
 20
191.199966
 11
101.849976
 21
191.199966
  0
LINE
  8
0
 10
59.149967
 20
188.199966
 11
101.849976
 21
188.199966
  0
LINE
  8
0
 10
59.149967
 20
186.199966
 11
101.849976
 21
186.199966
  0
LINE
  8
0
 10
59.149967
 20
183.199966
 11
101.849976
 21
183.199966
  0
LINE
  8
0
 10
59.149967
 20
181.199966
 11
101.849976
 21
181.199966
  0
LINE
  8
0
 10
60.132267
 20
220.499954
 11
68.360626
 21
220.499954
  0
LINE
  8
0
 10
65.272675
 20
221.348465
 11
64.848404
 21
220.924194
  0
LINE
  8
0
 10
64.848419
 20
221.772720
 11
64.424149
 21
221.348450
  0
LINE
  8
0
 10
63.999973
 20
216.453995
 11
63.999973
 21
224.810928
  0
LINE
  8
0
 10
63.575726
 20
221.348511
 11
63.151463
 21
221.772781
  0
LINE
  8
0
 10
63.151432
 20
221.772766
 11
62.727161
 21
221.348495
  0
LINE
  8
0
 10
63.151478
 20
220.924286
 11
62.727207
 21
221.348557
  0
LINE
  8
0
 10
63.151363
 20
220.075668
 11
62.727093
 21
219.651398
  0
LINE
  8
0
 10
63.151447
 20
219.227188
 11
62.727177
 21
219.651459
  0
LINE
  8
0
 10
63.575611
 20
219.651413
 11
63.151348
 21
219.227142
  0
LINE
  8
0
 10
64.848526
 20
219.227234
 11
64.424255
 21
219.651505
  0
LINE
  8
0
 10
65.272690
 20
219.651459
 11
64.848419
 21
219.227203
  0
LINE
  8
0
 10
65.272781
 20
219.651459
 11
64.848511
 21
220.075729
  0
LINE
  8
0
 10
65.272781
 20
221.348541
 11
64.848511
 21
221.772812
  0
LINE
  8
0
 10
93.132263
 20
220.499954
 11
101.360626
 21
220.499954
  0
LINE
  8
0
 10
98.272675
 20
221.348465
 11
97.848404
 21
220.924210
  0
LINE
  8
0
 10
97.848404
 20
221.772720
 11
97.424133
 21
221.348450
  0
LINE
  8
0
 10
96.999969
 20
216.453995
 11
96.999969
 21
224.810928
  0
LINE
  8
0
 10
96.575729
 20
221.348511
 11
96.151459
 21
221.772781
  0
LINE
  8
0
 10
96.151428
 20
221.772766
 11
95.727158
 21
221.348495
  0
LINE
  8
0
 10
96.151474
 20
220.924286
 11
95.727203
 21
221.348557
  0
LINE
  8
0
 10
96.151352
 20
220.075668
 11
95.727081
 21
219.651398
  0
LINE
  8
0
 10
96.151443
 20
219.227188
 11
95.727188
 21
219.651459
  0
LINE
  8
0
 10
96.575623
 20
219.651428
 11
96.151352
 21
219.227158
  0
LINE
  8
0
 10
97.848526
 20
219.227234
 11
97.424255
 21
219.651505
  0
LINE
  8
0
 10
98.272690
 20
219.651459
 11
97.848419
 21
219.227203
  0
LINE
  8
0
 10
98.272781
 20
219.651459
 11
97.848511
 21
220.075729
  0
LINE
  8
0
 10
98.272781
 20
221.348541
 11
97.848511
 21
221.772812
  0
LINE
  8
0
 10
93.132263
 20
176.499954
 11
101.360626
 21
176.499954
  0
LINE
  8
0
 10
98.272675
 20
177.348465
 11
97.848404
 21
176.924194
  0
LINE
  8
0
 10
97.848404
 20
177.772720
 11
97.424133
 21
177.348450
  0
LINE
  8
0
 10
96.999969
 20
172.453995
 11
96.999969
 21
180.810928
  0
LINE
  8
0
 10
96.575729
 20
177.348511
 11
96.151459
 21
177.772781
  0
LINE
  8
0
 10
96.151428
 20
177.772766
 11
95.727173
 21
177.348480
  0
LINE
  8
0
 10
96.151474
 20
176.924286
 11
95.727219
 21
177.348557
  0
LINE
  8
0
 10
96.151352
 20
176.075668
 11
95.727081
 21
175.651398
  0
LINE
  8
0
 10
96.151443
 20
175.227188
 11
95.727188
 21
175.651459
  0
LINE
  8
0
 10
96.575623
 20
175.651413
 11
96.151352
 21
175.227142
  0
LINE
  8
0
 10
97.848526
 20
175.227234
 11
97.424271
 21
175.651505
  0
LINE
  8
0
 10
98.272690
 20
175.651459
 11
97.848419
 21
175.227188
  0
LINE
  8
0
 10
98.272781
 20
175.651459
 11
97.848511
 21
176.075729
  0
LINE
  8
0
 10
98.272797
 20
177.348541
 11
97.848526
 21
177.772812
  0
LINE
  8
0
 10
66.749664
 20
207.199966
 11
94.008514
 21
207.199966
  0
LINE
  8
0
 10
91.326538
 20
203.836655
 11
91.326538
 21
200.949905
  0
LINE
  8
0
 10
88.825531
 20
199.506210
 11
91.325531
 21
200.949585
  0
LINE
  8
0
 10
91.325638
 20
210.562744
 11
91.000290
 21
210.374908
  0
LINE
  8
0
 10
88.825592
 20
214.892944
 11
88.500259
 21
214.705109
  0
LINE
  8
0
 10
88.825958
 20
214.894409
 11
91.325958
 21
213.451050
  0
LINE
  8
0
 10
91.325439
 20
210.563217
 11
91.325439
 21
213.449966
  0
LINE
  8
0
 10
91.325302
 20
203.836639
 11
90.999954
 21
204.024475
  0
LINE
  8
0
 10
88.825287
 20
199.506592
 11
88.499954
 21
199.694427
  0
LINE
  8
0
 10
69.674530
 20
203.836746
 11
69.674530
 21
200.949997
  0
LINE
  8
0
 10
72.173996
 20
199.505539
 11
69.674011
 21
200.948914
  0
LINE
  8
0
 10
69.675003
 20
203.836121
 11
70.000351
 21
204.023956
  0
LINE
  8
0
 10
72.174927
 20
199.506012
 11
72.500259
 21
199.693848
  0
LINE
  8
0
 10
82.999939
 20
218.256607
 11
82.999939
 21
217.880936
  0
LINE
  8
0
 10
77.999939
 20
218.256607
 11
77.999939
 21
217.880936
  0
LINE
  8
0
 10
78.000092
 20
218.256592
 11
80.500076
 21
219.699966
  0
LINE
  8
0
 10
82.999817
 20
218.256393
 11
80.499802
 21
219.699783
  0
LINE
  8
0
 10
82.999939
 20
196.518997
 11
82.999939
 21
196.143356
  0
LINE
  8
0
 10
77.999939
 20
196.518967
 11
77.999939
 21
196.143326
  0
LINE
  8
0
 10
72.174805
 20
214.893188
 11
69.674805
 21
213.449799
  0
LINE
  8
0
 10
69.673340
 20
210.563278
 11
69.673340
 21
213.450027
  0
LINE
  8
0
 10
83.000122
 20
196.143066
 11
80.500092
 21
194.699677
  0
LINE
  8
0
 10
77.999985
 20
196.143326
 11
80.499954
 21
194.699982
  0
LINE
  8
0
 10
69.674576
 20
210.563248
 11
69.999908
 21
210.375412
  0
LINE
  8
0
 10
72.174576
 20
214.893311
 11
72.499924
 21
214.705475
  0
LINE
  8
0
 10
82.999985
 20
217.880936
 11
88.499969
 21
214.705521
  0
LINE
  8
0
 10
78.000092
 20
217.880707
 11
72.500061
 21
214.705246
  0
LINE
  8
0
 10
88.500198
 20
199.694153
 11
83.000168
 21
196.518707
  0
LINE
  8
0
 10
72.499924
 20
199.694519
 11
77.999985
 21
196.519058
  0
LINE
  8
0
 10
90.999939
 20
210.375412
 11
90.999939
 21
204.024521
  0
LINE
  8
0
 10
69.999939
 20
210.375412
 11
69.999939
 21
204.024582
  0
ARC
  8
0
 10
62.149967
 20
225.199966
 40
3.000000
 50
90.000000
 51
180.000000
  0
ARC
  8
0
 10
58.999973
 20
202.999954
 40
3.999990
 50
272.149017
 51
87.850990
  0
ARC
  8
0
 10
62.149967
 20
172.199966
 40
3.000000
 50
180.000000
 51
270.000000
  0
ARC
  8
0
 10
98.849976
 20
172.199966
 40
3.000000
 50
270.000000
 51
0.000000
  0
ARC
  8
0
 10
101.999969
 20
202.999954
 40
3.999990
 50
92.149010
 51
267.850983
  0
ARC
  8
0
 10
98.849976
 20
225.199966
 40
3.000000
 50
0.000000
 51
90.000000
  0
ARC
  8
0
 10
63.999973
 20
177.772751
 40
0.600004
 50
225.000519
 51
314.999756
  0
ARC
  8
0
 10
62.727177
 20
176.499954
 40
0.600004
 50
314.999481
 51
45.000515
  0
ARC
  8
0
 10
63.999973
 20
175.227158
 40
0.600007
 50
45.000259
 51
134.999481
  0
ARC
  8
0
 10
65.272766
 20
176.499954
 40
0.599998
 50
134.998962
 51
225.001038
  0
CIRCLE
  8
0
 10
63.999973
 20
176.499954
 40
2.799999
  0
ARC
  8
0
 10
63.999973
 20
221.772751
 40
0.600004
 50
225.000519
 51
314.999756
  0
ARC
  8
0
 10
62.727177
 20
220.499954
 40
0.600004
 50
314.999481
 51
45.000515
  0
ARC
  8
0
 10
63.999973
 20
219.227158
 40
0.600007
 50
45.000259
 51
134.999481
  0
ARC
  8
0
 10
65.272766
 20
220.499954
 40
0.599998
 50
134.998962
 51
225.001038
  0
CIRCLE
  8
0
 10
63.999973
 20
220.499954
 40
2.799999
  0
ARC
  8
0
 10
96.999969
 20
221.772751
 40
0.599998
 50
225.001038
 51
315.000000
  0
ARC
  8
0
 10
95.727173
 20
220.499954
 40
0.600009
 50
315.000000
 51
45.000000
  0
ARC
  8
0
 10
96.999969
 20
219.227158
 40
0.600009
 50
45.000000
 51
134.998962
  0
ARC
  8
0
 10
98.272766
 20
220.499954
 40
0.599998
 50
134.998962
 51
225.001038
  0
CIRCLE
  8
0
 10
96.999969
 20
220.499954
 40
2.799999
  0
ARC
  8
0
 10
96.999969
 20
177.772751
 40
0.599998
 50
225.001038
 51
315.000000
  0
ARC
  8
0
 10
95.727173
 20
176.499954
 40
0.600009
 50
315.000000
 51
45.000000
  0
ARC
  8
0
 10
96.999969
 20
175.227158
 40
0.600009
 50
45.000000
 51
134.998962
  0
ARC
  8
0
 10
98.272766
 20
176.499954
 40
0.599998
 50
134.998962
 51
225.001038
  0
CIRCLE
  8
0
 10
96.999969
 20
176.499954
 40
2.799999
  0
ARC
  8
0
 10
80.499969
 20
207.199966
 40
11.900002
 50
335.476929
 51
24.535656
  0
ARC
  8
0
 10
80.499969
 20
207.199966
 40
11.900010
 50
275.464355
 51
324.533905
  0
ARC
  8
0
 10
80.499969
 20
207.199966
 40
11.900001
 50
35.477108
 51
84.540527
  0
ARC
  8
0
 10
80.499969
 20
207.199966
 40
11.900008
 50
95.462723
 51
144.537857
  0
ARC
  8
0
 10
80.499969
 20
207.199966
 40
11.899987
 50
155.477798
 51
204.536087
  0
ARC
  8
0
 10
80.499969
 20
207.199966
 40
11.900003
 50
215.477646
 51
264.536682
  0
CIRCLE
  8
0
 10
80.499969
 20
207.199966
 40
5.000000
  0
CIRCLE
  8
0
 10
80.499969
 20
207.199966
 40
7.500000
  0
POINT
  8
0
 10
101.999969
 20
202.999954
  0
POINT
  8
0
 10
139.999969
 20
220.499954
  0
POINT
  8
0
 10
106.999969
 20
176.499954
  0
POINT
  8
0
 10
139.999969
 20
176.499954
  0
POINT
  8
0
 10
106.999969
 20
220.499954
  0
POINT
  8
0
 10
101.999969
 20
202.999954
  0
LINE
  8
0
 10
105.149963
 20
228.199966
 11
141.849976
 21
228.199966
  0
LINE
  8
0
 10
102.149963
 20
206.997147
 11
102.149963
 21
225.199966
  0
LINE
  8
0
 10
102.149963
 20
172.199966
 11
102.149963
 21
199.002762
  0
LINE
  8
0
 10
105.149963
 20
169.199966
 11
141.849976
 21
169.199966
  0
LINE
  8
0
 10
144.849976
 20
172.199966
 11
144.849976
 21
199.002762
  0
LINE
  8
0
 10
144.849976
 20
206.997147
 11
144.849976
 21
225.199966
  0
LINE
  8
0
 10
103.132263
 20
176.499954
 11
111.360626
 21
176.499954
  0
LINE
  8
0
 10
108.272659
 20
177.348465
 11
107.848404
 21
176.924194
  0
LINE
  8
0
 10
107.848404
 20
177.772720
 11
107.424149
 21
177.348450
  0
LINE
  8
0
 10
106.999969
 20
172.453995
 11
106.999969
 21
180.810928
  0
LINE
  8
0
 10
106.575729
 20
177.348511
 11
106.151459
 21
177.772781
  0
LINE
  8
0
 10
106.151443
 20
177.772751
 11
105.727173
 21
177.348480
  0
LINE
  8
0
 10
106.151474
 20
176.924286
 11
105.727203
 21
177.348557
  0
LINE
  8
0
 10
106.151352
 20
176.075668
 11
105.727097
 21
175.651398
  0
LINE
  8
0
 10
106.151459
 20
175.227188
 11
105.727188
 21
175.651459
  0
LINE
  8
0
 10
106.575623
 20
175.651413
 11
106.151352
 21
175.227142
  0
LINE
  8
0
 10
107.848526
 20
175.227234
 11
107.424255
 21
175.651505
  0
LINE
  8
0
 10
108.272690
 20
175.651459
 11
107.848419
 21
175.227188
  0
LINE
  8
0
 10
108.272781
 20
175.651459
 11
107.848511
 21
176.075729
  0
LINE
  8
0
 10
108.272781
 20
177.348541
 11
107.848526
 21
177.772812
  0
LINE
  8
0
 10
102.149963
 20
193.199966
 11
144.849976
 21
193.199966
  0
LINE
  8
0
 10
102.149963
 20
191.199966
 11
144.849976
 21
191.199966
  0
LINE
  8
0
 10
102.149963
 20
188.199966
 11
144.849976
 21
188.199966
  0
LINE
  8
0
 10
102.149963
 20
186.199966
 11
144.849976
 21
186.199966
  0
LINE
  8
0
 10
102.149963
 20
183.199966
 11
144.849976
 21
183.199966
  0
LINE
  8
0
 10
102.149963
 20
181.199966
 11
144.849976
 21
181.199966
  0
LINE
  8
0
 10
103.132263
 20
220.499954
 11
111.360626
 21
220.499954
  0
LINE
  8
0
 10
108.272659
 20
221.348465
 11
107.848404
 21
220.924194
  0
LINE
  8
0
 10
107.848419
 20
221.772720
 11
107.424149
 21
221.348450
  0
LINE
  8
0
 10
106.999969
 20
216.453995
 11
106.999969
 21
224.810928
  0
LINE
  8
0
 10
106.575729
 20
221.348511
 11
106.151459
 21
221.772781
  0
LINE
  8
0
 10
106.151428
 20
221.772766
 11
105.727158
 21
221.348495
  0
LINE
  8
0
 10
106.151474
 20
220.924286
 11
105.727203
 21
221.348557
  0
LINE
  8
0
 10
106.151367
 20
220.075668
 11
105.727097
 21
219.651398
  0
LINE
  8
0
 10
106.151443
 20
219.227188
 11
105.727173
 21
219.651459
  0
LINE
  8
0
 10
106.575607
 20
219.651413
 11
106.151352
 21
219.227142
  0
LINE
  8
0
 10
107.848526
 20
219.227234
 11
107.424255
 21
219.651505
  0
LINE
  8
0
 10
108.272690
 20
219.651459
 11
107.848419
 21
219.227203
  0
LINE
  8
0
 10
108.272781
 20
219.651459
 11
107.848511
 21
220.075729
  0
LINE
  8
0
 10
108.272781
 20
221.348541
 11
107.848511
 21
221.772812
  0
LINE
  8
0
 10
136.132263
 20
220.499954
 11
144.360626
 21
220.499954
  0
LINE
  8
0
 10
141.272675
 20
221.348465
 11
140.848389
 21
220.924210
  0
LINE
  8
0
 10
140.848404
 20
221.772720
 11
140.424133
 21
221.348450
  0
LINE
  8
0
 10
139.999969
 20
216.453995
 11
139.999969
 21
224.810928
  0
LINE
  8
0
 10
139.575729
 20
221.348511
 11
139.151459
 21
221.772781
  0
LINE
  8
0
 10
139.151428
 20
221.772766
 11
138.727158
 21
221.348495
  0
LINE
  8
0
 10
139.151474
 20
220.924286
 11
138.727203
 21
221.348557
  0
LINE
  8
0
 10
139.151352
 20
220.075668
 11
138.727081
 21
219.651398
  0
LINE
  8
0
 10
139.151443
 20
219.227188
 11
138.727173
 21
219.651459
  0
LINE
  8
0
 10
139.575623
 20
219.651428
 11
139.151337
 21
219.227158
  0
LINE
  8
0
 10
140.848526
 20
219.227234
 11
140.424255
 21
219.651505
  0
LINE
  8
0
 10
141.272690
 20
219.651459
 11
140.848419
 21
219.227203
  0
LINE
  8
0
 10
141.272781
 20
219.651459
 11
140.848511
 21
220.075729
  0
LINE
  8
0
 10
141.272781
 20
221.348541
 11
140.848511
 21
221.772812
  0
LINE
  8
0
 10
136.132263
 20
176.499954
 11
144.360626
 21
176.499954
  0
LINE
  8
0
 10
141.272675
 20
177.348465
 11
140.848389
 21
176.924194
  0
LINE
  8
0
 10
140.848404
 20
177.772720
 11
140.424133
 21
177.348450
  0
LINE
  8
0
 10
139.999969
 20
172.453995
 11
139.999969
 21
180.810928
  0
LINE
  8
0
 10
139.575729
 20
177.348511
 11
139.151459
 21
177.772781
  0
LINE
  8
0
 10
139.151428
 20
177.772766
 11
138.727173
 21
177.348480
  0
LINE
  8
0
 10
139.151474
 20
176.924286
 11
138.727203
 21
177.348557
  0
LINE
  8
0
 10
139.151352
 20
176.075668
 11
138.727081
 21
175.651398
  0
LINE
  8
0
 10
139.151443
 20
175.227188
 11
138.727173
 21
175.651459
  0
LINE
  8
0
 10
139.575623
 20
175.651413
 11
139.151337
 21
175.227142
  0
LINE
  8
0
 10
140.848526
 20
175.227234
 11
140.424255
 21
175.651505
  0
LINE
  8
0
 10
141.272690
 20
175.651459
 11
140.848419
 21
175.227188
  0
LINE
  8
0
 10
141.272781
 20
175.651459
 11
140.848511
 21
176.075729
  0
LINE
  8
0
 10
141.272797
 20
177.348541
 11
140.848511
 21
177.772812
  0
LINE
  8
0
 10
109.749664
 20
207.199966
 11
137.008514
 21
207.199966
  0
LINE
  8
0
 10
134.326538
 20
203.836655
 11
134.326538
 21
200.949905
  0
LINE
  8
0
 10
131.825531
 20
199.506210
 11
134.325531
 21
200.949585
  0
LINE
  8
0
 10
134.325638
 20
210.562744
 11
134.000290
 21
210.374908
  0
LINE
  8
0
 10
131.825592
 20
214.892944
 11
131.500244
 21
214.705109
  0
LINE
  8
0
 10
131.825958
 20
214.894409
 11
134.325958
 21
213.451050
  0
LINE
  8
0
 10
134.325439
 20
210.563217
 11
134.325439
 21
213.449966
  0
LINE
  8
0
 10
134.325287
 20
203.836639
 11
133.999954
 21
204.024475
  0
LINE
  8
0
 10
131.825287
 20
199.506592
 11
131.499939
 21
199.694427
  0
LINE
  8
0
 10
112.674530
 20
203.836746
 11
112.674530
 21
200.949997
  0
LINE
  8
0
 10
115.173996
 20
199.505539
 11
112.673996
 21
200.948914
  0
LINE
  8
0
 10
112.675003
 20
203.836121
 11
113.000336
 21
204.023956
  0
LINE
  8
0
 10
115.174927
 20
199.506012
 11
115.500259
 21
199.693848
  0
LINE
  8
0
 10
125.999939
 20
218.256607
 11
125.999939
 21
217.880936
  0
LINE
  8
0
 10
120.999939
 20
218.256607
 11
120.999939
 21
217.880936
  0
LINE
  8
0
 10
121.000092
 20
218.256592
 11
123.500076
 21
219.699966
  0
LINE
  8
0
 10
125.999817
 20
218.256393
 11
123.499786
 21
219.699783
  0
LINE
  8
0
 10
125.999939
 20
196.518997
 11
125.999939
 21
196.143356
  0
LINE
  8
0
 10
120.999939
 20
196.518967
 11
120.999939
 21
196.143326
  0
LINE
  8
0
 10
115.174805
 20
214.893188
 11
112.674805
 21
213.449799
  0
LINE
  8
0
 10
112.673340
 20
210.563278
 11
112.673340
 21
213.450027
  0
LINE
  8
0
 10
126.000122
 20
196.143066
 11
123.500092
 21
194.699677
  0
LINE
  8
0
 10
120.999985
 20
196.143326
 11
123.499954
 21
194.699982
  0
LINE
  8
0
 10
112.674561
 20
210.563248
 11
112.999908
 21
210.375412
  0
LINE
  8
0
 10
115.174576
 20
214.893311
 11
115.499908
 21
214.705475
  0
LINE
  8
0
 10
125.999985
 20
217.880936
 11
131.499954
 21
214.705521
  0
LINE
  8
0
 10
121.000092
 20
217.880707
 11
115.500061
 21
214.705246
  0
LINE
  8
0
 10
131.500198
 20
199.694153
 11
126.000168
 21
196.518707
  0
LINE
  8
0
 10
115.499924
 20
199.694519
 11
120.999985
 21
196.519058
  0
LINE
  8
0
 10
133.999939
 20
210.375412
 11
133.999939
 21
204.024521
  0
LINE
  8
0
 10
112.999939
 20
210.375412
 11
112.999939
 21
204.024582
  0
ARC
  8
0
 10
105.149963
 20
225.199966
 40
3.000000
 50
90.000000
 51
180.000000
  0
ARC
  8
0
 10
101.999969
 20
202.999954
 40
3.999990
 50
272.149017
 51
87.850990
  0
ARC
  8
0
 10
105.149963
 20
172.199966
 40
3.000000
 50
180.000000
 51
270.000000
  0
ARC
  8
0
 10
141.849976
 20
172.199966
 40
3.000000
 50
270.000000
 51
0.000000
  0
ARC
  8
0
 10
144.999969
 20
202.999954
 40
3.999990
 50
92.149010
 51
267.850983
  0
ARC
  8
0
 10
141.849976
 20
225.199966
 40
3.000000
 50
0.000000
 51
90.000000
  0
ARC
  8
0
 10
106.999969
 20
177.772751
 40
0.599998
 50
225.001038
 51
315.000000
  0
ARC
  8
0
 10
105.727173
 20
176.499954
 40
0.600009
 50
315.000000
 51
45.000000
  0
ARC
  8
0
 10
106.999969
 20
175.227158
 40
0.600009
 50
45.000000
 51
134.998962
  0
ARC
  8
0
 10
108.272766
 20
176.499954
 40
0.599998
 50
134.998962
 51
225.001038
  0
CIRCLE
  8
0
 10
106.999969
 20
176.499954
 40
2.799999
  0
ARC
  8
0
 10
106.999969
 20
221.772751
 40
0.599998
 50
225.001038
 51
315.000000
  0
ARC
  8
0
 10
105.727173
 20
220.499954
 40
0.600009
 50
315.000000
 51
45.000000
  0
ARC
  8
0
 10
106.999969
 20
219.227158
 40
0.600009
 50
45.000000
 51
134.998962
  0
ARC
  8
0
 10
108.272766
 20
220.499954
 40
0.599998
 50
134.998962
 51
225.001038
  0
CIRCLE
  8
0
 10
106.999969
 20
220.499954
 40
2.799999
  0
ARC
  8
0
 10
139.999969
 20
221.772751
 40
0.599998
 50
225.001038
 51
314.998962
  0
ARC
  8
0
 10
138.727173
 20
220.499954
 40
0.599998
 50
314.998962
 51
45.001030
  0
ARC
  8
0
 10
139.999969
 20
219.227158
 40
0.599998
 50
45.001030
 51
134.998962
  0
ARC
  8
0
 10
141.272766
 20
220.499954
 40
0.599998
 50
134.998962
 51
225.001038
  0
CIRCLE
  8
0
 10
139.999969
 20
220.499954
 40
2.799999
  0
ARC
  8
0
 10
139.999969
 20
177.772751
 40
0.599998
 50
225.001038
 51
314.998962
  0
ARC
  8
0
 10
138.727173
 20
176.499954
 40
0.599998
 50
314.998962
 51
45.001030
  0
ARC
  8
0
 10
139.999969
 20
175.227158
 40
0.599998
 50
45.001030
 51
134.998962
  0
ARC
  8
0
 10
141.272766
 20
176.499954
 40
0.599998
 50
134.998962
 51
225.001038
  0
CIRCLE
  8
0
 10
139.999969
 20
176.499954
 40
2.799999
  0
ARC
  8
0
 10
123.499969
 20
207.199966
 40
11.900002
 50
335.476929
 51
24.535656
  0
ARC
  8
0
 10
123.499969
 20
207.199966
 40
11.900010
 50
275.464355
 51
324.533905
  0
ARC
  8
0
 10
123.499969
 20
207.199966
 40
11.900001
 50
35.477108
 51
84.540527
  0
ARC
  8
0
 10
123.499969
 20
207.199966
 40
11.900008
 50
95.462723
 51
144.537857
  0
ARC
  8
0
 10
123.499969
 20
207.199966
 40
11.900002
 50
155.477829
 51
204.536057
  0
ARC
  8
0
 10
123.499969
 20
207.199966
 40
11.900003
 50
215.477646
 51
264.536682
  0
CIRCLE
  8
0
 10
123.499969
 20
207.199966
 40
5.000000
  0
CIRCLE
  8
0
 10
123.499969
 20
207.199966
 40
7.500000
  0
POINT
  8
0
 10
144.999969
 20
202.999954
  0
POINT
  8
0
 10
182.999969
 20
220.499954
  0
POINT
  8
0
 10
149.999969
 20
176.499954
  0
POINT
  8
0
 10
182.999969
 20
176.499954
  0
POINT
  8
0
 10
149.999969
 20
220.499954
  0
POINT
  8
0
 10
144.999969
 20
202.999954
  0
LINE
  8
0
 10
148.149963
 20
228.199966
 11
184.849976
 21
228.199966
  0
LINE
  8
0
 10
145.149963
 20
206.997147
 11
145.149963
 21
225.199966
  0
LINE
  8
0
 10
145.149963
 20
172.199966
 11
145.149963
 21
199.002762
  0
LINE
  8
0
 10
148.149963
 20
169.199966
 11
184.849976
 21
169.199966
  0
LINE
  8
0
 10
187.849976
 20
172.199966
 11
187.849976
 21
199.002762
  0
LINE
  8
0
 10
187.849976
 20
206.997147
 11
187.849976
 21
225.199966
  0
LINE
  8
0
 10
146.132263
 20
176.499954
 11
154.360626
 21
176.499954
  0
LINE
  8
0
 10
151.272659
 20
177.348465
 11
150.848404
 21
176.924194
  0
LINE
  8
0
 10
150.848404
 20
177.772720
 11
150.424133
 21
177.348450
  0
LINE
  8
0
 10
149.999969
 20
172.453995
 11
149.999969
 21
180.810928
  0
LINE
  8
0
 10
149.575729
 20
177.348511
 11
149.151459
 21
177.772781
  0
LINE
  8
0
 10
149.151428
 20
177.772751
 11
148.727158
 21
177.348480
  0
LINE
  8
0
 10
149.151474
 20
176.924286
 11
148.727203
 21
177.348557
  0
LINE
  8
0
 10
149.151352
 20
176.075668
 11
148.727081
 21
175.651398
  0
LINE
  8
0
 10
149.151443
 20
175.227188
 11
148.727173
 21
175.651459
  0
LINE
  8
0
 10
149.575607
 20
175.651413
 11
149.151352
 21
175.227142
  0
LINE
  8
0
 10
150.848526
 20
175.227234
 11
150.424255
 21
175.651505
  0
LINE
  8
0
 10
151.272690
 20
175.651459
 11
150.848419
 21
175.227188
  0
LINE
  8
0
 10
151.272781
 20
175.651459
 11
150.848511
 21
176.075729
  0
LINE
  8
0
 10
151.272781
 20
177.348541
 11
150.848511
 21
177.772812
  0
LINE
  8
0
 10
145.149963
 20
193.199966
 11
187.849976
 21
193.199966
  0
LINE
  8
0
 10
145.149963
 20
191.199966
 11
187.849976
 21
191.199966
  0
LINE
  8
0
 10
145.149963
 20
188.199966
 11
187.849976
 21
188.199966
  0
LINE
  8
0
 10
145.149963
 20
186.199966
 11
187.849976
 21
186.199966
  0
LINE
  8
0
 10
145.149963
 20
183.199966
 11
187.849976
 21
183.199966
  0
LINE
  8
0
 10
145.149963
 20
181.199966
 11
187.849976
 21
181.199966
  0
LINE
  8
0
 10
146.132263
 20
220.499954
 11
154.360626
 21
220.499954
  0
LINE
  8
0
 10
151.272659
 20
221.348465
 11
150.848389
 21
220.924194
  0
LINE
  8
0
 10
150.848404
 20
221.772720
 11
150.424133
 21
221.348450
  0
LINE
  8
0
 10
149.999969
 20
216.453995
 11
149.999969
 21
224.810928
  0
LINE
  8
0
 10
149.575729
 20
221.348511
 11
149.151459
 21
221.772781
  0
LINE
  8
0
 10
149.151428
 20
221.772766
 11
148.727158
 21
221.348495
  0
LINE
  8
0
 10
149.151474
 20
220.924286
 11
148.727203
 21
221.348557
  0
LINE
  8
0
 10
149.151352
 20
220.075668
 11
148.727081
 21
219.651398
  0
LINE
  8
0
 10
149.151443
 20
219.227188
 11
148.727173
 21
219.651459
  0
LINE
  8
0
 10
149.575607
 20
219.651413
 11
149.151337
 21
219.227142
  0
LINE
  8
0
 10
150.848526
 20
219.227234
 11
150.424255
 21
219.651505
  0
LINE
  8
0
 10
151.272690
 20
219.651459
 11
150.848419
 21
219.227203
  0
LINE
  8
0
 10
151.272781
 20
219.651459
 11
150.848511
 21
220.075729
  0
LINE
  8
0
 10
151.272781
 20
221.348541
 11
150.848511
 21
221.772812
  0
LINE
  8
0
 10
179.132263
 20
220.499954
 11
187.360626
 21
220.499954
  0
LINE
  8
0
 10
184.272675
 20
221.348465
 11
183.848389
 21
220.924210
  0
LINE
  8
0
 10
183.848404
 20
221.772720
 11
183.424133
 21
221.348450
  0
LINE
  8
0
 10
182.999969
 20
216.453995
 11
182.999969
 21
224.810928
  0
LINE
  8
0
 10
182.575729
 20
221.348511
 11
182.151459
 21
221.772781
  0
LINE
  8
0
 10
182.151428
 20
221.772766
 11
181.727158
 21
221.348495
  0
LINE
  8
0
 10
182.151474
 20
220.924286
 11
181.727203
 21
221.348557
  0
LINE
  8
0
 10
182.151352
 20
220.075668
 11
181.727081
 21
219.651398
  0
LINE
  8
0
 10
182.151443
 20
219.227188
 11
181.727173
 21
219.651459
  0
LINE
  8
0
 10
182.575623
 20
219.651428
 11
182.151337
 21
219.227158
  0
LINE
  8
0
 10
183.848526
 20
219.227234
 11
183.424255
 21
219.651505
  0
LINE
  8
0
 10
184.272690
 20
219.651459
 11
183.848419
 21
219.227203
  0
LINE
  8
0
 10
184.272781
 20
219.651459
 11
183.848511
 21
220.075729
  0
LINE
  8
0
 10
184.272781
 20
221.348541
 11
183.848511
 21
221.772812
  0
LINE
  8
0
 10
179.132263
 20
176.499954
 11
187.360626
 21
176.499954
  0
LINE
  8
0
 10
184.272675
 20
177.348465
 11
183.848389
 21
176.924194
  0
LINE
  8
0
 10
183.848404
 20
177.772720
 11
183.424133
 21
177.348450
  0
LINE
  8
0
 10
182.999969
 20
172.453995
 11
182.999969
 21
180.810928
  0
LINE
  8
0
 10
182.575729
 20
177.348511
 11
182.151459
 21
177.772781
  0
LINE
  8
0
 10
182.151428
 20
177.772766
 11
181.727173
 21
177.348480
  0
LINE
  8
0
 10
182.151474
 20
176.924286
 11
181.727203
 21
177.348557
  0
LINE
  8
0
 10
182.151352
 20
176.075668
 11
181.727081
 21
175.651398
  0
LINE
  8
0
 10
182.151443
 20
175.227188
 11
181.727173
 21
175.651459
  0
LINE
  8
0
 10
182.575623
 20
175.651413
 11
182.151337
 21
175.227142
  0
LINE
  8
0
 10
183.848526
 20
175.227234
 11
183.424255
 21
175.651505
  0
LINE
  8
0
 10
184.272690
 20
175.651459
 11
183.848419
 21
175.227188
  0
LINE
  8
0
 10
184.272781
 20
175.651459
 11
183.848511
 21
176.075729
  0
LINE
  8
0
 10
184.272797
 20
177.348541
 11
183.848511
 21
177.772812
  0
LINE
  8
0
 10
152.749664
 20
207.199966
 11
180.008514
 21
207.199966
  0
LINE
  8
0
 10
177.326538
 20
203.836655
 11
177.326538
 21
200.949905
  0
LINE
  8
0
 10
174.825531
 20
199.506210
 11
177.325531
 21
200.949585
  0
LINE
  8
0
 10
177.325638
 20
210.562744
 11
177.000290
 21
210.374908
  0
LINE
  8
0
 10
174.825592
 20
214.892944
 11
174.500244
 21
214.705109
  0
LINE
  8
0
 10
174.825958
 20
214.894409
 11
177.325958
 21
213.451050
  0
LINE
  8
0
 10
177.325439
 20
210.563217
 11
177.325439
 21
213.449966
  0
LINE
  8
0
 10
177.325287
 20
203.836639
 11
176.999954
 21
204.024475
  0
LINE
  8
0
 10
174.825287
 20
199.506592
 11
174.499939
 21
199.694427
  0
LINE
  8
0
 10
155.674530
 20
203.836746
 11
155.674530
 21
200.949997
  0
LINE
  8
0
 10
158.173996
 20
199.505539
 11
155.673996
 21
200.948914
  0
LINE
  8
0
 10
155.675003
 20
203.836121
 11
156.000336
 21
204.023956
  0
LINE
  8
0
 10
158.174927
 20
199.506012
 11
158.500259
 21
199.693848
  0
LINE
  8
0
 10
168.999939
 20
218.256607
 11
168.999939
 21
217.880936
  0
LINE
  8
0
 10
163.999939
 20
218.256607
 11
163.999939
 21
217.880936
  0
LINE
  8
0
 10
164.000092
 20
218.256592
 11
166.500076
 21
219.699966
  0
LINE
  8
0
 10
168.999817
 20
218.256393
 11
166.499786
 21
219.699783
  0
LINE
  8
0
 10
168.999939
 20
196.518997
 11
168.999939
 21
196.143356
  0
LINE
  8
0
 10
163.999939
 20
196.518967
 11
163.999939
 21
196.143326
  0
LINE
  8
0
 10
158.174805
 20
214.893188
 11
155.674805
 21
213.449799
  0
LINE
  8
0
 10
155.673340
 20
210.563278
 11
155.673340
 21
213.450027
  0
LINE
  8
0
 10
169.000122
 20
196.143066
 11
166.500092
 21
194.699677
  0
LINE
  8
0
 10
163.999985
 20
196.143326
 11
166.499954
 21
194.699982
  0
LINE
  8
0
 10
155.674561
 20
210.563248
 11
155.999908
 21
210.375412
  0
LINE
  8
0
 10
158.174576
 20
214.893311
 11
158.499908
 21
214.705475
  0
LINE
  8
0
 10
168.999985
 20
217.880936
 11
174.499954
 21
214.705521
  0
LINE
  8
0
 10
164.000092
 20
217.880707
 11
158.500061
 21
214.705246
  0
LINE
  8
0
 10
174.500198
 20
199.694153
 11
169.000168
 21
196.518707
  0
LINE
  8
0
 10
158.499924
 20
199.694519
 11
163.999985
 21
196.519058
  0
LINE
  8
0
 10
176.999939
 20
210.375412
 11
176.999939
 21
204.024521
  0
LINE
  8
0
 10
155.999939
 20
210.375412
 11
155.999939
 21
204.024582
  0
ARC
  8
0
 10
148.149963
 20
225.199966
 40
3.000000
 50
90.000000
 51
180.000000
  0
ARC
  8
0
 10
144.999969
 20
202.999954
 40
3.999990
 50
272.149017
 51
87.850990
  0
ARC
  8
0
 10
148.149963
 20
172.199966
 40
3.000000
 50
180.000000
 51
270.000000
  0
ARC
  8
0
 10
184.849976
 20
172.199966
 40
3.000000
 50
270.000000
 51
0.000000
  0
ARC
  8
0
 10
187.999969
 20
202.999954
 40
3.999990
 50
92.149010
 51
267.850983
  0
ARC
  8
0
 10
184.849976
 20
225.199966
 40
3.000000
 50
0.000000
 51
90.000000
  0
ARC
  8
0
 10
149.999969
 20
177.772751
 40
0.600009
 50
225.000000
 51
315.000000
  0
ARC
  8
0
 10
148.727173
 20
176.499954
 40
0.600009
 50
315.000000
 51
45.000000
  0
ARC
  8
0
 10
149.999969
 20
175.227158
 40
0.600009
 50
45.000000
 51
135.000000
  0
ARC
  8
0
 10
151.272766
 20
176.499954
 40
0.600009
 50
135.000000
 51
225.000000
  0
CIRCLE
  8
0
 10
149.999969
 20
176.499954
 40
2.799999
  0
ARC
  8
0
 10
149.999969
 20
221.772751
 40
0.600009
 50
225.000000
 51
315.000000
  0
ARC
  8
0
 10
148.727173
 20
220.499954
 40
0.600009
 50
315.000000
 51
45.000000
  0
ARC
  8
0
 10
149.999969
 20
219.227158
 40
0.600009
 50
45.000000
 51
135.000000
  0
ARC
  8
0
 10
151.272766
 20
220.499954
 40
0.600009
 50
135.000000
 51
225.000000
  0
CIRCLE
  8
0
 10
149.999969
 20
220.499954
 40
2.799999
  0
ARC
  8
0
 10
182.999969
 20
221.772751
 40
0.599998
 50
225.001038
 51
314.998962
  0
ARC
  8
0
 10
181.727173
 20
220.499954
 40
0.599998
 50
314.998962
 51
45.001030
  0
ARC
  8
0
 10
182.999969
 20
219.227158
 40
0.599998
 50
45.001030
 51
134.998962
  0
ARC
  8
0
 10
184.272766
 20
220.499954
 40
0.599998
 50
134.998962
 51
225.001038
  0
CIRCLE
  8
0
 10
182.999969
 20
220.499954
 40
2.799999
  0
ARC
  8
0
 10
182.999969
 20
177.772751
 40
0.599998
 50
225.001038
 51
314.998962
  0
ARC
  8
0
 10
181.727173
 20
176.499954
 40
0.599998
 50
314.998962
 51
45.001030
  0
ARC
  8
0
 10
182.999969
 20
175.227158
 40
0.599998
 50
45.001030
 51
134.998962
  0
ARC
  8
0
 10
184.272766
 20
176.499954
 40
0.599998
 50
134.998962
 51
225.001038
  0
CIRCLE
  8
0
 10
182.999969
 20
176.499954
 40
2.799999
  0
ARC
  8
0
 10
166.499969
 20
207.199966
 40
11.900002
 50
335.476929
 51
24.535656
  0
ARC
  8
0
 10
166.499969
 20
207.199966
 40
11.900010
 50
275.464355
 51
324.533905
  0
ARC
  8
0
 10
166.499969
 20
207.199966
 40
11.900001
 50
35.477108
 51
84.540527
  0
ARC
  8
0
 10
166.499969
 20
207.199966
 40
11.900008
 50
95.462723
 51
144.537857
  0
ARC
  8
0
 10
166.499969
 20
207.199966
 40
11.900002
 50
155.477829
 51
204.536057
  0
ARC
  8
0
 10
166.499969
 20
207.199966
 40
11.900003
 50
215.477646
 51
264.536682
  0
CIRCLE
  8
0
 10
166.499969
 20
207.199966
 40
5.000000
  0
CIRCLE
  8
0
 10
166.499969
 20
207.199966
 40
7.500000
  0
POINT
  8
0
 10
101.999969
 20
168.999954
  0
LINE
  8
0
 10
103.499969
 20
107.399948
 11
142.499969
 21
107.399948
  0
LINE
  8
0
 10
106.999969
 20
162.399948
 11
138.999969
 21
162.399948
  0
LINE
  8
0
 10
106.999969
 20
117.399948
 11
138.999969
 21
117.399948
  0
LINE
  8
0
 10
106.999969
 20
147.399948
 11
138.999969
 21
147.399948
  0
LINE
  8
0
 10
138.999969
 20
108.899948
 11
138.999969
 21
162.399948
  0
LINE
  8
0
 10
106.999969
 20
108.899948
 11
106.999969
 21
162.399948
  0
LINE
  8
0
 10
106.999969
 20
155.899948
 11
110.499969
 21
155.899948
  0
LINE
  8
0
 10
113.499969
 20
158.899948
 11
113.499969
 21
162.399948
  0
LINE
  8
0
 10
130.999969
 20
158.899948
 11
139.999969
 21
158.899948
  0
LINE
  8
0
 10
138.999969
 20
155.899948
 11
135.499969
 21
155.899948
  0
LINE
  8
0
 10
132.499969
 20
158.899948
 11
132.499969
 21
162.399948
  0
LINE
  8
0
 10
106.999969
 20
118.799942
 11
138.999969
 21
118.799942
  0
LINE
  8
0
 10
106.999969
 20
120.799942
 11
138.999969
 21
120.799942
  0
LINE
  8
0
 10
106.999969
 20
122.399948
 11
122.999969
 21
122.399948
  0
LINE
  8
0
 10
106.999969
 20
124.399948
 11
122.999969
 21
124.399948
  0
LINE
  8
0
 10
106.999969
 20
125.999954
 11
138.999969
 21
125.999954
  0
LINE
  8
0
 10
106.999969
 20
127.999954
 11
138.999969
 21
127.999954
  0
LINE
  8
0
 10
106.999969
 20
129.599930
 11
138.999969
 21
129.599930
  0
LINE
  8
0
 10
106.999969
 20
131.599930
 11
138.999969
 21
131.599930
  0
LINE
  8
0
 10
106.999969
 20
133.199936
 11
138.999969
 21
133.199936
  0
LINE
  8
0
 10
106.999969
 20
135.199936
 11
138.999969
 21
135.199936
  0
LINE
  8
0
 10
106.999969
 20
136.799942
 11
138.999969
 21
136.799942
  0
LINE
  8
0
 10
106.999969
 20
138.799942
 11
138.999969
 21
138.799942
  0
LINE
  8
0
 10
106.999969
 20
140.399948
 11
138.999969
 21
140.399948
  0
LINE
  8
0
 10
106.999969
 20
142.399948
 11
138.999969
 21
142.399948
  0
LINE
  8
0
 10
106.999969
 20
143.999924
 11
138.999969
 21
143.999924
  0
LINE
  8
0
 10
106.999969
 20
145.999924
 11
138.999969
 21
145.999924
  0
LINE
  8
0
 10
138.999969
 20
122.399948
 11
138.999969
 21
124.399948
  0
LINE
  8
0
 10
135.999969
 20
122.399948
 11
135.999969
 21
124.399948
  0
LINE
  8
0
 10
135.999969
 20
122.399948
 11
138.999969
 21
122.399948
  0
LINE
  8
0
 10
135.999969
 20
124.399948
 11
138.999969
 21
124.399948
  0
LINE
  8
0
 10
122.999969
 20
122.399948
 11
122.999969
 21
124.399948
  0
LINE
  8
0
 10
101.999969
 20
167.399948
 11
143.999969
 21
167.399948
  0
LINE
  8
0
 10
101.999969
 20
108.899948
 11
101.999969
 21
168.999954
  0
LINE
  8
0
 10
143.999969
 20
108.899948
 11
143.999969
 21
168.999954
  0
LINE
  8
0
 10
105.768173
 20
152.399567
 11
106.634201
 21
153.899567
  0
LINE
  8
0
 10
106.633942
 20
153.899948
 11
106.999969
 21
153.899948
  0
LINE
  8
0
 10
106.633942
 20
150.899948
 11
106.999969
 21
150.899948
  0
LINE
  8
0
 10
105.767990
 20
152.399857
 11
106.634003
 21
150.899872
  0
LINE
  8
0
 10
135.699982
 20
157.199936
 11
135.699982
 21
158.699936
  0
LINE
  8
0
 10
135.299988
 20
157.199936
 11
135.299988
 21
158.699936
  0
LINE
  8
0
 10
133.799988
 20
159.099930
 11
135.299988
 21
159.099930
  0
LINE
  8
0
 10
133.799988
 20
158.699936
 11
135.299988
 21
158.699936
  0
LINE
  8
0
 10
137.199982
 20
158.699936
 11
137.199982
 21
159.099930
  0
LINE
  8
0
 10
133.799988
 20
158.699936
 11
133.799988
 21
159.099930
  0
LINE
  8
0
 10
135.299988
 20
157.199936
 11
135.699982
 21
157.199936
  0
LINE
  8
0
 10
135.299988
 20
160.599930
 11
135.699982
 21
160.599930
  0
LINE
  8
0
 10
135.699982
 20
159.099930
 11
137.199982
 21
159.099930
  0
LINE
  8
0
 10
135.699982
 20
158.699936
 11
137.199982
 21
158.699936
  0
LINE
  8
0
 10
135.299988
 20
159.099930
 11
135.299988
 21
160.599930
  0
LINE
  8
0
 10
135.699982
 20
159.099930
 11
135.699982
 21
160.599930
  0
LINE
  8
0
 10
110.699982
 20
159.099930
 11
110.699982
 21
160.599930
  0
LINE
  8
0
 10
110.299988
 20
159.099930
 11
110.299988
 21
160.599930
  0
LINE
  8
0
 10
110.699982
 20
157.199936
 11
110.699982
 21
158.699936
  0
LINE
  8
0
 10
110.299988
 20
157.199936
 11
110.299988
 21
158.699936
  0
LINE
  8
0
 10
108.799988
 20
159.099930
 11
110.299988
 21
159.099930
  0
LINE
  8
0
 10
108.799988
 20
158.699936
 11
110.299988
 21
158.699936
  0
LINE
  8
0
 10
112.199982
 20
158.699936
 11
112.199982
 21
159.099930
  0
LINE
  8
0
 10
108.799988
 20
158.699936
 11
108.799988
 21
159.099930
  0
LINE
  8
0
 10
110.299988
 20
157.199936
 11
110.699982
 21
157.199936
  0
LINE
  8
0
 10
110.299988
 20
160.599930
 11
110.699982
 21
160.599930
  0
LINE
  8
0
 10
110.699982
 20
159.099930
 11
112.199982
 21
159.099930
  0
LINE
  8
0
 10
110.699982
 20
158.699936
 11
112.199982
 21
158.699936
  0
LINE
  8
0
 10
138.999969
 20
123.899948
 11
139.365997
 21
123.899948
  0
LINE
  8
0
 10
140.232361
 20
125.399719
 11
139.366348
 21
123.899742
  0
LINE
  8
0
 10
139.365875
 20
126.899963
 11
140.231903
 21
125.399963
  0
LINE
  8
0
 10
118.999969
 20
151.499954
 11
126.999969
 21
151.499954
  0
LINE
  8
0
 10
102.565735
 20
152.399582
 11
106.999969
 21
152.399582
  0
LINE
  8
0
 10
138.499969
 20
125.399979
 11
143.304810
 21
125.399979
  0
LINE
  8
0
 10
135.500000
 20
155.234848
 11
135.500000
 21
162.671463
  0
LINE
  8
0
 10
110.499939
 20
155.234848
 11
110.499939
 21
162.671463
  0
LINE
  8
0
 10
114.999969
 20
158.899948
 11
105.999969
 21
158.899948
  0
ARC
  8
0
 10
137.499969
 20
108.899948
 40
1.500000
 50
270.000000
 51
0.000000
  0
ARC
  8
0
 10
108.499969
 20
108.899948
 40
1.500000
 50
180.000000
 51
270.000000
  0
CIRCLE
  8
0
 10
110.499969
 20
158.899948
 40
2.500000
  0
ARC
  8
0
 10
110.499969
 20
158.899948
 40
3.000000
 50
270.000000
 51
0.000000
  0
CIRCLE
  8
0
 10
122.999969
 20
151.499954
 40
2.150000
  0
CIRCLE
  8
0
 10
122.999969
 20
151.499954
 40
1.500000
  0
CIRCLE
  8
0
 10
135.499969
 20
158.899948
 40
2.500000
  0
ARC
  8
0
 10
135.499969
 20
158.899948
 40
3.000000
 50
180.000000
 51
270.000000
  0
ARC
  8
0
 10
142.499969
 20
108.899948
 40
1.500000
 50
270.000000
 51
0.000000
  0
ARC
  8
0
 10
103.499969
 20
108.899948
 40
1.500000
 50
180.000000
 51
270.000000
  0
ARC
  8
0
 10
107.499969
 20
152.399948
 40
3.499995
 50
98.213226
 51
261.786774
  0
ARC
  8
0
 10
138.499969
 20
125.399948
 40
3.500000
 50
270.000000
 51
90.000000
  0
ARC
  8
0
 10
107.499969
 20
152.399948
 40
4.000001
 50
97.180756
 51
262.819244
  0
ARC
  8
0
 10
138.499969
 20
125.399948
 40
4.000000
 50
270.000000
 51
0.000000
  0
ARC
  8
0
 10
138.499969
 20
125.399948
 40
4.000000
 50
0.000000
 51
90.000000
  0
TEXT
  8
0
 10
126.725060
 20
123.319946
 40
1.200000
  1
AC200V
 50
0.000000
 41
0.844285
 51
0.000000
  7
STANDARD
  0
POINT
  8
0
 10
15.999973
 20
168.999954
  0
LINE
  8
0
 10
17.499973
 20
107.399948
 11
56.499973
 21
107.399948
  0
LINE
  8
0
 10
20.999973
 20
162.399948
 11
52.999973
 21
162.399948
  0
LINE
  8
0
 10
20.999973
 20
117.399948
 11
52.999973
 21
117.399948
  0
LINE
  8
0
 10
20.999973
 20
147.399948
 11
52.999973
 21
147.399948
  0
LINE
  8
0
 10
52.999973
 20
108.899948
 11
52.999973
 21
162.399948
  0
LINE
  8
0
 10
20.999973
 20
108.899948
 11
20.999973
 21
162.399948
  0
LINE
  8
0
 10
20.999973
 20
155.899948
 11
24.499973
 21
155.899948
  0
LINE
  8
0
 10
27.499973
 20
158.899948
 11
27.499973
 21
162.399948
  0
LINE
  8
0
 10
44.999973
 20
158.899948
 11
53.999973
 21
158.899948
  0
LINE
  8
0
 10
52.999973
 20
155.899948
 11
49.499973
 21
155.899948
  0
LINE
  8
0
 10
46.499973
 20
158.899948
 11
46.499973
 21
162.399948
  0
LINE
  8
0
 10
20.999973
 20
118.799942
 11
52.999973
 21
118.799942
  0
LINE
  8
0
 10
20.999973
 20
120.799942
 11
52.999973
 21
120.799942
  0
LINE
  8
0
 10
20.999973
 20
122.399948
 11
36.999973
 21
122.399948
  0
LINE
  8
0
 10
20.999973
 20
124.399948
 11
36.999973
 21
124.399948
  0
LINE
  8
0
 10
20.999973
 20
125.999954
 11
52.999973
 21
125.999954
  0
LINE
  8
0
 10
20.999973
 20
127.999954
 11
52.999973
 21
127.999954
  0
LINE
  8
0
 10
20.999973
 20
129.599930
 11
52.999973
 21
129.599930
  0
LINE
  8
0
 10
20.999973
 20
131.599930
 11
52.999973
 21
131.599930
  0
LINE
  8
0
 10
20.999973
 20
133.199936
 11
52.999973
 21
133.199936
  0
LINE
  8
0
 10
20.999973
 20
135.199936
 11
52.999973
 21
135.199936
  0
LINE
  8
0
 10
20.999973
 20
136.799942
 11
52.999973
 21
136.799942
  0
LINE
  8
0
 10
20.999973
 20
138.799942
 11
52.999973
 21
138.799942
  0
LINE
  8
0
 10
20.999973
 20
140.399948
 11
52.999973
 21
140.399948
  0
LINE
  8
0
 10
20.999973
 20
142.399948
 11
52.999973
 21
142.399948
  0
LINE
  8
0
 10
20.999973
 20
143.999924
 11
52.999973
 21
143.999924
  0
LINE
  8
0
 10
20.999973
 20
145.999924
 11
52.999973
 21
145.999924
  0
LINE
  8
0
 10
52.999973
 20
122.399948
 11
52.999973
 21
124.399948
  0
LINE
  8
0
 10
49.999973
 20
122.399948
 11
49.999973
 21
124.399948
  0
LINE
  8
0
 10
49.999973
 20
122.399948
 11
52.999973
 21
122.399948
  0
LINE
  8
0
 10
49.999973
 20
124.399948
 11
52.999973
 21
124.399948
  0
LINE
  8
0
 10
36.999973
 20
122.399948
 11
36.999973
 21
124.399948
  0
LINE
  8
0
 10
15.999973
 20
167.399948
 11
57.999973
 21
167.399948
  0
LINE
  8
0
 10
15.999973
 20
108.899948
 11
15.999973
 21
168.999954
  0
LINE
  8
0
 10
57.999973
 20
108.899948
 11
57.999973
 21
168.999954
  0
LINE
  8
0
 10
19.768169
 20
152.399567
 11
20.634201
 21
153.899567
  0
LINE
  8
0
 10
20.633945
 20
153.899948
 11
20.999973
 21
153.899948
  0
LINE
  8
0
 10
20.633945
 20
150.899948
 11
20.999973
 21
150.899948
  0
LINE
  8
0
 10
19.767998
 20
152.399857
 11
20.634007
 21
150.899872
  0
LINE
  8
0
 10
49.699986
 20
157.199936
 11
49.699986
 21
158.699936
  0
LINE
  8
0
 10
49.299992
 20
157.199936
 11
49.299992
 21
158.699936
  0
LINE
  8
0
 10
47.799992
 20
159.099930
 11
49.299992
 21
159.099930
  0
LINE
  8
0
 10
47.799992
 20
158.699936
 11
49.299992
 21
158.699936
  0
LINE
  8
0
 10
51.199986
 20
158.699936
 11
51.199986
 21
159.099930
  0
LINE
  8
0
 10
47.799992
 20
158.699936
 11
47.799992
 21
159.099930
  0
LINE
  8
0
 10
49.299992
 20
157.199936
 11
49.699986
 21
157.199936
  0
LINE
  8
0
 10
49.299992
 20
160.599930
 11
49.699986
 21
160.599930
  0
LINE
  8
0
 10
49.699986
 20
159.099930
 11
51.199986
 21
159.099930
  0
LINE
  8
0
 10
49.699986
 20
158.699936
 11
51.199986
 21
158.699936
  0
LINE
  8
0
 10
49.299992
 20
159.099930
 11
49.299992
 21
160.599930
  0
LINE
  8
0
 10
49.699986
 20
159.099930
 11
49.699986
 21
160.599930
  0
LINE
  8
0
 10
24.699986
 20
159.099930
 11
24.699986
 21
160.599930
  0
LINE
  8
0
 10
24.299992
 20
159.099930
 11
24.299992
 21
160.599930
  0
LINE
  8
0
 10
24.699986
 20
157.199936
 11
24.699986
 21
158.699936
  0
LINE
  8
0
 10
24.299992
 20
157.199936
 11
24.299992
 21
158.699936
  0
LINE
  8
0
 10
22.799992
 20
159.099930
 11
24.299992
 21
159.099930
  0
LINE
  8
0
 10
22.799992
 20
158.699936
 11
24.299992
 21
158.699936
  0
LINE
  8
0
 10
26.199986
 20
158.699936
 11
26.199986
 21
159.099930
  0
LINE
  8
0
 10
22.799992
 20
158.699936
 11
22.799992
 21
159.099930
  0
LINE
  8
0
 10
24.299992
 20
157.199936
 11
24.699986
 21
157.199936
  0
LINE
  8
0
 10
24.299992
 20
160.599930
 11
24.699986
 21
160.599930
  0
LINE
  8
0
 10
24.699986
 20
159.099930
 11
26.199986
 21
159.099930
  0
LINE
  8
0
 10
24.699986
 20
158.699936
 11
26.199986
 21
158.699936
  0
LINE
  8
0
 10
52.999973
 20
123.899948
 11
53.366001
 21
123.899948
  0
LINE
  8
0
 10
54.232365
 20
125.399719
 11
53.366352
 21
123.899742
  0
LINE
  8
0
 10
53.365879
 20
126.899963
 11
54.231907
 21
125.399963
  0
LINE
  8
0
 10
32.999973
 20
151.499954
 11
40.999973
 21
151.499954
  0
LINE
  8
0
 10
16.565739
 20
152.399582
 11
20.999973
 21
152.399582
  0
LINE
  8
0
 10
52.499973
 20
125.399979
 11
57.304813
 21
125.399979
  0
LINE
  8
0
 10
49.500004
 20
155.234848
 11
49.500004
 21
162.671463
  0
LINE
  8
0
 10
24.499943
 20
155.234848
 11
24.499943
 21
162.671463
  0
LINE
  8
0
 10
28.999973
 20
158.899948
 11
19.999973
 21
158.899948
  0
ARC
  8
0
 10
51.499973
 20
108.899948
 40
1.500000
 50
270.000000
 51
0.000000
  0
ARC
  8
0
 10
22.499973
 20
108.899948
 40
1.500000
 50
180.000000
 51
270.000000
  0
CIRCLE
  8
0
 10
24.499973
 20
158.899948
 40
2.500000
  0
ARC
  8
0
 10
24.499973
 20
158.899948
 40
3.000000
 50
270.000000
 51
0.000000
  0
CIRCLE
  8
0
 10
36.999973
 20
151.499954
 40
2.150000
  0
CIRCLE
  8
0
 10
36.999973
 20
151.499954
 40
1.500000
  0
CIRCLE
  8
0
 10
49.499973
 20
158.899948
 40
2.500000
  0
ARC
  8
0
 10
49.499973
 20
158.899948
 40
3.000000
 50
180.000000
 51
270.000000
  0
ARC
  8
0
 10
56.499973
 20
108.899948
 40
1.500000
 50
270.000000
 51
0.000000
  0
ARC
  8
0
 10
17.499973
 20
108.899948
 40
1.500000
 50
180.000000
 51
270.000000
  0
ARC
  8
0
 10
21.499973
 20
152.399948
 40
3.499995
 50
98.213287
 51
261.786774
  0
ARC
  8
0
 10
52.499973
 20
125.399948
 40
3.500000
 50
270.000000
 51
90.000000
  0
ARC
  8
0
 10
21.499973
 20
152.399948
 40
4.000001
 50
97.180809
 51
262.819244
  0
ARC
  8
0
 10
52.499973
 20
125.399948
 40
4.000000
 50
270.000000
 51
0.000000
  0
ARC
  8
0
 10
52.499973
 20
125.399948
 40
4.000000
 50
0.000000
 51
90.000000
  0
TEXT
  8
0
 10
40.725063
 20
123.319946
 40
1.200000
  1
AC200V
 50
0.000000
 41
0.844285
 51
0.000000
  7
STANDARD
  0
POINT
  8
0
 10
58.999973
 20
168.999954
  0
LINE
  8
0
 10
60.499973
 20
107.399948
 11
99.499969
 21
107.399948
  0
LINE
  8
0
 10
63.999973
 20
162.399948
 11
95.999969
 21
162.399948
  0
LINE
  8
0
 10
63.999973
 20
117.399948
 11
95.999969
 21
117.399948
  0
LINE
  8
0
 10
63.999973
 20
147.399948
 11
95.999969
 21
147.399948
  0
LINE
  8
0
 10
95.999969
 20
108.899948
 11
95.999969
 21
162.399948
  0
LINE
  8
0
 10
63.999973
 20
108.899948
 11
63.999973
 21
162.399948
  0
LINE
  8
0
 10
63.999973
 20
155.899948
 11
67.499969
 21
155.899948
  0
LINE
  8
0
 10
70.499969
 20
158.899948
 11
70.499969
 21
162.399948
  0
LINE
  8
0
 10
87.999969
 20
158.899948
 11
96.999969
 21
158.899948
  0
LINE
  8
0
 10
95.999969
 20
155.899948
 11
92.499969
 21
155.899948
  0
LINE
  8
0
 10
89.499969
 20
158.899948
 11
89.499969
 21
162.399948
  0
LINE
  8
0
 10
63.999973
 20
118.799942
 11
95.999969
 21
118.799942
  0
LINE
  8
0
 10
63.999973
 20
120.799942
 11
95.999969
 21
120.799942
  0
LINE
  8
0
 10
63.999973
 20
122.399948
 11
79.999969
 21
122.399948
  0
LINE
  8
0
 10
63.999973
 20
124.399948
 11
79.999969
 21
124.399948
  0
LINE
  8
0
 10
63.999973
 20
125.999954
 11
95.999969
 21
125.999954
  0
LINE
  8
0
 10
63.999973
 20
127.999954
 11
95.999969
 21
127.999954
  0
LINE
  8
0
 10
63.999973
 20
129.599930
 11
95.999969
 21
129.599930
  0
LINE
  8
0
 10
63.999973
 20
131.599930
 11
95.999969
 21
131.599930
  0
LINE
  8
0
 10
63.999973
 20
133.199936
 11
95.999969
 21
133.199936
  0
LINE
  8
0
 10
63.999973
 20
135.199936
 11
95.999969
 21
135.199936
  0
LINE
  8
0
 10
63.999973
 20
136.799942
 11
95.999969
 21
136.799942
  0
LINE
  8
0
 10
63.999973
 20
138.799942
 11
95.999969
 21
138.799942
  0
LINE
  8
0
 10
63.999973
 20
140.399948
 11
95.999969
 21
140.399948
  0
LINE
  8
0
 10
63.999973
 20
142.399948
 11
95.999969
 21
142.399948
  0
LINE
  8
0
 10
63.999973
 20
143.999924
 11
95.999969
 21
143.999924
  0
LINE
  8
0
 10
63.999973
 20
145.999924
 11
95.999969
 21
145.999924
  0
LINE
  8
0
 10
95.999969
 20
122.399948
 11
95.999969
 21
124.399948
  0
LINE
  8
0
 10
92.999969
 20
122.399948
 11
92.999969
 21
124.399948
  0
LINE
  8
0
 10
92.999969
 20
122.399948
 11
95.999969
 21
122.399948
  0
LINE
  8
0
 10
92.999969
 20
124.399948
 11
95.999969
 21
124.399948
  0
LINE
  8
0
 10
79.999969
 20
122.399948
 11
79.999969
 21
124.399948
  0
LINE
  8
0
 10
58.999973
 20
167.399948
 11
100.999969
 21
167.399948
  0
LINE
  8
0
 10
58.999973
 20
108.899948
 11
58.999973
 21
168.999954
  0
LINE
  8
0
 10
100.999969
 20
108.899948
 11
100.999969
 21
168.999954
  0
LINE
  8
0
 10
62.768169
 20
152.399567
 11
63.634197
 21
153.899567
  0
LINE
  8
0
 10
63.633945
 20
153.899948
 11
63.999973
 21
153.899948
  0
LINE
  8
0
 10
63.633945
 20
150.899948
 11
63.999973
 21
150.899948
  0
LINE
  8
0
 10
62.767994
 20
152.399857
 11
63.634007
 21
150.899872
  0
LINE
  8
0
 10
92.699982
 20
157.199936
 11
92.699982
 21
158.699936
  0
LINE
  8
0
 10
92.299988
 20
157.199936
 11
92.299988
 21
158.699936
  0
LINE
  8
0
 10
90.799988
 20
159.099930
 11
92.299988
 21
159.099930
  0
LINE
  8
0
 10
90.799988
 20
158.699936
 11
92.299988
 21
158.699936
  0
LINE
  8
0
 10
94.199982
 20
158.699936
 11
94.199982
 21
159.099930
  0
LINE
  8
0
 10
90.799988
 20
158.699936
 11
90.799988
 21
159.099930
  0
LINE
  8
0
 10
92.299988
 20
157.199936
 11
92.699982
 21
157.199936
  0
LINE
  8
0
 10
92.299988
 20
160.599930
 11
92.699982
 21
160.599930
  0
LINE
  8
0
 10
92.699982
 20
159.099930
 11
94.199982
 21
159.099930
  0
LINE
  8
0
 10
92.699982
 20
158.699936
 11
94.199982
 21
158.699936
  0
LINE
  8
0
 10
92.299988
 20
159.099930
 11
92.299988
 21
160.599930
  0
LINE
  8
0
 10
92.699982
 20
159.099930
 11
92.699982
 21
160.599930
  0
LINE
  8
0
 10
67.699982
 20
159.099930
 11
67.699982
 21
160.599930
  0
LINE
  8
0
 10
67.299988
 20
159.099930
 11
67.299988
 21
160.599930
  0
LINE
  8
0
 10
67.699982
 20
157.199936
 11
67.699982
 21
158.699936
  0
LINE
  8
0
 10
67.299988
 20
157.199936
 11
67.299988
 21
158.699936
  0
LINE
  8
0
 10
65.799988
 20
159.099930
 11
67.299988
 21
159.099930
  0
LINE
  8
0
 10
65.799988
 20
158.699936
 11
67.299988
 21
158.699936
  0
LINE
  8
0
 10
69.199982
 20
158.699936
 11
69.199982
 21
159.099930
  0
LINE
  8
0
 10
65.799988
 20
158.699936
 11
65.799988
 21
159.099930
  0
LINE
  8
0
 10
67.299988
 20
157.199936
 11
67.699982
 21
157.199936
  0
LINE
  8
0
 10
67.299988
 20
160.599930
 11
67.699982
 21
160.599930
  0
LINE
  8
0
 10
67.699982
 20
159.099930
 11
69.199982
 21
159.099930
  0
LINE
  8
0
 10
67.699982
 20
158.699936
 11
69.199982
 21
158.699936
  0
LINE
  8
0
 10
95.999969
 20
123.899948
 11
96.365997
 21
123.899948
  0
LINE
  8
0
 10
97.232361
 20
125.399719
 11
96.366348
 21
123.899742
  0
LINE
  8
0
 10
96.365875
 20
126.899963
 11
97.231903
 21
125.399963
  0
LINE
  8
0
 10
75.999969
 20
151.499954
 11
83.999969
 21
151.499954
  0
LINE
  8
0
 10
59.565739
 20
152.399582
 11
63.999973
 21
152.399582
  0
LINE
  8
0
 10
95.499969
 20
125.399979
 11
100.304810
 21
125.399979
  0
LINE
  8
0
 10
92.500000
 20
155.234848
 11
92.500000
 21
162.671463
  0
LINE
  8
0
 10
67.499939
 20
155.234848
 11
67.499939
 21
162.671463
  0
LINE
  8
0
 10
71.999969
 20
158.899948
 11
62.999973
 21
158.899948
  0
ARC
  8
0
 10
94.499969
 20
108.899948
 40
1.500000
 50
270.000000
 51
0.000000
  0
ARC
  8
0
 10
65.499969
 20
108.899948
 40
1.499996
 50
180.000000
 51
270.000000
  0
CIRCLE
  8
0
 10
67.499969
 20
158.899948
 40
2.500000
  0
ARC
  8
0
 10
67.499969
 20
158.899948
 40
3.000000
 50
270.000000
 51
0.000000
  0
CIRCLE
  8
0
 10
79.999969
 20
151.499954
 40
2.150000
  0
CIRCLE
  8
0
 10
79.999969
 20
151.499954
 40
1.500000
  0
CIRCLE
  8
0
 10
92.499969
 20
158.899948
 40
2.500000
  0
ARC
  8
0
 10
92.499969
 20
158.899948
 40
3.000000
 50
180.000000
 51
270.000000
  0
ARC
  8
0
 10
99.499969
 20
108.899948
 40
1.500000
 50
270.000000
 51
0.000000
  0
ARC
  8
0
 10
60.499973
 20
108.899948
 40
1.500000
 50
180.000000
 51
270.000000
  0
ARC
  8
0
 10
64.499969
 20
152.399948
 40
3.499994
 50
98.213165
 51
261.786835
  0
ARC
  8
0
 10
95.499969
 20
125.399948
 40
3.500000
 50
270.000000
 51
90.000000
  0
ARC
  8
0
 10
64.499969
 20
152.399948
 40
4.000001
 50
97.180809
 51
262.819305
  0
ARC
  8
0
 10
95.499969
 20
125.399948
 40
4.000000
 50
270.000000
 51
0.000000
  0
ARC
  8
0
 10
95.499969
 20
125.399948
 40
4.000000
 50
0.000000
 51
90.000000
  0
TEXT
  8
0
 10
83.725060
 20
123.319946
 40
1.200000
  1
AC200V
 50
0.000000
 41
0.844285
 51
0.000000
  7
STANDARD
  0
POINT
  8
0
 10
-249.999939
 20
-69.999992
  0
POINT
  8
0
 10
-117.399933
 20
-69.999992
  0
POINT
  8
0
 10
-249.999939
 20
-69.999992
  0
LINE
  8
0
 10
-178.999939
 20
38.000008
 11
-178.999939
 21
-75.999992
  0
LINE
  8
0
 10
-237.999939
 20
86.000008
 11
-237.999939
 21
44.000008
  0
LINE
  8
0
 10
-179.199951
 20
86.000008
 11
-179.199951
 21
39.536285
  0
LINE
  8
0
 10
-182.199951
 20
89.000008
 11
-191.199951
 21
89.000008
  0
LINE
  8
0
 10
-191.199951
 20
89.000008
 11
-191.199951
 21
47.000008
  0
LINE
  8
0
 10
-193.199951
 20
89.000008
 11
-193.199951
 21
47.000008
  0
LINE
  8
0
 10
-196.199951
 20
89.000008
 11
-196.199951
 21
47.000008
  0
LINE
  8
0
 10
-198.199951
 20
89.000008
 11
-198.199951
 21
47.000008
  0
LINE
  8
0
 10
-201.199951
 20
89.000008
 11
-201.199951
 21
47.000008
  0
LINE
  8
0
 10
-203.199951
 20
89.000008
 11
-203.199951
 21
47.000008
  0
LINE
  8
0
 10
-191.199951
 20
47.000008
 11
-193.199951
 21
47.000008
  0
LINE
  8
0
 10
-201.199951
 20
47.000008
 11
-203.199951
 21
47.000008
  0
LINE
  8
0
 10
-196.199951
 20
47.000008
 11
-198.199951
 21
47.000008
  0
LINE
  8
0
 10
-191.199951
 20
88.600014
 11
-193.199951
 21
88.600014
  0
LINE
  8
0
 10
-193.199951
 20
89.000008
 11
-196.199951
 21
89.000008
  0
LINE
  8
0
 10
-196.199951
 20
88.600014
 11
-198.199951
 21
88.600014
  0
LINE
  8
0
 10
-201.199951
 20
88.600014
 11
-203.199951
 21
88.600014
  0
LINE
  8
0
 10
-217.199951
 20
87.000008
 11
-217.199951
 21
44.000008
  0
LINE
  8
0
 10
-209.199951
 20
87.000008
 11
-209.199951
 21
44.000008
  0
LINE
  8
0
 10
-203.199951
 20
89.000008
 11
-234.999939
 21
89.000008
  0
LINE
  8
0
 10
-198.199951
 20
89.000008
 11
-201.199951
 21
89.000008
  0
LINE
  8
0
 10
-117.399933
 20
54.000008
 11
-117.399933
 21
-91.999992
  0
LINE
  8
0
 10
-172.399933
 20
54.000008
 11
-172.399933
 21
31.500008
  0
LINE
  8
0
 10
-117.399933
 20
1.500008
 11
-145.399933
 21
1.500008
  0
LINE
  8
0
 10
-117.399933
 20
-6.499992
 11
-145.399933
 21
-6.499992
  0
LINE
  8
0
 10
-145.399933
 20
1.500008
 11
-145.399933
 21
-6.499992
  0
LINE
  8
0
 10
-117.399933
 20
31.500008
 11
-177.399933
 21
31.500008
  0
LINE
  8
0
 10
-117.399933
 20
-69.499992
 11
-177.399933
 21
-69.499992
  0
LINE
  8
0
 10
-127.399933
 20
21.500008
 11
-127.399933
 21
-59.499992
  0
LINE
  8
0
 10
-161.499939
 20
-91.287148
 11
-161.499939
 21
-97.112862
  0
LINE
  8
0
 10
-165.899933
 20
-89.499992
 11
-172.399933
 21
-89.499992
  0
LINE
  8
0
 10
-167.899933
 20
-92.499992
 11
-169.899933
 21
-92.499992
  0
LINE
  8
0
 10
-165.899933
 20
-89.499992
 11
-165.899933
 21
-93.499992
  0
LINE
  8
0
 10
-171.399933
 20
-89.499992
 11
-171.399933
 21
-90.999992
  0
LINE
  8
0
 10
-166.399933
 20
-89.499992
 11
-166.399933
 21
-90.999992
  0
LINE
  8
0
 10
-166.399933
 20
-90.499992
 11
-171.399933
 21
-90.499992
  0
LINE
  8
0
 10
-163.649933
 20
-93.499992
 11
-163.649933
 21
-94.200005
  0
LINE
  8
0
 10
-159.349945
 20
-93.499992
 11
-159.349945
 21
-94.200005
  0
LINE
  8
0
 10
-159.349945
 20
-94.200005
 11
-163.649933
 21
-94.200005
  0
LINE
  8
0
 10
-168.899933
 20
50.420143
 11
-168.899933
 21
56.245857
  0
LINE
  8
0
 10
-165.899933
 20
51.500008
 11
-172.399933
 21
51.500008
  0
LINE
  8
0
 10
-167.899933
 20
54.500008
 11
-169.899933
 21
54.500008
  0
LINE
  8
0
 10
-165.899933
 20
51.500008
 11
-165.899933
 21
55.500008
  0
LINE
  8
0
 10
-171.399933
 20
51.500008
 11
-171.399933
 21
53.000008
  0
LINE
  8
0
 10
-166.399933
 20
51.500008
 11
-166.399933
 21
53.000008
  0
LINE
  8
0
 10
-166.399933
 20
52.500008
 11
-171.399933
 21
52.500008
  0
LINE
  8
0
 10
-118.899933
 20
-93.499992
 11
-170.899933
 21
-93.499992
  0
LINE
  8
0
 10
-128.799927
 20
-93.499992
 11
-128.799927
 21
-69.499992
  0
LINE
  8
0
 10
-130.799927
 20
-93.499992
 11
-130.799927
 21
-69.499992
  0
LINE
  8
0
 10
-132.399933
 20
-93.499992
 11
-132.399933
 21
-69.499992
  0
LINE
  8
0
 10
-134.399933
 20
-93.499992
 11
-134.399933
 21
-69.499992
  0
LINE
  8
0
 10
-135.999939
 20
-93.499992
 11
-135.999939
 21
-69.499992
  0
LINE
  8
0
 10
-137.999939
 20
-93.499992
 11
-137.999939
 21
-69.499992
  0
LINE
  8
0
 10
-139.599945
 20
-93.499992
 11
-139.599945
 21
-69.499992
  0
LINE
  8
0
 10
-141.599945
 20
-93.499992
 11
-141.599945
 21
-69.499992
  0
LINE
  8
0
 10
-143.199921
 20
-93.499992
 11
-143.199921
 21
-69.499992
  0
LINE
  8
0
 10
-145.199921
 20
-93.499992
 11
-145.199921
 21
-69.499992
  0
LINE
  8
0
 10
-146.799927
 20
-93.499992
 11
-146.799927
 21
-69.499992
  0
LINE
  8
0
 10
-148.799927
 20
-93.499992
 11
-148.799927
 21
-69.499992
  0
LINE
  8
0
 10
-150.399933
 20
-93.499992
 11
-150.399933
 21
-69.499992
  0
LINE
  8
0
 10
-152.399933
 20
-93.499992
 11
-152.399933
 21
-69.499992
  0
LINE
  8
0
 10
-153.999939
 20
-93.499992
 11
-153.999939
 21
-69.499992
  0
LINE
  8
0
 10
-155.999939
 20
-93.499992
 11
-155.999939
 21
-69.499992
  0
LINE
  8
0
 10
-127.399933
 20
-93.499992
 11
-127.399933
 21
-69.499992
  0
LINE
  8
0
 10
-157.399933
 20
-93.499992
 11
-157.399933
 21
-69.499992
  0
LINE
  8
0
 10
-118.899933
 20
55.500008
 11
-170.899933
 21
55.500008
  0
LINE
  8
0
 10
-128.799927
 20
55.500008
 11
-128.799927
 21
31.500008
  0
LINE
  8
0
 10
-130.799927
 20
55.500008
 11
-130.799927
 21
31.500008
  0
LINE
  8
0
 10
-132.399933
 20
55.500008
 11
-132.399933
 21
31.500008
  0
LINE
  8
0
 10
-134.399933
 20
55.500008
 11
-134.399933
 21
31.500008
  0
LINE
  8
0
 10
-135.999939
 20
55.500008
 11
-135.999939
 21
31.500008
  0
LINE
  8
0
 10
-137.999939
 20
55.500008
 11
-137.999939
 21
31.500008
  0
LINE
  8
0
 10
-139.599945
 20
55.500008
 11
-139.599945
 21
31.500008
  0
LINE
  8
0
 10
-141.599945
 20
55.500008
 11
-141.599945
 21
31.500008
  0
LINE
  8
0
 10
-143.199921
 20
55.500008
 11
-143.199921
 21
31.500008
  0
LINE
  8
0
 10
-145.199921
 20
55.500008
 11
-145.199921
 21
31.500008
  0
LINE
  8
0
 10
-146.799927
 20
55.500008
 11
-146.799927
 21
31.500008
  0
LINE
  8
0
 10
-148.799927
 20
55.500008
 11
-148.799927
 21
31.500008
  0
LINE
  8
0
 10
-150.399933
 20
55.500008
 11
-150.399933
 21
31.500008
  0
LINE
  8
0
 10
-152.399933
 20
55.500008
 11
-152.399933
 21
31.500008
  0
LINE
  8
0
 10
-153.999939
 20
55.500008
 11
-153.999939
 21
31.500008
  0
LINE
  8
0
 10
-155.999939
 20
55.500008
 11
-155.999939
 21
31.500008
  0
LINE
  8
0
 10
-127.399933
 20
55.500008
 11
-127.399933
 21
31.500008
  0
LINE
  8
0
 10
-157.399933
 20
55.500008
 11
-157.399933
 21
31.500008
  0
LINE
  8
0
 10
-117.399933
 20
-39.499992
 11
-145.399933
 21
-39.499992
  0
LINE
  8
0
 10
-117.399933
 20
-31.499992
 11
-145.399933
 21
-31.499992
  0
LINE
  8
0
 10
-145.399933
 20
-39.499992
 11
-145.399933
 21
-31.499992
  0
LINE
  8
0
 10
-141.399933
 20
-38.999992
 11
-141.399933
 21
-31.999992
  0
LINE
  8
0
 10
-140.637390
 20
-35.499992
 11
-147.005157
 21
-35.499992
  0
LINE
  8
0
 10
-141.399933
 20
-31.999992
 11
-145.399933
 21
-31.999992
  0
LINE
  8
0
 10
-141.399933
 20
-38.999992
 11
-145.399933
 21
-38.999992
  0
LINE
  8
0
 10
-117.399933
 20
21.500008
 11
-177.399933
 21
21.500008
  0
LINE
  8
0
 10
-117.399933
 20
-59.499992
 11
-177.399933
 21
-59.499992
  0
LINE
  8
0
 10
-177.399933
 20
31.500008
 11
-177.399933
 21
-69.499992
  0
LINE
  8
0
 10
-172.399933
 20
-69.499992
 11
-172.399933
 21
-91.999992
  0
LINE
  8
0
 10
-249.999939
 20
-60.999992
 11
-249.999939
 21
-78.999992
  0
LINE
  8
0
 10
-181.999939
 20
-78.999992
 11
-249.999939
 21
-78.999992
  0
LINE
  8
0
 10
-249.999939
 20
44.000008
 11
-249.999939
 21
26.000008
  0
LINE
  8
0
 10
-237.999939
 20
43.000008
 11
-237.999939
 21
27.000008
  0
LINE
  8
0
 10
-237.999939
 20
-61.999992
 11
-237.999939
 21
-77.999992
  0
LINE
  8
0
 10
-238.999939
 20
-74.499992
 11
-249.999939
 21
-74.499992
  0
LINE
  8
0
 10
-238.999939
 20
-65.499992
 11
-249.999939
 21
-65.499992
  0
LINE
  8
0
 10
-238.999939
 20
-60.999992
 11
-249.999939
 21
-60.999992
  0
LINE
  8
0
 10
-233.609955
 20
-69.999992
 11
-253.152039
 21
-69.999992
  0
LINE
  8
0
 10
-238.999939
 20
39.500008
 11
-249.999939
 21
39.500008
  0
LINE
  8
0
 10
-232.514160
 20
35.000008
 11
-252.969391
 21
35.000008
  0
LINE
  8
0
 10
-238.999939
 20
30.500008
 11
-249.999939
 21
30.500008
  0
LINE
  8
0
 10
-238.999939
 20
26.000008
 11
-249.999939
 21
26.000008
  0
LINE
  8
0
 10
-247.999939
 20
25.000008
 11
-247.999939
 21
-59.999992
  0
LINE
  8
0
 10
-249.999939
 20
-60.999992
 11
-249.999939
 21
-78.999992
  0
LINE
  8
0
 10
-177.399933
 20
26.000008
 11
-178.999939
 21
26.000008
  0
LINE
  8
0
 10
-177.399933
 20
-63.999992
 11
-178.999939
 21
-63.999992
  0
LINE
  8
0
 10
-169.099945
 20
53.500008
 11
-169.099945
 21
54.500008
  0
LINE
  8
0
 10
-168.699951
 20
53.500008
 11
-168.699951
 21
54.500008
  0
LINE
  8
0
 10
-168.699951
 20
53.500008
 11
-169.099945
 21
53.500008
  0
LINE
  8
0
 10
-167.899933
 20
55.500008
 11
-169.899933
 21
55.500008
  0
LINE
  8
0
 10
-168.699951
 20
-91.499992
 11
-168.699951
 21
-92.499992
  0
LINE
  8
0
 10
-169.099945
 20
-91.499992
 11
-169.099945
 21
-92.499992
  0
LINE
  8
0
 10
-167.899933
 20
-93.499992
 11
-169.899933
 21
-93.499992
  0
LINE
  8
0
 10
-168.699951
 20
-91.499992
 11
-169.099945
 21
-91.499992
  0
LINE
  8
0
 10
-159.349945
 20
56.200020
 11
-163.649933
 21
56.200020
  0
LINE
  8
0
 10
-159.349945
 20
55.500008
 11
-159.349945
 21
56.200020
  0
LINE
  8
0
 10
-163.649933
 20
55.500008
 11
-163.649933
 21
56.200020
  0
LINE
  8
0
 10
-199.999939
 20
10.000008
 11
-225.999939
 21
10.000008
  0
LINE
  8
0
 10
-199.999939
 20
-47.999992
 11
-225.999939
 21
-47.999992
  0
LINE
  8
0
 10
-108.457001
 20
-18.999992
 11
-255.160309
 21
-18.999992
  0
LINE
  8
0
 10
-222.999939
 20
-5.999992
 11
-222.999939
 21
-31.999992
  0
LINE
  8
0
 10
-212.999939
 20
24.802132
 11
-212.999939
 21
-60.999992
  0
LINE
  8
0
 10
-237.999939
 20
24.500008
 11
-237.999939
 21
8.500008
  0
LINE
  8
0
 10
-229.999939
 20
16.500008
 11
-245.999939
 21
16.500008
  0
LINE
  8
0
 10
-141.399933
 20
1.000008
 11
-141.399933
 21
-5.999992
  0
LINE
  8
0
 10
-140.637390
 20
-2.499992
 11
-147.005157
 21
-2.499992
  0
LINE
  8
0
 10
-141.399933
 20
-5.999992
 11
-145.399933
 21
-5.999992
  0
LINE
  8
0
 10
-141.399933
 20
1.000008
 11
-145.399933
 21
1.000008
  0
LINE
  8
0
 10
-168.899933
 20
-88.420128
 11
-168.899933
 21
-94.245842
  0
LINE
  8
0
 10
-161.499939
 20
53.287148
 11
-161.499939
 21
59.112862
  0
LINE
  8
0
 10
-184.999939
 20
44.000008
 11
-249.999939
 21
44.000008
  0
LINE
  8
0
 10
-217.199951
 20
109.610146
 11
-217.199951
 21
85.649178
  0
LINE
  8
0
 10
-206.143341
 20
99.000008
 11
-206.143341
 21
94.000008
  0
LINE
  8
0
 10
-229.699951
 20
99.000008
 11
-204.699951
 21
99.000008
  0
LINE
  8
0
 10
-229.699951
 20
94.000008
 11
-204.699951
 21
94.000008
  0
LINE
  8
0
 10
-209.505524
 20
99.000008
 11
-209.505524
 21
94.000008
  0
LINE
  8
0
 10
-210.949951
 20
99.000008
 11
-210.949951
 21
94.000008
  0
LINE
  8
0
 10
-206.518982
 20
99.000008
 11
-206.518982
 21
94.000008
  0
LINE
  8
0
 10
-223.449951
 20
99.000008
 11
-223.449951
 21
94.000008
  0
LINE
  8
0
 10
-220.563202
 20
99.000008
 11
-220.563202
 21
94.000008
  0
LINE
  8
0
 10
-224.894379
 20
99.000008
 11
-224.894379
 21
94.000008
  0
LINE
  8
0
 10
-228.256561
 20
99.000008
 11
-228.256561
 21
94.000008
  0
LINE
  8
0
 10
-226.515442
 20
94.000008
 11
-226.515442
 21
89.000008
  0
LINE
  8
0
 10
-207.884460
 20
94.000008
 11
-207.884460
 21
89.000008
  0
LINE
  8
0
 10
-204.699951
 20
99.000008
 11
-204.699951
 21
94.000008
  0
LINE
  8
0
 10
-229.699951
 20
99.000008
 11
-229.699951
 21
94.000008
  0
LINE
  8
0
 10
-214.024506
 20
99.000008
 11
-214.024506
 21
94.000008
  0
LINE
  8
0
 10
-220.375397
 20
99.000008
 11
-220.375397
 21
94.000008
  0
LINE
  8
0
 10
-227.880920
 20
99.000008
 11
-227.880920
 21
94.000008
  0
LINE
  8
0
 10
-213.836700
 20
99.000008
 11
-213.836700
 21
94.000008
  0
LINE
  8
0
 10
-209.084473
 20
94.000008
 11
-209.084473
 21
89.000008
  0
LINE
  8
0
 10
-225.315460
 20
94.000008
 11
-225.315460
 21
89.000008
  0
ARC
  8
0
 10
-240.999939
 20
47.000008
 40
3.000000
 50
270.000000
 51
0.000000
  0
ARC
  8
0
 10
-234.999939
 20
86.000008
 40
3.000000
 50
90.000000
 51
180.000000
  0
ARC
  8
0
 10
-182.199951
 20
86.000008
 40
3.000000
 50
0.000000
 51
90.000000
  0
ARC
  8
0
 10
-215.199951
 20
87.000008
 40
2.000000
 50
90.000000
 51
180.000000
  0
ARC
  8
0
 10
-211.199951
 20
87.000008
 40
2.000000
 50
0.000000
 51
90.000000
  0
ARC
  8
0
 10
-118.899933
 20
-91.999992
 40
1.500000
 50
270.000000
 51
0.000000
  0
ARC
  8
0
 10
-118.899933
 20
54.000038
 40
1.500000
 50
0.000000
 51
90.000000
  0
ARC
  8
0
 10
-170.899902
 20
-91.999992
 40
1.500000
 50
180.000000
 51
270.000000
  0
ARC
  8
0
 10
-170.899933
 20
54.000008
 40
1.500000
 50
90.000000
 51
180.000000
  0
ARC
  8
0
 10
-167.899902
 20
-90.999992
 40
1.500000
 50
270.000000
 51
0.000000
  0
ARC
  8
0
 10
-169.899902
 20
-90.999992
 40
1.500000
 50
180.000000
 51
270.000000
  0
ARC
  8
0
 10
-169.899933
 20
53.000008
 40
1.500000
 50
90.000000
 51
180.000000
  0
ARC
  8
0
 10
-167.899933
 20
53.000008
 40
1.500000
 50
0.000000
 51
90.000000
  0
ARC
  8
0
 10
-238.999939
 20
43.000008
 40
1.000000
 50
0.000000
 51
90.000000
  0
ARC
  8
0
 10
-181.999908
 20
-75.999992
 40
3.000000
 50
270.000000
 51
0.000000
  0
CIRCLE
  8
0
 10
-237.999939
 20
16.500008
 40
4.278000
  0
CIRCLE
  8
0
 10
-237.999939
 20
16.500008
 40
4.863998
  0
CIRCLE
  8
0
 10
-212.999939
 20
10.000008
 40
9.315500
  0
CIRCLE
  8
0
 10
-212.999939
 20
10.000008
 40
10.477499
  0
CIRCLE
  8
0
 10
-212.999908
 20
-47.999992
 40
9.315500
  0
CIRCLE
  8
0
 10
-212.999908
 20
-47.999992
 40
10.477499
  0
CIRCLE
  8
0
 10
-222.999939
 20
-18.999992
 40
9.315500
  0
CIRCLE
  8
0
 10
-222.999939
 20
-18.999992
 40
10.477499
  0
ARC
  8
0
 10
-248.999908
 20
-59.999992
 40
1.000000
 50
270.000000
 51
0.000000
  0
ARC
  8
0
 10
-248.999939
 20
25.000008
 40
1.000000
 50
0.000000
 51
90.000000
  0
ARC
  8
0
 10
-238.999908
 20
-75.499992
 40
1.000000
 50
0.000000
 51
90.000000
  0
ARC
  8
0
 10
-238.999908
 20
-64.499992
 40
1.000000
 50
270.000000
 51
0.000000
  0
ARC
  8
0
 10
-238.999908
 20
-77.999992
 40
1.000000
 50
270.000000
 51
0.000000
  0
ARC
  8
0
 10
-238.999908
 20
-61.999992
 40
1.000000
 50
0.000000
 51
90.000000
  0
ARC
  8
0
 10
-238.999939
 20
40.500008
 40
1.000000
 50
270.000000
 51
0.000000
  0
ARC
  8
0
 10
-238.999939
 20
29.500008
 40
1.000000
 50
0.000000
 51
90.000000
  0
ARC
  8
0
 10
-238.999939
 20
27.000008
 40
1.000000
 50
270.000000
 51
0.000000
  0
ARC
  8
0
 10
-217.999908
 20
-54.999992
 40
1.000000
 50
180.000000
 51
187.667435
  0
ARC
  8
0
 10
-118.899933
 20
-67.999992
 40
1.500000
 50
270.000000
 51
0.000000
  0
ARC
  8
0
 10
-184.999939
 20
38.000008
 40
6.000000
 50
0.000000
 51
90.000000
  0
TEXT
  8
0
 10
-198.383087
 20
-17.196276
 40
3.199999
  1
P
 50
270.100006
 41
1.052632
 51
0.000000
  7
STANDARD
  0
TEXT
  8
0
 10
-198.385880
 20
13.403723
 40
3.199999
  1
R1
 50
270.100006
 41
1.052632
 51
0.000000
  7
STANDARD
  0
TEXT
  8
0
 10
-198.385849
 20
-44.596275
 40
3.199999
  1
R2
 50
270.100006
 41
1.052632
 51
0.000000
  7
STANDARD
  0
TEXT
  8
0
 10
-229.885880
 20
19.903721
 40
3.199999
  1
PR
 50
270.100006
 41
1.052632
 51
0.000000
  7
STANDARD
  0
POINT
  8
0
 10
-19.999996
 20
-239.999954
  0
POINT
  8
0
 10
-19.999996
 20
-239.999954
  0
POINT
  8
0
 10
224.000000
 20
-239.999954
  0
LINE
  8
0
 10
179.750031
 20
-158.399948
 11
186.750031
 21
-158.399948
  0
LINE
  8
0
 10
183.250000
 20
-157.637405
 11
183.250000
 21
-164.005142
  0
LINE
  8
0
 10
186.750000
 20
-158.399948
 11
186.750000
 21
-162.399948
  0
LINE
  8
0
 10
179.750000
 20
-158.399948
 11
179.750000
 21
-162.399948
  0
LINE
  8
0
 10
17.500004
 20
-107.399948
 11
56.500004
 21
-107.399948
  0
LINE
  8
0
 10
16.000004
 20
-167.399948
 11
58.000004
 21
-167.399948
  0
LINE
  8
0
 10
16.000004
 20
-108.899948
 11
16.000004
 21
-168.999954
  0
LINE
  8
0
 10
58.000004
 20
-108.899948
 11
58.000004
 21
-168.999954
  0
LINE
  8
0
 10
145.000000
 20
-167.399948
 11
187.000000
 21
-167.399948
  0
LINE
  8
0
 10
16.000004
 20
-168.999954
 11
16.000004
 21
-195.749954
  0
LINE
  8
0
 10
16.000004
 20
-195.499954
 11
24.000004
 21
-195.499954
  0
LINE
  8
0
 10
16.000004
 20
-210.499954
 11
24.000004
 21
-210.499954
  0
LINE
  8
0
 10
11.000004
 20
-218.299942
 11
11.000004
 21
-221.699936
  0
LINE
  8
0
 10
-5.999996
 20
-182.299942
 11
-5.999996
 21
-185.699936
  0
LINE
  8
0
 10
-5.999996
 20
-218.299942
 11
-5.999996
 21
-221.699936
  0
LINE
  8
0
 10
-4.999996
 20
-222.699936
 11
10.000004
 21
-222.699936
  0
LINE
  8
0
 10
-4.999996
 20
-217.299942
 11
10.000004
 21
-217.299942
  0
LINE
  8
0
 10
-4.999996
 20
-186.699936
 11
10.000004
 21
-186.699936
  0
LINE
  8
0
 10
-4.999996
 20
-181.299942
 11
10.000004
 21
-181.299942
  0
LINE
  8
0
 10
8.999886
 20
-220.000137
 11
0.999853
 21
-218.000137
  0
LINE
  8
0
 10
0.999880
 20
-222.000244
 11
8.999887
 21
-220.000259
  0
LINE
  8
0
 10
1.000004
 20
-217.999954
 11
1.000004
 21
-221.999954
  0
LINE
  8
0
 10
11.000004
 20
-182.299942
 11
11.000004
 21
-185.699936
  0
LINE
  8
0
 10
8.999851
 20
-184.000137
 11
0.999847
 21
-182.000137
  0
LINE
  8
0
 10
0.999916
 20
-186.000275
 11
8.999924
 21
-184.000275
  0
LINE
  8
0
 10
1.000004
 20
-181.999924
 11
1.000004
 21
-185.999924
  0
LINE
  8
0
 10
-24.999996
 20
-227.999954
 11
-8.999996
 21
-227.999954
  0
LINE
  8
0
 10
-25.999996
 20
-228.999954
 11
-25.999996
 21
-239.999954
  0
LINE
  8
0
 10
-25.999996
 20
-239.999954
 11
16.000004
 21
-239.999954
  0
LINE
  8
0
 10
-11.999996
 20
-171.999954
 11
-11.999996
 21
-226.999954
  0
LINE
  8
0
 10
16.000004
 20
-195.499954
 11
8.000004
 21
-195.499954
  0
LINE
  8
0
 10
16.000004
 20
-210.499954
 11
8.000004
 21
-210.499954
  0
LINE
  8
0
 10
8.000004
 20
-210.499954
 11
8.000004
 21
-195.499954
  0
LINE
  8
0
 10
216.000000
 20
-171.999954
 11
216.000000
 21
-226.999954
  0
LINE
  8
0
 10
213.000000
 20
-168.999954
 11
-8.999996
 21
-168.999954
  0
LINE
  8
0
 10
230.000000
 20
-239.999954
 11
188.000000
 21
-239.999954
  0
LINE
  8
0
 10
230.000000
 20
-228.999954
 11
230.000000
 21
-239.999954
  0
LINE
  8
0
 10
229.000000
 20
-227.999954
 11
213.000000
 21
-227.999954
  0
LINE
  8
0
 10
50.999981
 20
-126.265778
 11
52.499958
 21
-127.131790
  0
LINE
  8
0
 10
51.000034
 20
-124.533920
 11
51.000034
 21
-126.265976
  0
LINE
  8
0
 10
52.499866
 20
-123.667603
 11
50.999866
 21
-124.533630
  0
LINE
  8
0
 10
52.500225
 20
-123.667274
 11
54.000202
 21
-124.533287
  0
LINE
  8
0
 10
54.000034
 20
-124.533920
 11
54.000034
 21
-126.265976
  0
LINE
  8
0
 10
52.499905
 20
-127.131882
 11
53.999912
 21
-126.265854
  0
LINE
  8
0
 10
14.499989
 20
-203.865829
 11
15.999996
 21
-204.731857
  0
LINE
  8
0
 10
14.500034
 20
-202.133926
 11
14.500034
 21
-203.865982
  0
LINE
  8
0
 10
15.999866
 20
-201.267624
 11
14.499866
 21
-202.133652
  0
LINE
  8
0
 10
16.000156
 20
-201.267273
 11
17.500134
 21
-202.133286
  0
LINE
  8
0
 10
17.500034
 20
-202.133926
 11
17.500034
 21
-203.865982
  0
LINE
  8
0
 10
15.999908
 20
-204.731934
 11
17.499920
 21
-203.865906
  0
LINE
  8
0
 10
21.500225
 20
-150.667252
 11
23.000206
 21
-151.533264
  0
LINE
  8
0
 10
23.000034
 20
-151.533920
 11
23.000034
 21
-153.265976
  0
LINE
  8
0
 10
21.499905
 20
-154.131897
 11
22.999908
 21
-153.265869
  0
LINE
  8
0
 10
19.999985
 20
-153.265839
 11
21.499989
 21
-154.131866
  0
LINE
  8
0
 10
20.000034
 20
-151.533920
 11
20.000034
 21
-153.265976
  0
LINE
  8
0
 10
21.499886
 20
-150.667633
 11
19.999882
 21
-151.533661
  0
LINE
  8
0
 10
16.000004
 20
-210.249954
 11
16.000004
 21
-239.999954
  0
LINE
  8
0
 10
188.000000
 20
-237.999954
 11
188.000000
 21
-239.999954
  0
LINE
  8
0
 10
8.000004
 20
-198.499954
 11
24.000004
 21
-198.499954
  0
LINE
  8
0
 10
8.000004
 20
-207.499954
 11
24.000004
 21
-207.499954
  0
LINE
  8
0
 10
37.000004
 20
-102.399948
 11
37.000004
 21
-247.036423
  0
LINE
  8
0
 10
80.000000
 20
-102.399948
 11
80.000000
 21
-249.265671
  0
LINE
  8
0
 10
166.000000
 20
-161.037643
 11
166.000000
 21
-247.482254
  0
LINE
  8
0
 10
15.500004
 20
-152.399948
 11
27.500004
 21
-152.399948
  0
LINE
  8
0
 10
46.500004
 20
-125.399948
 11
58.500004
 21
-125.399948
  0
LINE
  8
0
 10
21.500004
 20
-146.399948
 11
21.500004
 21
-158.399948
  0
LINE
  8
0
 10
52.500004
 20
-119.399948
 11
52.500004
 21
-131.399948
  0
LINE
  8
0
 10
16.000004
 20
-197.999954
 11
16.000004
 21
-207.999954
  0
LINE
  8
0
 10
11.000004
 20
-202.999954
 11
21.000004
 21
-202.999954
  0
LINE
  8
0
 10
224.000000
 20
-224.702133
 11
224.000000
 21
-242.907974
  0
LINE
  8
0
 10
-19.999996
 20
-225.476852
 11
-19.999996
 21
-244.070053
  0
LINE
  8
0
 10
145.000000
 20
-162.399948
 11
145.000000
 21
-168.999954
  0
LINE
  8
0
 10
187.000000
 20
-162.399948
 11
187.000000
 21
-168.999954
  0
LINE
  8
0
 10
145.000000
 20
-162.399948
 11
187.000000
 21
-162.399948
  0
LINE
  8
0
 10
145.250000
 20
-158.399948
 11
152.250000
 21
-158.399948
  0
LINE
  8
0
 10
148.750000
 20
-157.637405
 11
148.750000
 21
-164.005142
  0
LINE
  8
0
 10
152.250000
 20
-158.399948
 11
152.250000
 21
-162.399948
  0
LINE
  8
0
 10
145.250000
 20
-158.399948
 11
145.250000
 21
-162.399948
  0
LINE
  8
0
 10
10.700657
 20
-166.163681
 11
10.700657
 21
-167.802505
  0
LINE
  8
0
 10
10.700657
 20
-167.802505
 11
11.299381
 21
-167.802505
  0
LINE
  8
0
 10
11.299381
 20
-166.163681
 11
11.299381
 21
-167.802505
  0
LINE
  8
0
 10
6.285038
 20
-168.550919
 11
15.714970
 21
-168.550919
  0
LINE
  8
0
 10
15.714970
 20
-168.550919
 11
15.714970
 21
-168.999954
  0
LINE
  8
0
 10
6.285038
 20
-168.550919
 11
6.285038
 21
-168.999954
  0
LINE
  8
0
 10
11.000004
 20
-163.935410
 11
11.000004
 21
-172.008682
  0
LINE
  8
0
 10
123.000000
 20
-102.399948
 11
123.000000
 21
-249.265671
  0
LINE
  8
0
 10
196.000000
 20
-195.499954
 11
196.000000
 21
-210.499954
  0
ARC
  8
0
 10
56.500004
 20
-108.899948
 40
1.500000
 50
0.000000
 51
90.000000
  0
ARC
  8
0
 10
17.500004
 20
-108.899948
 40
1.500000
 50
90.000000
 51
180.000000
  0
ARC
  8
0
 10
10.000004
 20
-221.699936
 40
1.000000
 50
270.000000
 51
0.000000
  0
ARC
  8
0
 10
-4.999996
 20
-221.699936
 40
1.000000
 50
180.000000
 51
270.000000
  0
ARC
  8
0
 10
-8.999996
 20
-171.999954
 40
3.000000
 50
89.999985
 51
180.000000
  0
ARC
  8
0
 10
-12.999996
 20
-226.999954
 40
1.000000
 50
270.000000
 51
0.000000
  0
ARC
  8
0
 10
-24.999996
 20
-228.999954
 40
1.000000
 50
90.000000
 51
180.000000
  0
ARC
  8
0
 10
10.000004
 20
-182.299942
 40
1.000000
 50
0.000000
 51
90.000000
  0
ARC
  8
0
 10
-4.999996
 20
-182.299942
 40
1.000000
 50
90.000000
 51
180.000000
  0
ARC
  8
0
 10
-4.999996
 20
-185.699936
 40
1.000000
 50
180.000000
 51
270.000000
  0
ARC
  8
0
 10
10.000004
 20
-185.699936
 40
1.000000
 50
270.000000
 51
0.000000
  0
ARC
  8
0
 10
10.000004
 20
-218.299942
 40
1.000000
 50
0.000000
 51
90.000000
  0
ARC
  8
0
 10
-4.999996
 20
-218.299942
 40
1.000000
 50
90.000000
 51
180.000000
  0
ARC
  8
0
 10
213.000000
 20
-171.999954
 40
3.000000
 50
0.000000
 51
90.000000
  0
ARC
  8
0
 10
217.000000
 20
-226.999954
 40
1.000000
 50
180.000000
 51
270.000000
  0
ARC
  8
0
 10
229.000000
 20
-228.999954
 40
1.000000
 50
0.000000
 51
90.000000
  0
CIRCLE
  8
0
 10
52.500004
 20
-125.399948
 40
3.500000
  0
CIRCLE
  8
0
 10
16.000004
 20
-202.999954
 40
3.500000
  0
CIRCLE
  8
0
 10
21.500004
 20
-152.399948
 40
3.500000
  0
CIRCLE
  8
0
 10
21.500004
 20
-152.399948
 40
4.000000
  0
CIRCLE
  8
0
 10
52.500004
 20
-125.399948
 40
4.000000
  0
ARC
  8
0
 10
11.000004
 20
-171.994736
 40
5.838734
 50
36.144608
 51
143.855377
  0
TEXT
  8
0
 10
-3.440589
 20
-184.777496
 40
2.000000
  1
A
 50
0.000000
 41
1.052632
 51
0.000000
  7
STANDARD
  0
TEXT
  8
0
 10
-3.132240
 20
-220.700623
 40
2.000000
  1
B
 50
0.000000
 41
1.052632
 51
0.000000
  7
STANDARD
  0
POINT
  8
0
 10
59.000004
 20
-168.999954
  0
LINE
  8
0
 10
60.500004
 20
-107.399948
 11
99.500000
 21
-107.399948
  0
LINE
  8
0
 10
64.000000
 20
-162.399948
 11
96.000000
 21
-162.399948
  0
LINE
  8
0
 10
64.000000
 20
-117.399948
 11
96.000000
 21
-117.399948
  0
LINE
  8
0
 10
64.000000
 20
-147.399948
 11
96.000000
 21
-147.399948
  0
LINE
  8
0
 10
96.000000
 20
-108.899948
 11
96.000000
 21
-162.399948
  0
LINE
  8
0
 10
64.000000
 20
-108.899948
 11
64.000000
 21
-162.399948
  0
LINE
  8
0
 10
64.000000
 20
-155.899948
 11
67.500000
 21
-155.899948
  0
LINE
  8
0
 10
70.500000
 20
-158.899948
 11
70.500000
 21
-162.399948
  0
LINE
  8
0
 10
88.000000
 20
-158.899948
 11
97.000000
 21
-158.899948
  0
LINE
  8
0
 10
96.000000
 20
-155.899948
 11
92.500000
 21
-155.899948
  0
LINE
  8
0
 10
89.500000
 20
-158.899948
 11
89.500000
 21
-162.399948
  0
LINE
  8
0
 10
64.000000
 20
-118.799942
 11
96.000000
 21
-118.799942
  0
LINE
  8
0
 10
64.000000
 20
-120.799942
 11
96.000000
 21
-120.799942
  0
LINE
  8
0
 10
64.000000
 20
-122.399948
 11
80.000000
 21
-122.399948
  0
LINE
  8
0
 10
64.000000
 20
-124.399948
 11
80.000000
 21
-124.399948
  0
LINE
  8
0
 10
64.000000
 20
-125.999954
 11
96.000000
 21
-125.999954
  0
LINE
  8
0
 10
64.000000
 20
-127.999954
 11
96.000000
 21
-127.999954
  0
LINE
  8
0
 10
64.000000
 20
-129.599930
 11
96.000000
 21
-129.599930
  0
LINE
  8
0
 10
64.000000
 20
-131.599930
 11
96.000000
 21
-131.599930
  0
LINE
  8
0
 10
64.000000
 20
-133.199936
 11
96.000000
 21
-133.199936
  0
LINE
  8
0
 10
64.000000
 20
-135.199936
 11
96.000000
 21
-135.199936
  0
LINE
  8
0
 10
64.000000
 20
-136.799942
 11
96.000000
 21
-136.799942
  0
LINE
  8
0
 10
64.000000
 20
-138.799942
 11
96.000000
 21
-138.799942
  0
LINE
  8
0
 10
64.000000
 20
-140.399948
 11
96.000000
 21
-140.399948
  0
LINE
  8
0
 10
64.000000
 20
-142.399948
 11
96.000000
 21
-142.399948
  0
LINE
  8
0
 10
64.000000
 20
-143.999924
 11
96.000000
 21
-143.999924
  0
LINE
  8
0
 10
64.000000
 20
-145.999924
 11
96.000000
 21
-145.999924
  0
LINE
  8
0
 10
96.000000
 20
-122.399948
 11
96.000000
 21
-124.399948
  0
LINE
  8
0
 10
93.000000
 20
-122.399948
 11
93.000000
 21
-124.399948
  0
LINE
  8
0
 10
93.000000
 20
-122.399948
 11
96.000000
 21
-122.399948
  0
LINE
  8
0
 10
93.000000
 20
-124.399948
 11
96.000000
 21
-124.399948
  0
LINE
  8
0
 10
80.000000
 20
-122.399948
 11
80.000000
 21
-124.399948
  0
LINE
  8
0
 10
59.000004
 20
-167.399948
 11
101.000000
 21
-167.399948
  0
LINE
  8
0
 10
59.000004
 20
-108.899948
 11
59.000004
 21
-168.999954
  0
LINE
  8
0
 10
101.000000
 20
-108.899948
 11
101.000000
 21
-168.999954
  0
LINE
  8
0
 10
62.768200
 20
-152.399567
 11
63.634228
 21
-153.899567
  0
LINE
  8
0
 10
63.633976
 20
-153.899948
 11
64.000000
 21
-153.899948
  0
LINE
  8
0
 10
63.633976
 20
-150.899948
 11
64.000000
 21
-150.899948
  0
LINE
  8
0
 10
62.768024
 20
-152.399857
 11
63.634037
 21
-150.899872
  0
LINE
  8
0
 10
92.700012
 20
-157.199936
 11
92.700012
 21
-158.699936
  0
LINE
  8
0
 10
92.300018
 20
-157.199936
 11
92.300018
 21
-158.699936
  0
LINE
  8
0
 10
90.800018
 20
-159.099930
 11
92.300018
 21
-159.099930
  0
LINE
  8
0
 10
90.800018
 20
-158.699936
 11
92.300018
 21
-158.699936
  0
LINE
  8
0
 10
94.200012
 20
-158.699936
 11
94.200012
 21
-159.099930
  0
LINE
  8
0
 10
90.800018
 20
-158.699936
 11
90.800018
 21
-159.099930
  0
LINE
  8
0
 10
92.300018
 20
-157.199936
 11
92.700012
 21
-157.199936
  0
LINE
  8
0
 10
92.300018
 20
-160.599930
 11
92.700012
 21
-160.599930
  0
LINE
  8
0
 10
92.700012
 20
-159.099930
 11
94.200012
 21
-159.099930
  0
LINE
  8
0
 10
92.700012
 20
-158.699936
 11
94.200012
 21
-158.699936
  0
LINE
  8
0
 10
92.300018
 20
-159.099930
 11
92.300018
 21
-160.599930
  0
LINE
  8
0
 10
92.700012
 20
-159.099930
 11
92.700012
 21
-160.599930
  0
LINE
  8
0
 10
67.700012
 20
-159.099930
 11
67.700012
 21
-160.599930
  0
LINE
  8
0
 10
67.300018
 20
-159.099930
 11
67.300018
 21
-160.599930
  0
LINE
  8
0
 10
67.700012
 20
-157.199936
 11
67.700012
 21
-158.699936
  0
LINE
  8
0
 10
67.300018
 20
-157.199936
 11
67.300018
 21
-158.699936
  0
LINE
  8
0
 10
65.800018
 20
-159.099930
 11
67.300018
 21
-159.099930
  0
LINE
  8
0
 10
65.800018
 20
-158.699936
 11
67.300018
 21
-158.699936
  0
LINE
  8
0
 10
69.200012
 20
-158.699936
 11
69.200012
 21
-159.099930
  0
LINE
  8
0
 10
65.800018
 20
-158.699936
 11
65.800018
 21
-159.099930
  0
LINE
  8
0
 10
67.300018
 20
-157.199936
 11
67.700012
 21
-157.199936
  0
LINE
  8
0
 10
67.300018
 20
-160.599930
 11
67.700012
 21
-160.599930
  0
LINE
  8
0
 10
67.700012
 20
-159.099930
 11
69.200012
 21
-159.099930
  0
LINE
  8
0
 10
67.700012
 20
-158.699936
 11
69.200012
 21
-158.699936
  0
LINE
  8
0
 10
96.000000
 20
-123.899948
 11
96.366028
 21
-123.899948
  0
LINE
  8
0
 10
97.232391
 20
-125.399719
 11
96.366379
 21
-123.899742
  0
LINE
  8
0
 10
96.365906
 20
-126.899963
 11
97.231934
 21
-125.399963
  0
LINE
  8
0
 10
76.000000
 20
-151.499954
 11
84.000000
 21
-151.499954
  0
LINE
  8
0
 10
59.565769
 20
-152.399582
 11
64.000000
 21
-152.399582
  0
LINE
  8
0
 10
95.500000
 20
-125.399979
 11
100.304840
 21
-125.399979
  0
LINE
  8
0
 10
92.500031
 20
-155.234848
 11
92.500031
 21
-162.671463
  0
LINE
  8
0
 10
67.499969
 20
-155.234848
 11
67.499969
 21
-162.671463
  0
LINE
  8
0
 10
72.000000
 20
-158.899948
 11
63.000004
 21
-158.899948
  0
ARC
  8
0
 10
94.500000
 20
-108.899948
 40
1.500000
 50
0.000000
 51
90.000000
  0
ARC
  8
0
 10
65.500000
 20
-108.899948
 40
1.500000
 50
90.000000
 51
180.000000
  0
CIRCLE
  8
0
 10
67.500000
 20
-158.899948
 40
2.500000
  0
ARC
  8
0
 10
67.500000
 20
-158.899948
 40
3.000000
 50
0.000000
 51
90.000000
  0
CIRCLE
  8
0
 10
80.000000
 20
-151.499954
 40
2.150000
  0
CIRCLE
  8
0
 10
80.000000
 20
-151.499954
 40
1.500000
  0
CIRCLE
  8
0
 10
92.500000
 20
-158.899948
 40
2.500000
  0
ARC
  8
0
 10
92.500000
 20
-158.899948
 40
3.000000
 50
90.000000
 51
180.000000
  0
ARC
  8
0
 10
99.500000
 20
-108.899948
 40
1.500000
 50
0.000000
 51
90.000000
  0
ARC
  8
0
 10
60.500004
 20
-108.899948
 40
1.500000
 50
90.000000
 51
180.000000
  0
ARC
  8
0
 10
64.500000
 20
-152.399948
 40
3.499995
 50
98.213226
 51
261.786774
  0
ARC
  8
0
 10
95.500000
 20
-125.399948
 40
3.500000
 50
270.000000
 51
90.000000
  0
ARC
  8
0
 10
64.500000
 20
-152.399948
 40
4.000001
 50
97.180756
 51
262.819183
  0
ARC
  8
0
 10
95.500000
 20
-125.399948
 40
4.000000
 50
0.000000
 51
90.000000
  0
ARC
  8
0
 10
95.500000
 20
-125.399948
 40
4.000000
 50
270.000000
 51
0.000000
  0
TEXT
  8
0
 10
83.725090
 20
-123.479950
 40
1.200000
  1
AC200V
 50
0.000000
 41
0.844285
 51
0.000000
  7
STANDARD
  0
POINT
  8
0
 10
102.000000
 20
-168.999954
  0
LINE
  8
0
 10
103.500000
 20
-107.399948
 11
142.500000
 21
-107.399948
  0
LINE
  8
0
 10
107.000000
 20
-162.399948
 11
139.000000
 21
-162.399948
  0
LINE
  8
0
 10
107.000000
 20
-117.399948
 11
139.000000
 21
-117.399948
  0
LINE
  8
0
 10
107.000000
 20
-147.399948
 11
139.000000
 21
-147.399948
  0
LINE
  8
0
 10
139.000000
 20
-108.899948
 11
139.000000
 21
-162.399948
  0
LINE
  8
0
 10
107.000000
 20
-108.899948
 11
107.000000
 21
-162.399948
  0
LINE
  8
0
 10
107.000000
 20
-155.899948
 11
110.500000
 21
-155.899948
  0
LINE
  8
0
 10
113.500000
 20
-158.899948
 11
113.500000
 21
-162.399948
  0
LINE
  8
0
 10
131.000000
 20
-158.899948
 11
140.000000
 21
-158.899948
  0
LINE
  8
0
 10
139.000000
 20
-155.899948
 11
135.500000
 21
-155.899948
  0
LINE
  8
0
 10
132.500000
 20
-158.899948
 11
132.500000
 21
-162.399948
  0
LINE
  8
0
 10
107.000000
 20
-118.799942
 11
139.000000
 21
-118.799942
  0
LINE
  8
0
 10
107.000000
 20
-120.799942
 11
139.000000
 21
-120.799942
  0
LINE
  8
0
 10
107.000000
 20
-122.399948
 11
123.000000
 21
-122.399948
  0
LINE
  8
0
 10
107.000000
 20
-124.399948
 11
123.000000
 21
-124.399948
  0
LINE
  8
0
 10
107.000000
 20
-125.999954
 11
139.000000
 21
-125.999954
  0
LINE
  8
0
 10
107.000000
 20
-127.999954
 11
139.000000
 21
-127.999954
  0
LINE
  8
0
 10
107.000000
 20
-129.599930
 11
139.000000
 21
-129.599930
  0
LINE
  8
0
 10
107.000000
 20
-131.599930
 11
139.000000
 21
-131.599930
  0
LINE
  8
0
 10
107.000000
 20
-133.199936
 11
139.000000
 21
-133.199936
  0
LINE
  8
0
 10
107.000000
 20
-135.199936
 11
139.000000
 21
-135.199936
  0
LINE
  8
0
 10
107.000000
 20
-136.799942
 11
139.000000
 21
-136.799942
  0
LINE
  8
0
 10
107.000000
 20
-138.799942
 11
139.000000
 21
-138.799942
  0
LINE
  8
0
 10
107.000000
 20
-140.399948
 11
139.000000
 21
-140.399948
  0
LINE
  8
0
 10
107.000000
 20
-142.399948
 11
139.000000
 21
-142.399948
  0
LINE
  8
0
 10
107.000000
 20
-143.999924
 11
139.000000
 21
-143.999924
  0
LINE
  8
0
 10
107.000000
 20
-145.999924
 11
139.000000
 21
-145.999924
  0
LINE
  8
0
 10
139.000000
 20
-122.399948
 11
139.000000
 21
-124.399948
  0
LINE
  8
0
 10
136.000000
 20
-122.399948
 11
136.000000
 21
-124.399948
  0
LINE
  8
0
 10
136.000000
 20
-122.399948
 11
139.000000
 21
-122.399948
  0
LINE
  8
0
 10
136.000000
 20
-124.399948
 11
139.000000
 21
-124.399948
  0
LINE
  8
0
 10
123.000000
 20
-122.399948
 11
123.000000
 21
-124.399948
  0
LINE
  8
0
 10
102.000000
 20
-167.399948
 11
144.000000
 21
-167.399948
  0
LINE
  8
0
 10
102.000000
 20
-108.899948
 11
102.000000
 21
-168.999954
  0
LINE
  8
0
 10
144.000000
 20
-108.899948
 11
144.000000
 21
-168.999954
  0
LINE
  8
0
 10
105.768204
 20
-152.399567
 11
106.634232
 21
-153.899567
  0
LINE
  8
0
 10
106.633972
 20
-153.899948
 11
107.000000
 21
-153.899948
  0
LINE
  8
0
 10
106.633972
 20
-150.899948
 11
107.000000
 21
-150.899948
  0
LINE
  8
0
 10
105.768021
 20
-152.399857
 11
106.634033
 21
-150.899872
  0
LINE
  8
0
 10
135.700012
 20
-157.199936
 11
135.700012
 21
-158.699936
  0
LINE
  8
0
 10
135.300018
 20
-157.199936
 11
135.300018
 21
-158.699936
  0
LINE
  8
0
 10
133.800018
 20
-159.099930
 11
135.300018
 21
-159.099930
  0
LINE
  8
0
 10
133.800018
 20
-158.699936
 11
135.300018
 21
-158.699936
  0
LINE
  8
0
 10
137.200012
 20
-158.699936
 11
137.200012
 21
-159.099930
  0
LINE
  8
0
 10
133.800018
 20
-158.699936
 11
133.800018
 21
-159.099930
  0
LINE
  8
0
 10
135.300018
 20
-157.199936
 11
135.700012
 21
-157.199936
  0
LINE
  8
0
 10
135.300018
 20
-160.599930
 11
135.700012
 21
-160.599930
  0
LINE
  8
0
 10
135.700012
 20
-159.099930
 11
137.200012
 21
-159.099930
  0
LINE
  8
0
 10
135.700012
 20
-158.699936
 11
137.200012
 21
-158.699936
  0
LINE
  8
0
 10
135.300018
 20
-159.099930
 11
135.300018
 21
-160.599930
  0
LINE
  8
0
 10
135.700012
 20
-159.099930
 11
135.700012
 21
-160.599930
  0
LINE
  8
0
 10
110.700012
 20
-159.099930
 11
110.700012
 21
-160.599930
  0
LINE
  8
0
 10
110.300018
 20
-159.099930
 11
110.300018
 21
-160.599930
  0
LINE
  8
0
 10
110.700012
 20
-157.199936
 11
110.700012
 21
-158.699936
  0
LINE
  8
0
 10
110.300018
 20
-157.199936
 11
110.300018
 21
-158.699936
  0
LINE
  8
0
 10
108.800018
 20
-159.099930
 11
110.300018
 21
-159.099930
  0
LINE
  8
0
 10
108.800018
 20
-158.699936
 11
110.300018
 21
-158.699936
  0
LINE
  8
0
 10
112.200012
 20
-158.699936
 11
112.200012
 21
-159.099930
  0
LINE
  8
0
 10
108.800018
 20
-158.699936
 11
108.800018
 21
-159.099930
  0
LINE
  8
0
 10
110.300018
 20
-157.199936
 11
110.700012
 21
-157.199936
  0
LINE
  8
0
 10
110.300018
 20
-160.599930
 11
110.700012
 21
-160.599930
  0
LINE
  8
0
 10
110.700012
 20
-159.099930
 11
112.200012
 21
-159.099930
  0
LINE
  8
0
 10
110.700012
 20
-158.699936
 11
112.200012
 21
-158.699936
  0
LINE
  8
0
 10
139.000000
 20
-123.899948
 11
139.366028
 21
-123.899948
  0
LINE
  8
0
 10
140.232391
 20
-125.399719
 11
139.366379
 21
-123.899742
  0
LINE
  8
0
 10
139.365906
 20
-126.899963
 11
140.231934
 21
-125.399963
  0
LINE
  8
0
 10
119.000000
 20
-151.499954
 11
127.000000
 21
-151.499954
  0
LINE
  8
0
 10
102.565765
 20
-152.399582
 11
107.000000
 21
-152.399582
  0
LINE
  8
0
 10
138.500000
 20
-125.399979
 11
143.304840
 21
-125.399979
  0
LINE
  8
0
 10
135.500031
 20
-155.234848
 11
135.500031
 21
-162.671463
  0
LINE
  8
0
 10
110.499969
 20
-155.234848
 11
110.499969
 21
-162.671463
  0
LINE
  8
0
 10
115.000000
 20
-158.899948
 11
106.000000
 21
-158.899948
  0
ARC
  8
0
 10
137.500000
 20
-108.899948
 40
1.500000
 50
0.000000
 51
90.000000
  0
ARC
  8
0
 10
108.500000
 20
-108.899948
 40
1.500000
 50
90.000000
 51
180.000000
  0
CIRCLE
  8
0
 10
110.500000
 20
-158.899948
 40
2.500000
  0
ARC
  8
0
 10
110.500000
 20
-158.899948
 40
3.000000
 50
0.000000
 51
90.000000
  0
CIRCLE
  8
0
 10
123.000000
 20
-151.499954
 40
2.150000
  0
CIRCLE
  8
0
 10
123.000000
 20
-151.499954
 40
1.500000
  0
CIRCLE
  8
0
 10
135.500000
 20
-158.899948
 40
2.500000
  0
ARC
  8
0
 10
135.500000
 20
-158.899948
 40
3.000000
 50
90.000000
 51
180.000000
  0
ARC
  8
0
 10
142.500000
 20
-108.899948
 40
1.500000
 50
0.000000
 51
90.000000
  0
ARC
  8
0
 10
103.500000
 20
-108.899948
 40
1.500000
 50
90.000000
 51
180.000000
  0
ARC
  8
0
 10
107.500000
 20
-152.399948
 40
3.499995
 50
98.213226
 51
261.786774
  0
ARC
  8
0
 10
138.500000
 20
-125.399948
 40
3.500000
 50
270.000000
 51
90.000000
  0
ARC
  8
0
 10
107.500000
 20
-152.399948
 40
4.000001
 50
97.180756
 51
262.819244
  0
ARC
  8
0
 10
138.500000
 20
-125.399948
 40
4.000000
 50
0.000000
 51
90.000000
  0
ARC
  8
0
 10
138.500000
 20
-125.399948
 40
4.000000
 50
270.000000
 51
0.000000
  0
TEXT
  8
0
 10
126.725090
 20
-123.479950
 40
1.200000
  1
AC200V
 50
0.000000
 41
0.844285
 51
0.000000
  7
STANDARD
  0
POINT
  8
0
 10
16.000004
 20
-202.999954
  0
LINE
  8
0
 10
59.000004
 20
-237.999954
 11
16.000004
 21
-237.999954
  0
LINE
  8
0
 10
59.000004
 20
-168.999954
 11
59.000004
 21
-195.749954
  0
LINE
  8
0
 10
51.000004
 20
-210.499954
 11
51.000004
 21
-195.499954
  0
LINE
  8
0
 10
45.000004
 20
-177.291733
 11
45.000004
 21
-190.708145
  0
LINE
  8
0
 10
51.000004
 20
-195.499954
 11
67.000000
 21
-195.499954
  0
LINE
  8
0
 10
51.000004
 20
-210.499954
 11
67.000000
 21
-210.499954
  0
LINE
  8
0
 10
57.499989
 20
-203.865799
 11
58.999996
 21
-204.731827
  0
LINE
  8
0
 10
57.500034
 20
-202.133926
 11
57.500034
 21
-203.865982
  0
LINE
  8
0
 10
58.999866
 20
-201.267593
 11
57.499866
 21
-202.133621
  0
LINE
  8
0
 10
59.000233
 20
-201.267181
 11
60.500210
 21
-202.133209
  0
LINE
  8
0
 10
60.500034
 20
-202.133926
 11
60.500034
 21
-203.865982
  0
LINE
  8
0
 10
58.999897
 20
-204.731949
 11
60.499866
 21
-203.865936
  0
LINE
  8
0
 10
59.000004
 20
-210.249954
 11
59.000004
 21
-237.999954
  0
LINE
  8
0
 10
51.000004
 20
-198.499954
 11
67.000000
 21
-198.499954
  0
LINE
  8
0
 10
51.000004
 20
-207.499954
 11
67.000000
 21
-207.499954
  0
LINE
  8
0
 10
32.000004
 20
-206.999954
 11
32.000004
 21
-232.999954
  0
LINE
  8
0
 10
45.000004
 20
-170.999954
 11
45.000004
 21
-196.999954
  0
LINE
  8
0
 10
32.000004
 20
-183.999954
 11
58.000004
 21
-183.999954
  0
LINE
  8
0
 10
19.000034
 20
-219.999954
 11
45.000004
 21
-219.999954
  0
LINE
  8
0
 10
59.000004
 20
-197.999954
 11
59.000004
 21
-207.999954
  0
LINE
  8
0
 10
54.000004
 20
-202.999954
 11
64.000000
 21
-202.999954
  0
LINE
  8
0
 10
24.000004
 20
-195.499954
 11
24.000004
 21
-210.499954
  0
CIRCLE
  8
0
 10
59.000004
 20
-202.999954
 40
3.500000
  0
CIRCLE
  8
0
 10
45.000004
 20
-183.999954
 40
10.477499
  0
CIRCLE
  8
0
 10
45.000004
 20
-183.999954
 40
9.315500
  0
CIRCLE
  8
0
 10
32.000004
 20
-219.999954
 40
10.477499
  0
CIRCLE
  8
0
 10
32.000004
 20
-219.999954
 40
9.315500
  0
POINT
  8
0
 10
59.000004
 20
-202.999954
  0
LINE
  8
0
 10
102.000000
 20
-237.999954
 11
59.000004
 21
-237.999954
  0
LINE
  8
0
 10
102.000000
 20
-168.999954
 11
102.000000
 21
-195.749954
  0
LINE
  8
0
 10
94.000000
 20
-210.499954
 11
94.000000
 21
-195.499954
  0
LINE
  8
0
 10
88.000000
 20
-177.291733
 11
88.000000
 21
-190.708145
  0
LINE
  8
0
 10
94.000000
 20
-195.499954
 11
110.000000
 21
-195.499954
  0
LINE
  8
0
 10
94.000000
 20
-210.499954
 11
110.000000
 21
-210.499954
  0
LINE
  8
0
 10
100.499985
 20
-203.865799
 11
102.000000
 21
-204.731827
  0
LINE
  8
0
 10
100.500031
 20
-202.133926
 11
100.500031
 21
-203.865982
  0
LINE
  8
0
 10
101.999863
 20
-201.267593
 11
100.499863
 21
-202.133621
  0
LINE
  8
0
 10
102.000229
 20
-201.267181
 11
103.500214
 21
-202.133209
  0
LINE
  8
0
 10
103.500031
 20
-202.133926
 11
103.500031
 21
-203.865982
  0
LINE
  8
0
 10
101.999893
 20
-204.731949
 11
103.499863
 21
-203.865936
  0
LINE
  8
0
 10
102.000000
 20
-210.249954
 11
102.000000
 21
-237.999954
  0
LINE
  8
0
 10
94.000000
 20
-198.499954
 11
110.000000
 21
-198.499954
  0
LINE
  8
0
 10
94.000000
 20
-207.499954
 11
110.000000
 21
-207.499954
  0
LINE
  8
0
 10
75.000000
 20
-206.999954
 11
75.000000
 21
-232.999954
  0
LINE
  8
0
 10
88.000000
 20
-170.999954
 11
88.000000
 21
-196.999954
  0
LINE
  8
0
 10
75.000000
 20
-183.999954
 11
101.000000
 21
-183.999954
  0
LINE
  8
0
 10
62.000034
 20
-219.999954
 11
88.000000
 21
-219.999954
  0
LINE
  8
0
 10
102.000000
 20
-197.999954
 11
102.000000
 21
-207.999954
  0
LINE
  8
0
 10
97.000000
 20
-202.999954
 11
107.000000
 21
-202.999954
  0
LINE
  8
0
 10
67.000000
 20
-195.499954
 11
67.000000
 21
-210.499954
  0
CIRCLE
  8
0
 10
102.000000
 20
-202.999954
 40
3.500000
  0
CIRCLE
  8
0
 10
88.000000
 20
-183.999954
 40
10.477499
  0
CIRCLE
  8
0
 10
88.000000
 20
-183.999954
 40
9.315500
  0
CIRCLE
  8
0
 10
75.000000
 20
-219.999954
 40
10.477499
  0
CIRCLE
  8
0
 10
75.000000
 20
-219.999954
 40
9.315500
  0
POINT
  8
0
 10
102.000000
 20
-202.999954
  0
LINE
  8
0
 10
145.000000
 20
-237.999954
 11
102.000000
 21
-237.999954
  0
LINE
  8
0
 10
145.000000
 20
-168.999954
 11
145.000000
 21
-195.749954
  0
LINE
  8
0
 10
137.000000
 20
-210.499954
 11
137.000000
 21
-195.499954
  0
LINE
  8
0
 10
131.000000
 20
-177.291733
 11
131.000000
 21
-190.708145
  0
LINE
  8
0
 10
137.000000
 20
-195.499954
 11
153.000000
 21
-195.499954
  0
LINE
  8
0
 10
137.000000
 20
-210.499954
 11
153.000000
 21
-210.499954
  0
LINE
  8
0
 10
143.499985
 20
-203.865799
 11
145.000000
 21
-204.731827
  0
LINE
  8
0
 10
143.500031
 20
-202.133926
 11
143.500031
 21
-203.865982
  0
LINE
  8
0
 10
144.999863
 20
-201.267593
 11
143.499863
 21
-202.133621
  0
LINE
  8
0
 10
145.000229
 20
-201.267181
 11
146.500214
 21
-202.133209
  0
LINE
  8
0
 10
146.500031
 20
-202.133926
 11
146.500031
 21
-203.865982
  0
LINE
  8
0
 10
144.999893
 20
-204.731949
 11
146.499863
 21
-203.865936
  0
LINE
  8
0
 10
145.000000
 20
-210.249954
 11
145.000000
 21
-237.999954
  0
LINE
  8
0
 10
137.000000
 20
-198.499954
 11
153.000000
 21
-198.499954
  0
LINE
  8
0
 10
137.000000
 20
-207.499954
 11
153.000000
 21
-207.499954
  0
LINE
  8
0
 10
118.000000
 20
-206.999954
 11
118.000000
 21
-232.999954
  0
LINE
  8
0
 10
131.000000
 20
-170.999954
 11
131.000000
 21
-196.999954
  0
LINE
  8
0
 10
118.000000
 20
-183.999954
 11
144.000000
 21
-183.999954
  0
LINE
  8
0
 10
105.000031
 20
-219.999954
 11
131.000000
 21
-219.999954
  0
LINE
  8
0
 10
145.000000
 20
-197.999954
 11
145.000000
 21
-207.999954
  0
LINE
  8
0
 10
140.000000
 20
-202.999954
 11
150.000000
 21
-202.999954
  0
LINE
  8
0
 10
110.000000
 20
-195.499954
 11
110.000000
 21
-210.499954
  0
CIRCLE
  8
0
 10
145.000000
 20
-202.999954
 40
3.500000
  0
CIRCLE
  8
0
 10
131.000000
 20
-183.999954
 40
10.477499
  0
CIRCLE
  8
0
 10
131.000000
 20
-183.999954
 40
9.315500
  0
CIRCLE
  8
0
 10
118.000000
 20
-219.999954
 40
10.477499
  0
CIRCLE
  8
0
 10
118.000000
 20
-219.999954
 40
9.315500
  0
POINT
  8
0
 10
145.000000
 20
-202.999954
  0
LINE
  8
0
 10
188.000000
 20
-237.999954
 11
145.000000
 21
-237.999954
  0
LINE
  8
0
 10
188.000000
 20
-168.999954
 11
188.000000
 21
-195.749954
  0
LINE
  8
0
 10
180.000000
 20
-210.499954
 11
180.000000
 21
-195.499954
  0
LINE
  8
0
 10
174.000000
 20
-177.291733
 11
174.000000
 21
-190.708145
  0
LINE
  8
0
 10
180.000000
 20
-195.499954
 11
196.000000
 21
-195.499954
  0
LINE
  8
0
 10
180.000000
 20
-210.499954
 11
196.000000
 21
-210.499954
  0
LINE
  8
0
 10
186.499985
 20
-203.865799
 11
188.000000
 21
-204.731827
  0
LINE
  8
0
 10
186.500031
 20
-202.133926
 11
186.500031
 21
-203.865982
  0
LINE
  8
0
 10
187.999863
 20
-201.267593
 11
186.499863
 21
-202.133621
  0
LINE
  8
0
 10
188.000229
 20
-201.267181
 11
189.500214
 21
-202.133209
  0
LINE
  8
0
 10
189.500031
 20
-202.133926
 11
189.500031
 21
-203.865982
  0
LINE
  8
0
 10
187.999893
 20
-204.731949
 11
189.499863
 21
-203.865936
  0
LINE
  8
0
 10
188.000000
 20
-210.249954
 11
188.000000
 21
-237.999954
  0
LINE
  8
0
 10
180.000000
 20
-198.499954
 11
196.000000
 21
-198.499954
  0
LINE
  8
0
 10
180.000000
 20
-207.499954
 11
196.000000
 21
-207.499954
  0
LINE
  8
0
 10
161.000000
 20
-206.999954
 11
161.000000
 21
-232.999954
  0
LINE
  8
0
 10
174.000000
 20
-170.999954
 11
174.000000
 21
-196.999954
  0
LINE
  8
0
 10
161.000000
 20
-183.999954
 11
187.000000
 21
-183.999954
  0
LINE
  8
0
 10
148.000031
 20
-219.999954
 11
174.000000
 21
-219.999954
  0
LINE
  8
0
 10
188.000000
 20
-197.999954
 11
188.000000
 21
-207.999954
  0
LINE
  8
0
 10
183.000000
 20
-202.999954
 11
193.000000
 21
-202.999954
  0
LINE
  8
0
 10
153.000000
 20
-195.499954
 11
153.000000
 21
-210.499954
  0
CIRCLE
  8
0
 10
188.000000
 20
-202.999954
 40
3.500000
  0
CIRCLE
  8
0
 10
174.000000
 20
-183.999954
 40
10.477499
  0
CIRCLE
  8
0
 10
174.000000
 20
-183.999954
 40
9.315500
  0
CIRCLE
  8
0
 10
161.000000
 20
-219.999954
 40
10.477499
  0
CIRCLE
  8
0
 10
161.000000
 20
-219.999954
 40
9.315500
  0
ENDSEC
  0
EOF
