  0
SECTION
  2
HEADER
  9
$ACADVER
  1
AC1009
  9
$DWGCODEPAGE
  3
dos932
  9
$INSBASE
 10
0.0
 20
0.0
 30
0.0
  9
$EXTMIN
 10
-281.25
 20
-195.0
 30
0.0
  9
$EXTMAX
 10
282.09985352
 20
195.5
 30
0.0
  9
$LIMMIN
 10
-281.25
 20
-195.0
  9
$LIMMAX
 10
282.09985352
 20
195.5
  9
$ORTHOMODE
 70
       0
  9
$REGENMODE
 70
       1
  9
$FILLMODE
 70
       1
  9
$QTEXTMODE
 70
       0
  9
$MIRRTEXT
 70
       1
  9
$DRAGMODE
 70
       2
  9
$LTSCALE
 40
1.0
  9
$OSMODE
 70
       0
  9
$ATTMODE
 70
       1
  9
$TEXTSIZE
 40
3.20000005
  9
$TRACEWID
 40
0.05
  9
$TEXTSTYLE
  7
MX_NOTE_STANDARD
  9
$CLAYER
  8
0
  9
$CELTYPE
  6
CONTINUOUS
  9
$CECOLOR
 62
     256
  9
$DIMSCALE
 40
1.0
  9
$DIMASZ
 40
2.5
  9
$DIMEXO
 40
1.5
  9
$DIMDLI
 40
3.75
  9
$DIMRND
 40
0.0
  9
$DIMDLE
 40
0.0
  9
$DIMEXE
 40
1.5
  9
$DIMTP
 40
0.0
  9
$DIMTM
 40
0.0
  9
$DIMTXT
 40
3.20000005
  9
$DIMCEN
 40
2.5
  9
$DIMTSZ
 40
0.0
  9
$DIMTOL
 70
       0
  9
$DIMLIM
 70
       0
  9
$DIMTIH
 70
       0
  9
$DIMTOH
 70
       0
  9
$DIMSE1
 70
       0
  9
$DIMSE2
 70
       0
  9
$DIMTAD
 70
       1
  9
$DIMZIN
 70
       8
  9
$DIMBLK
  1

  9
$DIMASO
 70
       1
  9
$DIMSHO
 70
       1
  9
$DIMPOST
  1

  9
$DIMAPOST
  1

  9
$DIMALT
 70
       0
  9
$DIMALTD
 70
       4
  9
$DIMALTF
 40
0.03937008
  9
$DIMLFAC
 40
1.0
  9
$DIMTOFL
 70
       1
  9
$DIMTVP
 40
0.0
  9
$DIMTIX
 70
       0
  9
$DIMSOXD
 70
       0
  9
$DIMSAH
 70
       0
  9
$DIMBLK1
  1

  9
$DIMBLK2
  1

  9
$DIMSTYLE
  2
MXDIMSTYLE
  9
$DIMCLRD
 70
       0
  9
$DIMCLRE
 70
       0
  9
$DIMCLRT
 70
       0
  9
$DIMTFAC
 40
1.0
  9
$DIMGAP
 40
1.0
  9
$LUNITS
 70
       2
  9
$LUPREC
 70
       4
  9
$AXISMODE
 70
       0
  9
$AXISUNIT
 10
0.0
 20
0.0
  9
$SKETCHINC
 40
0.1
  9
$FILLETRAD
 40
0.0
  9
$AUNITS
 70
       0
  9
$AUPREC
 70
       0
  9
$MENU
  1
acad
  9
$ELEVATION
 40
0.0
  9
$PELEVATION
 40
0.0
  9
$THICKNESS
 40
0.0
  9
$LIMCHECK
 70
       0
  9
$BLIPMODE
 70
       1
  9
$CHAMFERA
 40
0.0
  9
$CHAMFERB
 40
0.0
  9
$SKPOLY
 70
       0
  9
$TDCREATE
 40
2453314.426041667
  9
$TDUPDATE
 40
2453314.426041667
  9
$TDINDWG
 40
0.0000000000
  9
$TDUSRTIMER
 40
0.0000000000
  9
$USRTIMER
 70
       1
  9
$ANGBASE
 50
0.0
  9
$ANGDIR
 70
       0
  9
$PDMODE
 70
       0
  9
$PDSIZE
 40
0.0
  9
$PLINEWID
 40
0.0
  9
$COORDS
 70
       1
  9
$SPLFRAME
 70
       0
  9
$SPLINETYPE
 70
       6
  9
$SPLINESEGS
 70
       8
  9
$ATTDIA
 70
       0
  9
$ATTREQ
 70
       1
  9
$HANDLING
 70
       1
  9
$HANDSEED
  5
23B
  9
$SURFTAB1
 70
       6
  9
$SURFTAB2
 70
       6
  9
$SURFTYPE
 70
       6
  9
$SURFU
 70
       6
  9
$SURFV
 70
       6
  9
$UCSNAME
  2

  9
$UCSORG
 10
0.0
 20
0.0
 30
0.0
  9
$UCSXDIR
 10
1.0
 20
0.0
 30
0.0
  9
$UCSYDIR
 10
0.0
 20
1.0
 30
0.0
  9
$PUCSNAME
  2

  9
$PUCSORG
 10
0.0
 20
0.0
 30
0.0
  9
$PUCSXDIR
 10
1.0
 20
0.0
 30
0.0
  9
$PUCSYDIR
 10
0.0
 20
1.0
 30
0.0
  9
$USERI1
 70
       0
  9
$USERI2
 70
       0
  9
$USERI3
 70
       0
  9
$USERI4
 70
       0
  9
$USERI5
 70
       0
  9
$USERR1
 40
0.0
  9
$USERR2
 40
0.0
  9
$USERR3
 40
0.0
  9
$USERR4
 40
0.0
  9
$USERR5
 40
0.0
  9
$WORLDVIEW
 70
       1
  9
$SHADEDGE
 70
       3
  9
$SHADEDIF
 70
      70
  9
$TILEMODE
 70
       1
  9
$MAXACTVP
 70
      16
  9
$PINSBASE
 10
0.0
 20
0.0
 30
0.0
  9
$PLIMCHECK
 70
       0
  9
$PEXTMIN
 10
1.00000000E+20
 20
1.00000000E+20
 30
1.00000000E+20
  9
$PEXTMAX
 10
-1.00000000E+20
 20
-1.00000000E+20
 30
-1.00000000E+20
  9
$PLIMMIN
 10
0.0
 20
0.0
  9
$PLIMMAX
 10
12.0
 20
9.0
  9
$UNITMODE
 70
       0
  9
$VISRETAIN
 70
       0
  9
$PLINEGEN
 70
       1
  9
$PSLTSCALE
 70
       0
  9
$TREEDEPTH
 70
    3020
  9
$DWGCODEPAGE
  3
dos932
  0
ENDSEC
  0
SECTION
  2
TABLES
  0
TABLE
  2
VPORT
 70
       1
  0
VPORT
  2
*ACTIVE
 70
       0
 10
0.0
 20
0.0
 11
1.0
 21
1.0
 12
0.42492676
 22
0.25
 13
0.0
 23
0.0
 14
1.0
 24
1.0
 15
0.0
 25
0.0
 16
0.0
 26
0.0
 36
1.0
 17
0.0
 27
0.0
 37
0.0
 40
394.405
 41
1.73205081
 42
50.0
 43
0.0
 44
0.0
 50
0.0
 51
0.0
 71
       0
 72
     100
 73
       1
 74
       1
 75
       0
 76
       0
 77
       0
 78
       0
  0
ENDTAB
  0
TABLE
  2
LTYPE
 70
       2
  0
LTYPE
  2
CONTINUOUS
 70
      64
  3
Solid line
 72
      65
 73
       0
 40
0.0
  0
LTYPE
  2
DASHED
 70
      64
  3
Dashed __ __ __ __ __ __ __ __ __ __ __ __ __ _
 72
      65
 73
       2
 40
4.0
 49
2.0
 49
-2.0
  0
ENDTAB
  0
TABLE
  2
LAYER
 70
       2
  0
LAYER
  2
0
 70
       0
 62
       7
  6
CONTINUOUS
  0
LAYER
  2
DEFPOINTS
 70
       0
 62
       7
  6
CONTINUOUS
  0
ENDTAB
  0
TABLE
  2
STYLE
 70
       1
  0
STYLE
  2
MX_NOTE_STANDARD
 70
       0
 40
0.0
 41
1.0
 50
0.0
 71
       0
 42
3.20000005
  3
txt.shx
  4
extfont.shx
  0
ENDTAB
  0
TABLE
  2
VIEW
 70
       0
  0
ENDTAB
  0
TABLE
  2
UCS
 70
       0
  0
ENDTAB
  0
TABLE
  2
APPID
 70
       1
  0
APPID
  2
ACAD
 70
       0
  0
ENDTAB
  0
TABLE
  2
DIMSTYLE
 70
       1
  0
DIMSTYLE
  2
MXDIMSTYLE
 70
       0
  3

  4

  5

  6

  7

 40
1.0
 41
2.5
 42
1.5
 43
3.75
 44
1.5
 45
0.0
 46
0.0
 47
0.0
 48
0.0
 71
       0
 72
       0
 73
       0
 74
       0
 75
       0
 76
       0
 77
       1
 78
       8
140
3.20000005
141
2.5
142
0.0
143
0.03937008
144
1.0
145
0.0
146
1.0
147
1.0
170
       0
171
       4
172
       1
173
       0
174
       0
175
       0
176
       0
177
       0
178
       0
  0
ENDTAB
  0
ENDSEC
  0
SECTION
  2
BLOCKS
  0
ENDSEC
  0
SECTION
  2
ENTITIES
  0
LINE
  8
0
  6
CONTINUOUS
 62
       7
  5
1E
 10
144.87043089
 20
137.30353998
 30
0.0
 11
106.87043089
 21
137.30353998
 31
0.0
  0
LINE
  8
0
  6
CONTINUOUS
 62
       7
  5
1F
 10
144.87043089
 20
75.30353998
 30
0.0
 11
106.87043089
 21
75.30353998
 31
0.0
  0
LINE
  8
0
  6
CONTINUOUS
 62
       7
  5
20
 10
151.87043087
 20
82.30353994
 30
0.0
 11
151.87043087
 21
130.30353998
 31
0.0
  0
LINE
  8
0
  6
CONTINUOUS
 62
       7
  5
21
 10
99.87043087
 20
82.30353994
 30
0.0
 11
99.87043087
 21
130.30353994
 31
0.0
  0
ARC
  8
0
  6
CONTINUOUS
 62
       7
  5
22
 10
106.87043087
 20
130.30353998
 30
0.0
 40
7.0
 50
90.0
 51
180.0
  0
ARC
  8
0
  6
CONTINUOUS
 62
       7
  5
23
 10
106.87043087
 20
82.30353998
 30
0.0
 40
7.0
 50
180.0
 51
270.0
  0
ARC
  8
0
  6
CONTINUOUS
 62
       7
  5
24
 10
144.87043087
 20
82.30353998
 30
0.0
 40
7.0
 50
270.0
 51
0.0
  0
ARC
  8
0
  6
CONTINUOUS
 62
       7
  5
25
 10
144.87043087
 20
130.30353998
 30
0.0
 40
7.0
 50
0.0
 51
90.0
  0
LINE
  8
0
  6
CONTINUOUS
 62
       7
  5
26
 10
100.67043087
 20
82.30353994
 30
0.0
 11
100.67043087
 21
130.30353994
 31
0.0
  0
LINE
  8
0
  6
CONTINUOUS
 62
       7
  5
27
 10
144.87043089
 20
136.50353998
 30
0.0
 11
106.87043089
 21
136.50353998
 31
0.0
  0
LINE
  8
0
  6
CONTINUOUS
 62
       7
  5
28
 10
151.07043087
 20
82.30353994
 30
0.0
 11
151.07043087
 21
130.30353998
 31
0.0
  0
LINE
  8
0
  6
CONTINUOUS
 62
       7
  5
29
 10
144.87043089
 20
76.10353998
 30
0.0
 11
106.87043089
 21
76.10353998
 31
0.0
  0
ARC
  8
0
  6
CONTINUOUS
 62
       7
  5
2A
 10
106.87043087
 20
130.30353998
 30
0.0
 40
6.2
 50
90.0
 51
180.0
  0
ARC
  8
0
  6
CONTINUOUS
 62
       7
  5
2B
 10
144.87043087
 20
130.30353998
 30
0.0
 40
6.2
 50
0.0
 51
90.0
  0
ARC
  8
0
  6
CONTINUOUS
 62
       7
  5
2C
 10
144.87043087
 20
82.30353998
 30
0.0
 40
6.2
 50
270.0
 51
0.0
  0
ARC
  8
0
  6
CONTINUOUS
 62
       7
  5
2D
 10
106.87043087
 20
82.30353998
 30
0.0
 40
6.2
 50
180.0
 51
270.0
  0
CIRCLE
  8
0
  6
CONTINUOUS
 62
       7
  5
2E
 10
125.87043087
 20
91.30353998
 30
0.0
 40
7.95
  0
LINE
  8
0
  6
CONTINUOUS
 62
       2
  5
2F
 10
149.61844325
 20
116.50353998
 30
0.0
 11
142.85702805
 21
116.50353998
 31
0.0
  0
LINE
  8
0
  6
CONTINUOUS
 62
       2
  5
30
 10
142.85702805
 20
108.50353998
 30
0.0
 11
102.7108669
 21
108.50353998
 31
0.0
  0
LINE
  8
0
  6
CONTINUOUS
 62
       7
  5
31
 10
148.37043087
 20
103.50353998
 30
0.0
 11
148.37043087
 21
121.50353998
 31
0.0
  0
LINE
  8
0
  6
CONTINUOUS
 62
       7
  5
32
 10
103.37043087
 20
103.50353998
 30
0.0
 11
103.37043087
 21
121.50353998
 31
0.0
  0
LINE
  8
0
  6
CONTINUOUS
 62
       7
  5
33
 10
147.87043087
 20
112.50353998
 30
0.0
 11
103.87043087
 21
112.50353998
 31
0.0
  0
LINE
  8
0
  6
CONTINUOUS
 62
       7
  5
34
 10
148.37043087
 20
121.50353998
 30
0.0
 11
141.87043087
 21
121.50353998
 31
0.0
  0
LINE
  8
0
  6
CONTINUOUS
 62
       7
  5
35
 10
148.37043087
 20
103.50353998
 30
0.0
 11
141.87043087
 21
103.50353998
 31
0.0
  0
LINE
  8
0
  6
CONTINUOUS
 62
       7
  5
36
 10
148.37043087
 20
120.00353998
 30
0.0
 11
141.87043087
 21
120.00353998
 31
0.0
  0
LINE
  8
0
  6
CONTINUOUS
 62
       7
  5
37
 10
148.37043087
 20
105.00353998
 30
0.0
 11
141.87043087
 21
105.00353998
 31
0.0
  0
LINE
  8
0
  6
CONTINUOUS
 62
       2
  5
38
 10
135.87043087
 20
100.42024678
 30
0.0
 11
135.87043087
 21
134.0083214
 31
0.0
  0
LINE
  8
0
  6
CONTINUOUS
 62
       2
  5
39
 10
115.87043087
 20
100.42024678
 30
0.0
 11
115.87043087
 21
134.0083214
 31
0.0
  0
LINE
  8
0
  6
CONTINUOUS
 62
       7
  5
3A
 10
111.87043087
 20
103.25353998
 30
0.0
 11
111.87043087
 21
121.75353998
 31
0.0
  0
LINE
  8
0
  6
CONTINUOUS
 62
       7
  5
3B
 10
109.87043087
 20
103.25353998
 30
0.0
 11
109.87043087
 21
121.75353998
 31
0.0
  0
LINE
  8
0
  6
CONTINUOUS
 62
       7
  5
3C
 10
121.87043087
 20
103.25353998
 30
0.0
 11
121.87043087
 21
121.75353998
 31
0.0
  0
LINE
  8
0
  6
CONTINUOUS
 62
       7
  5
3D
 10
119.87043087
 20
103.25353998
 30
0.0
 11
119.87043087
 21
121.75353998
 31
0.0
  0
LINE
  8
0
  6
CONTINUOUS
 62
       7
  5
3E
 10
131.87043087
 20
103.25353998
 30
0.0
 11
131.87043087
 21
121.75353998
 31
0.0
  0
LINE
  8
0
  6
CONTINUOUS
 62
       7
  5
3F
 10
129.87043087
 20
103.25353998
 30
0.0
 11
129.87043087
 21
121.75353998
 31
0.0
  0
LINE
  8
0
  6
CONTINUOUS
 62
       7
  5
40
 10
141.87043087
 20
103.25353998
 30
0.0
 11
141.87043087
 21
121.75353998
 31
0.0
  0
LINE
  8
0
  6
CONTINUOUS
 62
       7
  5
41
 10
139.87043087
 20
103.25353998
 30
0.0
 11
139.87043087
 21
121.75353998
 31
0.0
  0
ARC
  8
0
  6
CONTINUOUS
 62
       7
  5
42
 10
130.87043087
 20
121.75353998
 30
0.0
 40
1.0
 50
0.0
 51
180.0
  0
ARC
  8
0
  6
CONTINUOUS
 62
       7
  5
43
 10
140.87043087
 20
121.75353998
 30
0.0
 40
1.0
 50
0.0
 51
180.0
  0
ARC
  8
0
  6
CONTINUOUS
 62
       7
  5
44
 10
110.87043087
 20
121.75353998
 30
0.0
 40
1.0
 50
0.0
 51
180.0
  0
ARC
  8
0
  6
CONTINUOUS
 62
       7
  5
45
 10
120.87043087
 20
121.75353998
 30
0.0
 40
1.0
 50
0.0
 51
180.0
  0
ARC
  8
0
  6
CONTINUOUS
 62
       7
  5
46
 10
110.87043087
 20
103.25353998
 30
0.0
 40
1.0
 50
180.0
 51
0.0
  0
ARC
  8
0
  6
CONTINUOUS
 62
       7
  5
47
 10
120.87043087
 20
103.25353998
 30
0.0
 40
1.0
 50
180.0
 51
0.0
  0
ARC
  8
0
  6
CONTINUOUS
 62
       7
  5
48
 10
130.87043087
 20
103.25353998
 30
0.0
 40
1.0
 50
180.0
 51
0.0
  0
ARC
  8
0
  6
CONTINUOUS
 62
       7
  5
49
 10
140.87043087
 20
103.25353998
 30
0.0
 40
1.0
 50
180.0
 51
0.0
  0
LINE
  8
0
  6
CONTINUOUS
 62
       7
  5
4A
 10
109.87043087
 20
121.50353998
 30
0.0
 11
103.37043087
 21
121.50353998
 31
0.0
  0
LINE
  8
0
  6
CONTINUOUS
 62
       7
  5
4B
 10
109.87043087
 20
120.00353998
 30
0.0
 11
103.37043087
 21
120.00353998
 31
0.0
  0
LINE
  8
0
  6
CONTINUOUS
 62
       7
  5
4C
 10
109.87043087
 20
105.00353998
 30
0.0
 11
103.37043087
 21
105.00353998
 31
0.0
  0
LINE
  8
0
  6
CONTINUOUS
 62
       7
  5
4D
 10
109.87043087
 20
103.50353998
 30
0.0
 11
103.37043087
 21
103.50353998
 31
0.0
  0
LINE
  8
0
  6
CONTINUOUS
 62
       7
  5
4E
 10
119.87043087
 20
103.50353998
 30
0.0
 11
111.87043087
 21
103.50353998
 31
0.0
  0
LINE
  8
0
  6
CONTINUOUS
 62
       7
  5
4F
 10
119.87043087
 20
105.00353998
 30
0.0
 11
111.87043087
 21
105.00353998
 31
0.0
  0
LINE
  8
0
  6
CONTINUOUS
 62
       7
  5
50
 10
119.87043087
 20
120.00353998
 30
0.0
 11
117.91654636
 21
120.00353998
 31
0.0
  0
LINE
  8
0
  6
CONTINUOUS
 62
       7
  5
51
 10
119.87043087
 20
121.50353998
 30
0.0
 11
117.37043087
 21
121.50353998
 31
0.0
  0
LINE
  8
0
  6
CONTINUOUS
 62
       7
  5
52
 10
129.87043087
 20
121.50353998
 30
0.0
 11
121.87043087
 21
121.50353998
 31
0.0
  0
LINE
  8
0
  6
CONTINUOUS
 62
       7
  5
53
 10
129.87043087
 20
120.00353998
 30
0.0
 11
121.87043087
 21
120.00353998
 31
0.0
  0
LINE
  8
0
  6
CONTINUOUS
 62
       7
  5
54
 10
139.87043087
 20
121.50353998
 30
0.0
 11
137.37043087
 21
121.50353998
 31
0.0
  0
LINE
  8
0
  6
CONTINUOUS
 62
       7
  5
55
 10
139.87043087
 20
120.00353998
 30
0.0
 11
137.91654638
 21
120.00353998
 31
0.0
  0
LINE
  8
0
  6
CONTINUOUS
 62
       7
  5
56
 10
139.87043087
 20
105.00353998
 30
0.0
 11
131.87043087
 21
105.00353998
 31
0.0
  0
LINE
  8
0
  6
CONTINUOUS
 62
       7
  5
57
 10
139.87043087
 20
103.50353998
 30
0.0
 11
131.87043087
 21
103.50353998
 31
0.0
  0
LINE
  8
0
  6
CONTINUOUS
 62
       7
  5
58
 10
129.87043087
 20
105.00353998
 30
0.0
 11
121.87043087
 21
105.00353998
 31
0.0
  0
LINE
  8
0
  6
CONTINUOUS
 62
       7
  5
59
 10
129.87043087
 20
103.50353998
 30
0.0
 11
121.87043087
 21
103.50353998
 31
0.0
  0
LINE
  8
0
  6
CONTINUOUS
 62
       2
  5
5A
 10
147.52095
 20
108.50353998
 30
0.0
 11
142.85702805
 21
108.50353998
 31
0.0
  0
LINE
  8
0
  6
CONTINUOUS
 62
       2
  5
5B
 10
142.85702805
 20
116.50353998
 30
0.0
 11
104.17275613
 21
116.50353998
 31
0.0
  0
CIRCLE
  8
0
  6
CONTINUOUS
 62
       7
  5
5C
 10
115.87043087
 20
116.50353998
 30
0.0
 40
3.25
  0
CIRCLE
  8
0
  6
CONTINUOUS
 62
       7
  5
5D
 10
115.87043087
 20
108.50353998
 30
0.0
 40
3.25
  0
CIRCLE
  8
0
  6
CONTINUOUS
 62
       7
  5
5E
 10
125.87043087
 20
116.50353998
 30
0.0
 40
3.25
  0
CIRCLE
  8
0
  6
CONTINUOUS
 62
       7
  5
5F
 10
125.87043087
 20
108.50353998
 30
0.0
 40
3.25
  0
CIRCLE
  8
0
  6
CONTINUOUS
 62
       7
  5
60
 10
135.87043087
 20
116.50353998
 30
0.0
 40
3.25
  0
CIRCLE
  8
0
  6
CONTINUOUS
 62
       7
  5
61
 10
135.87043087
 20
108.50353998
 30
0.0
 40
3.25
  0
LINE
  8
0
  6
CONTINUOUS
 62
       2
  5
62
 10
140.87043087
 20
77.59264096
 30
0.0
 11
140.87043087
 21
82.63163241
 31
0.0
  0
LINE
  8
0
  6
CONTINUOUS
 62
       2
  5
63
 10
110.87043087
 20
77.53265296
 30
0.0
 11
110.87043087
 21
82.57164441
 31
0.0
  0
LINE
  8
0
  6
CONTINUOUS
 62
       7
  5
64
 10
144.87043089
 20
83.10353998
 30
0.0
 11
136.87043087
 21
83.10353998
 31
0.0
  0
LINE
  8
0
  6
CONTINUOUS
 62
       7
  5
65
 10
144.87043089
 20
129.50353998
 30
0.0
 11
136.87043087
 21
129.50353998
 31
0.0
  0
LINE
  8
0
  6
CONTINUOUS
 62
       7
  5
66
 10
144.87043087
 20
76.10353998
 30
0.0
 11
144.87043087
 21
83.10353998
 31
0.0
  0
LINE
  8
0
  6
CONTINUOUS
 62
       7
  5
67
 10
106.87043087
 20
76.10353998
 30
0.0
 11
106.87043087
 21
83.10353998
 31
0.0
  0
LINE
  8
0
  6
CONTINUOUS
 62
       7
  5
68
 10
144.87043089
 20
77.10353998
 30
0.0
 11
106.87043089
 21
77.10353998
 31
0.0
  0
LINE
  8
0
  6
CONTINUOUS
 62
       7
  5
69
 10
144.87043089
 20
135.50353998
 30
0.0
 11
106.87043089
 21
135.50353998
 31
0.0
  0
LINE
  8
0
  6
CONTINUOUS
 62
       7
  5
6A
 10
136.87043087
 20
77.10353998
 30
0.0
 11
136.87043087
 21
83.10353998
 31
0.0
  0
LINE
  8
0
  6
CONTINUOUS
 62
       7
  5
6B
 10
114.87043087
 20
77.10353998
 30
0.0
 11
114.87043087
 21
83.10353998
 31
0.0
  0
LINE
  8
0
  6
CONTINUOUS
 62
       7
  5
6C
 10
106.87043087
 20
129.50353998
 30
0.0
 11
106.87043087
 21
136.50353998
 31
0.0
  0
LINE
  8
0
  6
CONTINUOUS
 62
       7
  5
6D
 10
114.87043087
 20
129.50353998
 30
0.0
 11
114.87043087
 21
135.50353998
 31
0.0
  0
LINE
  8
0
  6
CONTINUOUS
 62
       7
  5
6E
 10
114.87043087
 20
129.50353998
 30
0.0
 11
106.87043089
 21
129.50353998
 31
0.0
  0
LINE
  8
0
  6
CONTINUOUS
 62
       7
  5
6F
 10
144.87043087
 20
129.50353998
 30
0.0
 11
144.87043087
 21
136.50353998
 31
0.0
  0
LINE
  8
0
  6
CONTINUOUS
 62
       7
  5
70
 10
136.87043087
 20
129.50353998
 30
0.0
 11
136.87043087
 21
135.50353998
 31
0.0
  0
LINE
  8
0
  6
CONTINUOUS
 62
       7
  5
71
 10
114.87043087
 20
83.10353998
 30
0.0
 11
106.87043089
 21
83.10353998
 31
0.0
  0
LINE
  8
0
  6
CONTINUOUS
 62
       2
  5
72
 10
110.87043087
 20
130.08213524
 30
0.0
 11
110.87043087
 21
134.88117471
 31
0.0
  0
LINE
  8
0
  6
CONTINUOUS
 62
       2
  5
73
 10
140.87043087
 20
130.02214724
 30
0.0
 11
140.87043087
 21
134.64122274
 31
0.0
  0
LINE
  8
0
  6
CONTINUOUS
 62
       2
  5
74
 10
143.6430899
 20
80.30353998
 30
0.0
 11
137.82425454
 21
80.30353998
 31
0.0
  0
LINE
  8
0
  6
CONTINUOUS
 62
       2
  5
75
 10
143.7030779
 20
132.30353998
 30
0.0
 11
138.1241945
 21
132.30353998
 31
0.0
  0
CIRCLE
  8
0
  6
CONTINUOUS
 62
       2
  5
76
 10
110.87043087
 20
132.30353998
 30
0.0
 40
1.5
  0
CIRCLE
  8
0
  6
CONTINUOUS
 62
       2
  5
77
 10
140.87043087
 20
132.30353998
 30
0.0
 40
1.5
  0
CIRCLE
  8
0
  6
CONTINUOUS
 62
       2
  5
78
 10
110.87043087
 20
80.30353998
 30
0.0
 40
1.5
  0
CIRCLE
  8
0
  6
CONTINUOUS
 62
       2
  5
79
 10
140.87043087
 20
80.30353998
 30
0.0
 40
1.5
  0
CIRCLE
  8
0
  6
CONTINUOUS
 62
       7
  5
7A
 10
110.87043087
 20
132.30353998
 30
0.0
 40
1.0
  0
CIRCLE
  8
0
  6
CONTINUOUS
 62
       7
  5
7B
 10
140.87043087
 20
132.30353998
 30
0.0
 40
1.0
  0
CIRCLE
  8
0
  6
CONTINUOUS
 62
       7
  5
7C
 10
110.87043087
 20
80.30353998
 30
0.0
 40
1.0
  0
CIRCLE
  8
0
  6
CONTINUOUS
 62
       7
  5
7D
 10
140.87043087
 20
80.30353998
 30
0.0
 40
1.0
  0
LINE
  8
0
  6
CONTINUOUS
 62
       2
  5
7E
 10
114.12899712
 20
132.30353998
 30
0.0
 11
108.07020978
 21
132.30353998
 31
0.0
  0
LINE
  8
0
  6
CONTINUOUS
 62
       2
  5
7F
 10
114.00902113
 20
80.30353998
 30
0.0
 11
107.95023379
 21
80.30353998
 31
0.0
  0
LINE
  8
0
  6
CONTINUOUS
 62
       2
  5
80
 10
106.87043087
 20
104.64954771
 30
0.0
 11
106.87043087
 21
119.23665987
 31
0.0
  0
LINE
  8
0
  6
CONTINUOUS
 62
       2
  5
81
 10
144.87043087
 20
105.79363494
 30
0.0
 11
144.87043087
 21
120.66676891
 31
0.0
  0
CIRCLE
  8
0
  6
CONTINUOUS
 62
       7
  5
82
 10
106.87043087
 20
108.50353998
 30
0.0
 40
3.0
  0
CIRCLE
  8
0
  6
CONTINUOUS
 62
       7
  5
83
 10
144.87043087
 20
116.50353998
 30
0.0
 40
3.0
  0
CIRCLE
  8
0
  6
CONTINUOUS
 62
       7
  5
84
 10
106.87043087
 20
116.50353998
 30
0.0
 40
1.75
  0
CIRCLE
  8
0
  6
CONTINUOUS
 62
       7
  5
85
 10
144.87043087
 20
108.50353998
 30
0.0
 40
1.75
  0
LINE
  8
0
  6
CONTINUOUS
 62
       7
  5
86
 10
117.10786778
 20
115.2661031
 30
0.0
 11
114.632994
 21
117.74097688
 31
0.0
  0
LINE
  8
0
  6
CONTINUOUS
 62
       7
  5
87
 10
117.10786776
 20
117.74097686
 30
0.0
 11
114.63299403
 21
115.26610312
 31
0.0
  0
LINE
  8
0
  6
CONTINUOUS
 62
       7
  5
88
 10
127.10786778
 20
115.26610306
 30
0.0
 11
124.632994
 21
117.74097684
 31
0.0
  0
LINE
  8
0
  6
CONTINUOUS
 62
       7
  5
89
 10
127.10786776
 20
117.74097682
 30
0.0
 11
124.63299403
 21
115.26610309
 31
0.0
  0
LINE
  8
0
  6
CONTINUOUS
 62
       7
  5
8A
 10
117.10786776
 20
109.74097682
 30
0.0
 11
114.63299403
 21
107.26610309
 31
0.0
  0
LINE
  8
0
  6
CONTINUOUS
 62
       7
  5
8B
 10
117.10786778
 20
107.26610306
 30
0.0
 11
114.632994
 21
109.74097684
 31
0.0
  0
LINE
  8
0
  6
CONTINUOUS
 62
       7
  5
8C
 10
127.10786778
 20
107.26610306
 30
0.0
 11
124.632994
 21
109.74097684
 31
0.0
  0
LINE
  8
0
  6
CONTINUOUS
 62
       7
  5
8D
 10
127.10786776
 20
109.74097682
 30
0.0
 11
124.63299403
 21
107.26610309
 31
0.0
  0
LINE
  8
0
  6
CONTINUOUS
 62
       7
  5
8E
 10
137.10786778
 20
107.26610306
 30
0.0
 11
134.632994
 21
109.74097684
 31
0.0
  0
LINE
  8
0
  6
CONTINUOUS
 62
       7
  5
8F
 10
137.10786776
 20
109.74097682
 30
0.0
 11
134.63299403
 21
107.26610309
 31
0.0
  0
LINE
  8
0
  6
CONTINUOUS
 62
       7
  5
90
 10
137.10786778
 20
115.26610312
 30
0.0
 11
134.632994
 21
117.7409769
 31
0.0
  0
LINE
  8
0
  6
CONTINUOUS
 62
       7
  5
91
 10
137.10786776
 20
117.74097687
 30
0.0
 11
134.63299403
 21
115.26610314
 31
0.0
  0
LINE
  8
0
  6
CONTINUOUS
 62
       7
  5
92
 10
146.10786773
 20
115.26610312
 30
0.0
 11
143.63299395
 21
117.7409769
 31
0.0
  0
LINE
  8
0
  6
CONTINUOUS
 62
       7
  5
93
 10
146.10786771
 20
117.74097687
 30
0.0
 11
143.63299397
 21
115.26610314
 31
0.0
  0
LINE
  8
0
  6
CONTINUOUS
 62
       7
  5
94
 10
108.10786773
 20
107.26610312
 30
0.0
 11
105.63299395
 21
109.7409769
 31
0.0
  0
LINE
  8
0
  6
CONTINUOUS
 62
       7
  5
95
 10
108.10786771
 20
109.74097687
 30
0.0
 11
105.63299397
 21
107.26610314
 31
0.0
  0
LINE
  8
0
  6
CONTINUOUS
 62
       7
  5
96
 10
137.37043087
 20
121.37693719
 30
0.0
 11
137.37043087
 21
127.50353998
 31
0.0
  0
LINE
  8
0
  6
CONTINUOUS
 62
       7
  5
97
 10
134.37043087
 20
121.37693712
 30
0.0
 11
134.37043087
 21
127.50353998
 31
0.0
  0
LINE
  8
0
  6
CONTINUOUS
 62
       7
  5
98
 10
137.37043087
 20
127.50353998
 30
0.0
 11
134.37043087
 21
127.50353998
 31
0.0
  0
ARC
  8
0
  6
CONTINUOUS
 62
       7
  5
99
 10
135.87043092
 20
116.50353998
 30
0.0
 40
4.0
 50
125.68533534
 51
180.0
  0
ARC
  8
0
  6
CONTINUOUS
 62
       7
  5
9A
 10
139.37043087
 20
121.37693719
 30
0.0
 40
2.0
 50
180.0
 51
234.31466591
  0
ARC
  8
0
  6
CONTINUOUS
 62
       7
  5
9B
 10
135.87043092
 20
116.50353998
 30
0.0
 40
4.0
 50
180.0
 51
54.31466591
  0
ARC
  8
0
  6
CONTINUOUS
 62
       7
  5
9C
 10
132.37043087
 20
121.37693712
 30
0.0
 40
2.0
 50
305.68533534
 51
0.0
  0
LINE
  8
0
  6
CONTINUOUS
 62
       7
  5
9D
 10
134.37043087
 20
121.50353998
 30
0.0
 11
131.87043087
 21
121.50353998
 31
0.0
  0
LINE
  8
0
  6
CONTINUOUS
 62
       7
  5
9E
 10
133.82431543
 20
120.00353998
 30
0.0
 11
131.87043087
 21
120.00353998
 31
0.0
  0
LINE
  8
0
  6
CONTINUOUS
 62
       7
  5
9F
 10
137.37043087
 20
122.50353998
 30
0.0
 11
134.37043087
 21
122.50353998
 31
0.0
  0
LINE
  8
0
  6
CONTINUOUS
 62
       7
  5
A0
 10
137.12043087
 20
127.50353998
 30
0.0
 11
137.12043087
 21
129.50353998
 31
0.0
  0
LINE
  8
0
  6
CONTINUOUS
 62
       7
  5
A1
 10
134.62043087
 20
127.50353998
 30
0.0
 11
134.62043087
 21
131.25353998
 31
0.0
  0
ARC
  8
0
  6
CONTINUOUS
 62
       7
  5
A2
 10
135.87043087
 20
131.25353998
 30
0.0
 40
1.25
 50
36.86989765
 51
180.0
  0
LINE
  8
0
  6
CONTINUOUS
 62
       7
  5
A3
 10
117.37043087
 20
121.37693718
 30
0.0
 11
117.37043087
 21
127.50353996
 31
0.0
  0
LINE
  8
0
  6
CONTINUOUS
 62
       7
  5
A4
 10
114.37043087
 20
121.3769371
 30
0.0
 11
114.37043087
 21
127.50353996
 31
0.0
  0
LINE
  8
0
  6
CONTINUOUS
 62
       7
  5
A5
 10
117.37043087
 20
127.50353996
 30
0.0
 11
114.37043087
 21
127.50353996
 31
0.0
  0
ARC
  8
0
  6
CONTINUOUS
 62
       7
  5
A6
 10
115.87043087
 20
131.25353996
 30
0.0
 40
1.25
 50
0.0
 51
143.13010235
  0
LINE
  8
0
  6
CONTINUOUS
 62
       7
  5
A7
 10
114.62043087
 20
127.50353996
 30
0.0
 11
114.62043087
 21
129.50353998
 31
0.0
  0
LINE
  8
0
  6
CONTINUOUS
 62
       7
  5
A8
 10
117.12043087
 20
127.50353996
 30
0.0
 11
117.12043087
 21
131.25353996
 31
0.0
  0
LINE
  8
0
  6
CONTINUOUS
 62
       7
  5
A9
 10
117.37043087
 20
122.50353996
 30
0.0
 11
114.37043087
 21
122.50353996
 31
0.0
  0
ARC
  8
0
  6
CONTINUOUS
 62
       7
  5
AA
 10
112.37043087
 20
121.3769371
 30
0.0
 40
2.0
 50
305.68533534
 51
0.0
  0
ARC
  8
0
  6
CONTINUOUS
 62
       7
  5
AB
 10
119.37043087
 20
121.37693718
 30
0.0
 40
2.0
 50
180.0
 51
234.31466591
  0
ARC
  8
0
  6
CONTINUOUS
 62
       7
  5
AC
 10
115.87043092
 20
116.50353996
 30
0.0
 40
4.0
 50
180.0
 51
54.31466591
  0
ARC
  8
0
  6
CONTINUOUS
 62
       7
  5
AD
 10
115.87043092
 20
116.50353996
 30
0.0
 40
4.0
 50
125.68533534
 51
180.0
  0
LINE
  8
0
  6
CONTINUOUS
 62
       7
  5
AE
 10
114.37043087
 20
121.50353998
 30
0.0
 11
111.87043087
 21
121.50353998
 31
0.0
  0
LINE
  8
0
  6
CONTINUOUS
 62
       7
  5
AF
 10
113.82431544
 20
120.00353998
 30
0.0
 11
111.87043087
 21
120.00353998
 31
0.0
  0
POLYLINE
  8
0
  6
CONTINUOUS
 62
       7
  5
B0
 66
       1
 10
0.0
 20
0.0
 30
0.0
  0
VERTEX
  8
0
  6
CONTINUOUS
 62
       7
  5
218
 10
-91.53265375
 20
3.28332322
 30
0.0
  0
VERTEX
  8
0
  6
CONTINUOUS
 62
       7
  5
219
 10
-91.76402925
 20
2.92035888
 30
0.0
  0
VERTEX
  8
0
  6
CONTINUOUS
 62
       7
  5
21A
 10
-91.98747561
 20
2.55138174
 30
0.0
  0
VERTEX
  8
0
  6
CONTINUOUS
 62
       7
  5
21B
 10
-92.202726
 20
2.17667688
 30
0.0
  0
VERTEX
  8
0
  6
CONTINUOUS
 62
       7
  5
21C
 10
-92.40951358
 20
1.79652939
 30
0.0
  0
VERTEX
  8
0
  6
CONTINUOUS
 62
       7
  5
21D
 10
-92.60757152
 20
1.41122434
 30
0.0
  0
VERTEX
  8
0
  6
CONTINUOUS
 62
       7
  5
21E
 10
-92.79663298
 20
1.02104681
 30
0.0
  0
VERTEX
  8
0
  6
CONTINUOUS
 62
       7
  5
21F
 10
-92.97643112
 20
0.62628189
 30
0.0
  0
VERTEX
  8
0
  6
CONTINUOUS
 62
       7
  5
220
 10
-93.14669912
 20
0.22721464
 30
0.0
  0
VERTEX
  8
0
  6
CONTINUOUS
 62
       7
  5
221
 10
-93.30717013
 20
-0.17586984
 30
0.0
  0
VERTEX
  8
0
  6
CONTINUOUS
 62
       7
  5
222
 10
-93.45757733
 20
-0.58268649
 30
0.0
  0
VERTEX
  8
0
  6
CONTINUOUS
 62
       7
  5
223
 10
-93.59765387
 20
-0.99295022
 30
0.0
  0
VERTEX
  8
0
  6
CONTINUOUS
 62
       7
  5
224
 10
-93.72713292
 20
-1.40637595
 30
0.0
  0
VERTEX
  8
0
  6
CONTINUOUS
 62
       7
  5
225
 10
-93.84574765
 20
-1.8226786
 30
0.0
  0
VERTEX
  8
0
  6
CONTINUOUS
 62
       7
  5
226
 10
-93.95323122
 20
-2.2415731
 30
0.0
  0
VERTEX
  8
0
  6
CONTINUOUS
 62
       7
  5
227
 10
-94.04931679
 20
-2.66277437
 30
0.0
  0
VERTEX
  8
0
  6
CONTINUOUS
 62
       7
  5
228
 10
-94.13373754
 20
-3.08599733
 30
0.0
  0
VERTEX
  8
0
  6
CONTINUOUS
 62
       7
  5
229
 10
-94.1866388
 20
-3.38898663
 30
0.0
  0
VERTEX
  8
0
  6
CONTINUOUS
 62
       7
  5
22A
 10
-94.23347234
 20
-3.69310234
 30
0.0
  0
VERTEX
  8
0
  6
CONTINUOUS
 62
       7
  5
22B
 10
-94.27432468
 20
-3.99819989
 30
0.0
  0
VERTEX
  8
0
  6
CONTINUOUS
 62
       7
  5
22C
 10
-94.30928231
 20
-4.30413473
 30
0.0
  0
VERTEX
  8
0
  6
CONTINUOUS
 62
       7
  5
22D
 10
-94.33843174
 20
-4.61076228
 30
0.0
  0
VERTEX
  8
0
  6
CONTINUOUS
 62
       7
  5
22E
 10
-94.36185947
 20
-4.91793798
 30
0.0
  0
VERTEX
  8
0
  6
CONTINUOUS
 62
       7
  5
22F
 10
-94.37965199
 20
-5.22551728
 30
0.0
  0
VERTEX
  8
0
  6
CONTINUOUS
 62
       7
  5
230
 10
-94.39189582
 20
-5.53335561
 30
0.0
  0
VERTEX
  8
0
  6
CONTINUOUS
 62
       7
  5
231
 10
-94.39867746
 20
-5.84130841
 30
0.0
  0
VERTEX
  8
0
  6
CONTINUOUS
 62
       7
  5
232
 10
-94.4000834
 20
-6.14923111
 30
0.0
  0
VERTEX
  8
0
  6
CONTINUOUS
 62
       7
  5
233
 10
-94.39620016
 20
-6.45697916
 30
0.0
  0
VERTEX
  8
0
  6
CONTINUOUS
 62
       7
  5
234
 10
-94.38711423
 20
-6.76440798
 30
0.0
  0
VERTEX
  8
0
  6
CONTINUOUS
 62
       7
  5
235
 10
-94.37291211
 20
-7.07137303
 30
0.0
  0
VERTEX
  8
0
  6
CONTINUOUS
 62
       7
  5
236
 10
-94.35368031
 20
-7.37772973
 30
0.0
  0
VERTEX
  8
0
  6
CONTINUOUS
 62
       7
  5
237
 10
-94.32950533
 20
-7.68333352
 30
0.0
  0
VERTEX
  8
0
  6
CONTINUOUS
 62
       7
  5
238
 10
-94.30047368
 20
-7.98803984
 30
0.0
  0
SEQEND
  8
0
  6
CONTINUOUS
 62
       7
  5
239
  0
LINE
  8
0
  6
CONTINUOUS
 62
       2
  5
B1
 10
-159.71071968
 20
-14.22397148
 30
0.0
 11
-53.35955085
 21
-14.22397148
 31
0.0
  0
LINE
  8
0
  6
CONTINUOUS
 62
       7
  5
B2
 10
-63.17083633
 20
47.3016642
 30
0.0
 11
-63.17083633
 21
18.28957583
 31
0.0
  0
LINE
  8
0
  6
CONTINUOUS
 62
       7
  5
B3
 10
-153.19167835
 20
5.2841569
 30
0.0
 11
-153.19167835
 21
-28.73001567
 31
0.0
  0
LINE
  8
0
  6
CONTINUOUS
 62
       7
  5
B4
 10
-81.67854787
 20
-30.23064093
 30
0.0
 11
-134.6839668
 21
-30.23064093
 31
0.0
  0
LINE
  8
0
  6
CONTINUOUS
 62
       7
  5
B5
 10
-84.17958998
 20
-5.72042834
 30
0.0
 11
-93.18334154
 21
-5.72042834
 31
0.0
  0
LINE
  8
0
  6
CONTINUOUS
 62
       7
  5
B6
 10
-80.67813103
 20
-31.23105777
 30
0.0
 11
-80.67813103
 21
-38.23397565
 31
0.0
  0
LINE
  8
0
  6
CONTINUOUS
 62
       7
  5
B7
 10
-135.68438364
 20
-31.23105777
 30
0.0
 11
-135.68438364
 21
-38.23397565
 31
0.0
  0
LINE
  8
0
  6
CONTINUOUS
 62
       7
  5
B8
 10
-66.17208685
 20
-31.73126619
 30
0.0
 11
-77.67688051
 21
-31.73126619
 31
0.0
  0
LINE
  8
0
  6
CONTINUOUS
 62
       7
  5
B9
 10
-138.68563416
 20
-31.73126619
 30
0.0
 11
-150.19042782
 21
-31.73126619
 31
0.0
  0
LINE
  8
0
  6
CONTINUOUS
 62
       7
  5
BA
 10
-66.17208685
 20
3.28332322
 30
0.0
 11
-91.53265375
 21
3.28332322
 31
0.0
  0
LINE
  8
0
  6
CONTINUOUS
 62
       7
  5
BB
 10
-88.18125734
 20
48.80228946
 30
0.0
 11
-128.18125734
 21
48.80228946
 31
0.0
  0
LINE
  8
0
  6
CONTINUOUS
 62
       7
  5
BC
 10
-87.1808405
 20
51.80353998
 30
0.0
 11
-87.1808405
 21
34.79645369
 31
0.0
  0
LINE
  8
0
  6
CONTINUOUS
 62
       7
  5
BD
 10
-129.18167418
 20
51.80353998
 30
0.0
 11
-129.18167418
 21
34.79645369
 31
0.0
  0
LINE
  8
0
  6
CONTINUOUS
 62
       7
  5
BE
 10
-88.18125734
 20
42.79978842
 30
0.0
 11
-128.18125734
 21
42.79978842
 31
0.0
  0
LINE
  8
0
  6
CONTINUOUS
 62
       7
  5
BF
 10
-129.5651673
 20
8.28540743
 30
0.0
 11
-150.19042782
 21
8.28540743
 31
0.0
  0
LINE
  8
0
  6
CONTINUOUS
 62
       7
  5
C0
 10
-128.66479214
 20
33.91275215
 30
0.0
 11
-139.8027663
 21
10.00278967
 31
0.0
  0
LINE
  8
0
  6
CONTINUOUS
 62
       7
  5
C1
 10
-66.17208685
 20
50.30291472
 30
0.0
 11
-85.68021524
 21
50.30291472
 31
0.0
  0
LINE
  8
0
  6
CONTINUOUS
 62
       7
  5
C2
 10
-66.17208685
 20
15.28832531
 30
0.0
 11
-79.89447118
 21
15.28832531
 31
0.0
  0
LINE
  8
0
  6
CONTINUOUS
 62
       7
  5
C3
 10
-63.17083633
 20
0.2820727
 30
0.0
 11
-63.17083633
 21
-28.73001567
 31
0.0
  0
LINE
  8
0
  6
CONTINUOUS
 62
       7
  5
C4
 10
-65.17167001
 20
13.80437366
 30
0.0
 11
-65.17167001
 21
4.75060126
 31
0.0
  0
LINE
  8
0
  6
CONTINUOUS
 62
       7
  5
C5
 10
-93.26670961
 20
6.28457374
 30
0.0
 11
-117.86029027
 21
6.28457374
 31
0.0
  0
LINE
  8
0
  6
CONTINUOUS
 62
       7
  5
C6
 10
-82.17875629
 20
-7.72126202
 30
0.0
 11
-82.17875629
 21
-30.23064093
 31
0.0
  0
LINE
  8
0
  6
CONTINUOUS
 62
       7
  5
C7
 10
-94.18375838
 20
-6.72084518
 30
0.0
 11
-94.18375838
 21
-30.23064093
 31
0.0
  0
LINE
  8
0
  6
CONTINUOUS
 62
       7
  5
C8
 10
-97.1850089
 20
-7.2210536
 30
0.0
 11
-119.17750577
 21
-7.2210536
 31
0.0
  0
LINE
  8
0
  6
CONTINUOUS
 62
       7
  5
C9
 10
-122.17875629
 20
-6.72084518
 30
0.0
 11
-122.17875629
 21
-30.23064093
 31
0.0
  0
LINE
  8
0
  6
CONTINUOUS
 62
       7
  5
CA
 10
-134.18375838
 20
-5.72042834
 30
0.0
 11
-134.18375838
 21
-30.23064093
 31
0.0
  0
LINE
  8
0
  6
CONTINUOUS
 62
       7
  5
CB
 10
-116.17625525
 20
-5.72042834
 30
0.0
 11
-121.17833945
 21
-5.72042834
 31
0.0
  0
LINE
  8
0
  6
CONTINUOUS
 62
       7
  5
CC
 10
-134.18375838
 20
-5.72042834
 30
0.0
 11
-139.15249535
 21
-5.72042834
 31
0.0
  0
LINE
  8
0
  6
CONTINUOUS
 62
       7
  5
CD
 10
-115.17583841
 20
3.28332322
 30
0.0
 11
-115.17583841
 21
-4.7200115
 31
0.0
  0
LINE
  8
0
  6
CONTINUOUS
 62
       7
  5
CE
 10
-125.18000682
 20
31.79520317
 30
0.0
 11
-125.18000682
 21
12.02029696
 31
0.0
  0
LINE
  8
0
  6
CONTINUOUS
 62
       7
  5
CF
 10
-95.18417522
 20
31.79520317
 30
0.0
 11
-95.18417522
 21
12.40379009
 31
0.0
  0
LINE
  8
0
  6
CONTINUOUS
 62
       7
  5
D0
 10
-82.17875629
 20
41.79937158
 30
0.0
 11
-82.17875629
 21
23.79186845
 31
0.0
  0
LINE
  8
0
  6
CONTINUOUS
 62
       7
  5
D1
 10
-80.67813103
 20
-38.23397565
 30
0.0
 11
-135.68438364
 21
-38.23397565
 31
0.0
  0
LINE
  8
0
  6
CONTINUOUS
 62
       7
  5
D2
 10
-87.1808405
 20
51.80353998
 30
0.0
 11
-129.18167418
 21
51.80353998
 31
0.0
  0
LINE
  8
0
  6
CONTINUOUS
 62
       7
  5
D3
 10
-88.18125734
 20
33.79603685
 30
0.0
 11
-128.18125734
 21
33.79603685
 31
0.0
  0
LINE
  8
0
  6
CONTINUOUS
 62
       7
  5
D4
 10
-82.17875629
 20
41.79937158
 30
0.0
 11
-87.1808405
 21
41.79937158
 31
0.0
  0
LINE
  8
0
  6
CONTINUOUS
 62
       7
  5
D5
 10
-77.81026942
 20
23.79186845
 30
0.0
 11
-82.17875629
 21
23.79186845
 31
0.0
  0
LINE
  8
0
  6
CONTINUOUS
 62
       7
  5
D6
 10
-92.1829247
 20
9.38586595
 30
0.0
 11
-92.1829247
 21
8.28540743
 31
0.0
  0
LINE
  8
0
  6
CONTINUOUS
 62
       7
  5
D7
 10
-119.89447118
 20
8.26873381
 30
0.0
 11
-119.89447118
 21
8.00195599
 31
0.0
  0
LINE
  8
0
  6
CONTINUOUS
 62
       7
  5
D8
 10
-88.18125734
 20
47.80187262
 30
0.0
 11
-88.18125734
 21
43.80020526
 31
0.0
  0
LINE
  8
0
  6
CONTINUOUS
 62
       7
  5
D9
 10
-128.18125734
 20
47.80187262
 30
0.0
 11
-128.18125734
 21
43.80020526
 31
0.0
  0
LINE
  8
0
  6
CONTINUOUS
 62
       7
  5
DA
 10
98.35896776
 20
-38.23397565
 30
0.0
 11
153.38189398
 21
-38.23397565
 31
0.0
  0
LINE
  8
0
  6
CONTINUOUS
 62
       7
  5
DB
 10
135.95796734
 20
-30.23064093
 30
0.0
 11
152.38147714
 21
-30.23064093
 31
0.0
  0
LINE
  8
0
  6
CONTINUOUS
 62
       7
  5
DC
 10
153.38189398
 20
47.80187262
 30
0.0
 11
153.38189398
 21
43.80020526
 31
0.0
  0
LINE
  8
0
  6
CONTINUOUS
 62
       7
  5
DD
 10
153.38189398
 20
-31.23105777
 30
0.0
 11
153.38189398
 21
-38.23397565
 31
0.0
  0
LINE
  8
0
  6
CONTINUOUS
 62
       7
  5
DE
 10
145.87876767
 20
39.7985379
 30
0.0
 11
145.87876767
 21
34.79645369
 31
0.0
  0
LINE
  8
0
  6
CONTINUOUS
 62
       7
  5
DF
 10
141.87710031
 20
5.18161418
 30
0.0
 11
141.87710031
 21
-1.58787311
 31
0.0
  0
LINE
  8
0
  6
CONTINUOUS
 62
       2
  5
E0
 10
113.73203987
 20
-14.22397148
 30
0.0
 11
138.80915534
 21
-14.22397148
 31
0.0
  0
LINE
  8
0
  6
CONTINUOUS
 62
       7
  5
E1
 10
135.87334875
 20
7.76602435
 30
0.0
 11
143.49444087
 21
7.76602435
 31
0.0
  0
LINE
  8
0
  6
CONTINUOUS
 62
       7
  5
E2
 10
145.87876767
 20
-7.24022826
 30
0.0
 11
145.87876767
 21
-27.22939041
 31
0.0
  0
LINE
  8
0
  6
CONTINUOUS
 62
       7
  5
E3
 10
132.87334875
 20
16.75368014
 30
0.0
 11
132.87334875
 21
3.07707264
 31
0.0
  0
LINE
  8
0
  6
CONTINUOUS
 62
       7
  5
E4
 10
132.95345223
 20
48.80228946
 30
0.0
 11
152.38147714
 21
48.80228946
 31
0.0
  0
LINE
  8
0
  6
CONTINUOUS
 62
       7
  5
E5
 10
144.37814241
 20
33.79603685
 30
0.0
 11
145.36188564
 21
33.79603685
 31
0.0
  0
LINE
  8
0
  6
CONTINUOUS
 62
       7
  5
E6
 10
146.87918451
 20
40.29874632
 30
0.0
 11
146.87918451
 21
35.29666212
 31
0.0
  0
LINE
  8
0
  6
CONTINUOUS
 62
       7
  5
E7
 10
144.87835083
 20
32.14534907
 30
0.0
 11
144.87835083
 21
9.76685803
 31
0.0
  0
LINE
  8
0
  6
CONTINUOUS
 62
       7
  5
E8
 10
145.87876767
 20
35.29666212
 30
0.0
 11
146.87918451
 21
35.29666212
 31
0.0
  0
LINE
  8
0
  6
CONTINUOUS
 62
       7
  5
E9
 10
145.9121149
 20
40.29874632
 30
0.0
 11
146.87918451
 21
40.29874632
 31
0.0
  0
LINE
  8
0
  6
CONTINUOUS
 62
       7
  5
EA
 10
104.86167722
 20
51.80353998
 30
0.0
 11
146.87918451
 21
51.80353998
 31
0.0
  0
LINE
  8
0
  6
CONTINUOUS
 62
       7
  5
EB
 10
146.87918451
 20
51.80353998
 30
0.0
 11
146.87918451
 21
50.30291472
 31
0.0
  0
LINE
  8
0
  6
CONTINUOUS
 62
       7
  5
EC
 10
115.86751298
 20
7.76602435
 30
0.0
 11
108.24642086
 21
7.76602435
 31
0.0
  0
LINE
  8
0
  6
CONTINUOUS
 62
       7
  5
ED
 10
105.86209406
 20
-7.24022826
 30
0.0
 11
105.86209406
 21
-27.22939041
 31
0.0
  0
LINE
  8
0
  6
CONTINUOUS
 62
       7
  5
EE
 10
118.86751298
 20
16.74614379
 30
0.0
 11
118.86751298
 21
3.086056
 31
0.0
  0
LINE
  8
0
  6
CONTINUOUS
 62
       7
  5
EF
 10
118.77014156
 20
48.80228946
 30
0.0
 11
99.3593846
 21
48.80228946
 31
0.0
  0
LINE
  8
0
  6
CONTINUOUS
 62
       7
  5
F0
 10
102.86084354
 20
42.79978842
 30
0.0
 11
99.3593846
 21
42.79978842
 31
0.0
  0
LINE
  8
0
  6
CONTINUOUS
 62
       7
  5
F1
 10
107.36271932
 20
33.79603685
 30
0.0
 11
106.36230248
 21
33.79603685
 31
0.0
  0
LINE
  8
0
  6
CONTINUOUS
 62
       7
  5
F2
 10
104.86167722
 20
40.29874632
 30
0.0
 11
104.86167722
 21
35.29666212
 31
0.0
  0
LINE
  8
0
  6
CONTINUOUS
 62
       7
  5
F3
 10
106.8625109
 20
32.14534907
 30
0.0
 11
106.8625109
 21
9.75852516
 31
0.0
  0
LINE
  8
0
  6
CONTINUOUS
 62
       7
  5
F4
 10
105.86209406
 20
35.29666212
 30
0.0
 11
104.86167722
 21
35.29666212
 31
0.0
  0
LINE
  8
0
  6
CONTINUOUS
 62
       7
  5
F5
 10
105.81207322
 20
40.29874632
 30
0.0
 11
104.86167722
 21
40.29874632
 31
0.0
  0
LINE
  8
0
  6
CONTINUOUS
 62
       7
  5
F6
 10
104.86167722
 20
51.80353998
 30
0.0
 11
104.86167722
 21
50.30291472
 31
0.0
  0
LINE
  8
0
  6
CONTINUOUS
 62
       7
  5
F7
 10
115.78289439
 20
-30.23064093
 30
0.0
 11
99.3593846
 21
-30.23064093
 31
0.0
  0
LINE
  8
0
  6
CONTINUOUS
 62
       7
  5
F8
 10
98.35896776
 20
47.80187262
 30
0.0
 11
98.35896776
 21
43.80020526
 31
0.0
  0
LINE
  8
0
  6
CONTINUOUS
 62
       7
  5
F9
 10
98.35896776
 20
-31.23105777
 30
0.0
 11
98.35896776
 21
-38.23397565
 31
0.0
  0
LINE
  8
0
  6
CONTINUOUS
 62
       7
  5
FA
 10
105.86209406
 20
39.7985379
 30
0.0
 11
105.86209406
 21
34.79645369
 31
0.0
  0
LINE
  8
0
  6
CONTINUOUS
 62
       7
  5
FB
 10
109.86376142
 20
5.18161418
 30
0.0
 11
109.86376142
 21
-1.58787311
 31
0.0
  0
LINE
  8
0
  6
CONTINUOUS
 62
       7
  5
FC
 10
108.54654591
 20
-11.72292938
 30
0.0
 11
107.36271932
 21
-11.72292938
 31
0.0
  0
LINE
  8
0
  6
CONTINUOUS
 62
       7
  5
FD
 10
108.54654591
 20
-16.72501358
 30
0.0
 11
107.36271932
 21
-16.72501358
 31
0.0
  0
LINE
  8
0
  6
CONTINUOUS
 62
       7
  5
FE
 10
107.36271932
 20
-11.72292938
 30
0.0
 11
107.36271932
 21
-16.72501358
 31
0.0
  0
LINE
  8
0
  6
CONTINUOUS
 62
       7
  5
FF
 10
143.19431582
 20
-11.72292938
 30
0.0
 11
144.37814241
 21
-11.72292938
 31
0.0
  0
LINE
  8
0
  6
CONTINUOUS
 62
       7
  5
100
 10
144.37814241
 20
-11.72292938
 30
0.0
 11
144.37814241
 21
-16.72501358
 31
0.0
  0
LINE
  8
0
  6
CONTINUOUS
 62
       7
  5
101
 10
143.19431582
 20
-16.72501358
 30
0.0
 11
144.37814241
 21
-16.72501358
 31
0.0
  0
LINE
  8
0
  6
CONTINUOUS
 62
       2
  5
102
 10
-108.18959414
 20
-127.92134539
 30
0.0
 11
-108.18959414
 21
-190.21396731
 31
0.0
  0
LINE
  8
0
  6
CONTINUOUS
 62
       7
  5
103
 10
-131.78275796
 20
-186.61246669
 30
0.0
 11
-84.57975671
 21
-186.61246669
 31
0.0
  0
LINE
  8
0
  6
CONTINUOUS
 62
       2
  5
104
 10
-59.46929402
 20
-159.10100358
 30
0.0
 11
-155.65937322
 21
-159.10100358
 31
0.0
  0
LINE
  8
0
  6
CONTINUOUS
 62
       7
  5
105
 10
-134.78400848
 20
-183.71125785
 30
0.0
 11
-135.68438364
 21
-159.10100358
 31
0.0
  0
LINE
  8
0
  6
CONTINUOUS
 62
       7
  5
106
 10
-135.68438364
 20
-159.10100358
 30
0.0
 11
-134.78400848
 21
-134.47407569
 31
0.0
  0
LINE
  8
0
  6
CONTINUOUS
 62
       7
  5
107
 10
-135.05078631
 20
-141.59370887
 30
0.0
 11
-150.19042782
 21
-141.59370887
 31
0.0
  0
LINE
  8
0
  6
CONTINUOUS
 62
       7
  5
108
 10
-135.05078631
 20
-176.60829829
 30
0.0
 11
-150.19042782
 21
-176.60829829
 31
0.0
  0
LINE
  8
0
  6
CONTINUOUS
 62
       7
  5
109
 10
-153.19167835
 20
-144.59495939
 30
0.0
 11
-153.19167835
 21
-173.60704776
 31
0.0
  0
LINE
  8
0
  6
CONTINUOUS
 62
       7
  5
10A
 10
-131.78275796
 20
-131.58954047
 30
0.0
 11
-84.57975671
 21
-131.58954047
 31
0.0
  0
LINE
  8
0
  6
CONTINUOUS
 62
       7
  5
10B
 10
-81.57850619
 20
-183.71125785
 30
0.0
 11
-80.67813103
 21
-159.10100358
 31
0.0
  0
LINE
  8
0
  6
CONTINUOUS
 62
       7
  5
10C
 10
-80.67813103
 20
-159.10100358
 30
0.0
 11
-81.57850619
 21
-134.47407569
 31
0.0
  0
LINE
  8
0
  6
CONTINUOUS
 62
       7
  5
10D
 10
-81.31172837
 20
-141.59370887
 30
0.0
 11
-66.17208685
 21
-141.59370887
 31
0.0
  0
LINE
  8
0
  6
CONTINUOUS
 62
       7
  5
10E
 10
-81.31172837
 20
-176.60829829
 30
0.0
 11
-66.17208685
 21
-176.60829829
 31
0.0
  0
LINE
  8
0
  6
CONTINUOUS
 62
       7
  5
10F
 10
-63.17083633
 20
-144.59495939
 30
0.0
 11
-63.17083633
 21
-173.60704776
 31
0.0
  0
LINE
  8
0
  6
CONTINUOUS
 62
       2
  5
110
 10
-128.18125734
 20
-135.15769387
 30
0.0
 11
-128.18125734
 21
-143.02763968
 31
0.0
  0
LINE
  8
0
  6
CONTINUOUS
 62
       2
  5
111
 10
-123.54599264
 20
-179.10934039
 30
0.0
 11
-132.48304975
 21
-179.10934039
 31
0.0
  0
LINE
  8
0
  6
CONTINUOUS
 62
       2
  5
112
 10
-123.89613854
 20
-139.09266677
 30
0.0
 11
-132.53307059
 21
-139.09266677
 31
0.0
  0
LINE
  8
0
  6
CONTINUOUS
 62
       2
  5
113
 10
-128.18125734
 20
-174.94093688
 30
0.0
 11
-128.18125734
 21
-183.59454255
 31
0.0
  0
LINE
  8
0
  6
CONTINUOUS
 62
       2
  5
114
 10
-92.26629277
 20
-139.09266677
 30
0.0
 11
-84.2129372
 21
-139.09266677
 31
0.0
  0
LINE
  8
0
  6
CONTINUOUS
 62
       2
  5
115
 10
-88.18125734
 20
-134.87424243
 30
0.0
 11
-88.18125734
 21
-143.4111328
 31
0.0
  0
LINE
  8
0
  6
CONTINUOUS
 62
       2
  5
116
 10
-88.18125734
 20
-175.04097857
 30
0.0
 11
-88.18125734
 21
-183.19437582
 31
0.0
  0
LINE
  8
0
  6
CONTINUOUS
 62
       2
  5
117
 10
-92.13290386
 20
-179.10934039
 30
0.0
 11
-84.06287468
 21
-179.10934039
 31
0.0
  0
ARC
  8
0
  6
CONTINUOUS
 62
       7
  5
118
 10
-81.67440084
 20
-31.22691074
 30
0.0
 40
0.99627844
 50
359.7615044
 51
90.2384956
  0
ARC
  8
0
  6
CONTINUOUS
 62
       7
  5
119
 10
-134.68812476
 20
-31.22689981
 30
0.0
 40
0.99626756
 50
89.76087342
 51
180.23912658
  0
ARC
  8
0
  6
CONTINUOUS
 62
       7
  5
11A
 10
-66.16792641
 20
-28.7341761
 30
0.0
 40
2.99709297
 50
269.92046446
 51
0.07953554
  0
ARC
  8
0
  6
CONTINUOUS
 62
       7
  5
11B
 10
-150.19458572
 20
-28.73417356
 30
0.0
 40
2.99709551
 50
179.9205131
 51
270.0794869
  0
ARC
  8
0
  6
CONTINUOUS
 62
       7
  5
11C
 10
-77.67270414
 20
-34.73669308
 30
0.0
 40
3.0054298
 50
90.07961876
 51
179.92038124
  0
ARC
  8
0
  6
CONTINUOUS
 62
       7
  5
11D
 10
-138.68980799
 20
-34.73669053
 30
0.0
 40
3.00542724
 50
0.07957026
 51
89.92042974
  0
ARC
  8
0
  6
CONTINUOUS
 62
       7
  5
11E
 10
-66.16413985
 20
0.2828936
 30
0.0
 40
2.99330363
 50
359.98428691
 51
48.25767933
  0
ARC
  8
0
  6
CONTINUOUS
 62
       7
  5
11F
 10
-150.19457553
 20
5.28830461
 30
0.0
 40
2.99710569
 50
89.92070818
 51
180.07929182
  0
ARC
  8
0
  6
CONTINUOUS
 62
       7
  5
120
 10
-142.52006161
 20
11.29379283
 30
0.0
 40
3.00838544
 50
269.99040555
 51
334.58732932
  0
ARC
  8
0
  6
CONTINUOUS
 62
       7
  5
121
 10
-128.18541993
 20
43.79604267
 30
0.0
 40
0.99626295
 50
179.76060578
 51
270.23939422
  0
ARC
  8
0
  6
CONTINUOUS
 62
       7
  5
122
 10
-128.18540971
 20
47.80602499
 30
0.0
 40
0.99627312
 50
89.76119594
 51
180.23880406
  0
ARC
  8
0
  6
CONTINUOUS
 62
       7
  5
123
 10
-88.1771056
 20
47.80602436
 30
0.0
 40
0.99627375
 50
359.76123251
 51
90.23876749
  0
ARC
  8
0
  6
CONTINUOUS
 62
       7
  5
124
 10
-88.17709538
 20
43.7960433
 30
0.0
 40
0.99626358
 50
269.76064236
 51
0.23935764
  0
ARC
  8
0
  6
CONTINUOUS
 62
       7
  5
125
 10
-66.1703268
 20
18.27489891
 30
0.0
 40
2.99952638
 50
311.79466811
 51
0.28035394
  0
ARC
  8
0
  6
CONTINUOUS
 62
       7
  5
126
 10
-66.16792641
 20
47.30582463
 30
0.0
 40
2.99709297
 50
359.92046446
 51
90.07953554
  0
ARC
  8
0
  6
CONTINUOUS
 62
       7
  5
127
 10
-85.67604056
 20
51.80771465
 30
0.0
 40
1.50480572
 50
180.15895165
 51
269.84104835
  0
ARC
  8
0
  6
CONTINUOUS
 62
       7
  5
128
 10
-120.18355233
 20
-12.72140743
 30
0.0
 40
23.00300518
 50
97.14775977
 51
154.64033306
  0
ARC
  8
0
  6
CONTINUOUS
 62
       7
  5
129
 10
-94.18352984
 20
29.28825732
 30
0.0
 40
20.00762219
 50
276.74742542
 51
335.39334027
  0
ARC
  8
0
  6
CONTINUOUS
 62
       7
  5
12A
 10
-128.18541482
 20
34.79229621
 30
0.0
 40
0.99626803
 50
179.76090086
 51
270.23909914
  0
ARC
  8
0
  6
CONTINUOUS
 62
       7
  5
12B
 10
-118.18126483
 20
3.27914732
 30
0.0
 40
3.00542932
 50
0.0796098
 51
89.9203902
  0
ARC
  8
0
  6
CONTINUOUS
 62
       7
  5
12C
 10
-92.17664905
 20
12.40701794
 30
0.0
 40
3.0075279
 50
180.06149323
 51
276.56535757
  0
ARC
  8
0
  6
CONTINUOUS
 62
       7
  5
12D
 10
-77.80735206
 20
21.79383708
 30
0.0
 40
1.9980335
 50
335.25041603
 51
90.08365865
  0
ARC
  8
0
  6
CONTINUOUS
 62
       7
  5
12E
 10
-139.16520157
 20
-3.72369618
 30
0.0
 40
1.99677259
 50
154.66446794
 51
270.36459708
  0
ARC
  8
0
  6
CONTINUOUS
 62
       7
  5
12F
 10
-116.18042442
 20
-4.71584233
 30
0.0
 40
1.00459466
 50
270.23778384
 51
359.76221616
  0
ARC
  8
0
  6
CONTINUOUS
 62
       7
  5
130
 10
-93.1791597
 20
-6.72502701
 30
0.0
 40
1.00460738
 50
90.23850333
 51
179.76149667
  0
ARC
  8
0
  6
CONTINUOUS
 62
       7
  5
131
 10
-121.18249375
 20
-6.71669089
 30
0.0
 40
0.99627121
 50
89.76108498
 51
180.23891502
  0
ARC
  8
0
  6
CONTINUOUS
 62
       7
  5
132
 10
-128.18610327
 20
12.03037225
 30
0.0
 40
3.00611334
 50
287.85886214
 51
359.80796717
  0
ARC
  8
0
  6
CONTINUOUS
 62
       7
  5
133
 10
-127.18501404
 20
31.79102963
 30
0.0
 40
2.00501157
 50
0.11926441
 51
89.88073559
  0
ARC
  8
0
  6
CONTINUOUS
 62
       7
  5
134
 10
-93.17916911
 20
31.79103075
 30
0.0
 40
2.00501045
 50
90.11923261
 51
179.88076739
  0
ARC
  8
0
  6
CONTINUOUS
 62
       7
  5
135
 10
-122.67703315
 20
7.12703159
 30
0.0
 40
2.99855992
 50
21.00859643
 51
97.0638905
  0
ARC
  8
0
  6
CONTINUOUS
 62
       7
  5
136
 10
-117.07143449
 20
9.28090782
 30
0.0
 40
3.09638012
 50
201.05099316
 51
269.90385403
  0
ARC
  8
0
  6
CONTINUOUS
 62
       7
  5
137
 10
-94.17478892
 20
8.28678658
 30
0.0
 40
1.9918647
 50
311.05586917
 51
359.96032878
  0
ARC
  8
0
  6
CONTINUOUS
 62
       7
  5
138
 10
-88.17710049
 20
34.79229685
 30
0.0
 40
0.99626866
 50
269.76093744
 51
0.23906256
  0
ARC
  8
0
  6
CONTINUOUS
 62
       7
  5
139
 10
-91.53040825
 20
5.28898224
 30
0.0
 40
2.00566028
 50
131.77306352
 51
269.93585256
  0
ARC
  8
0
  6
CONTINUOUS
 62
       7
  5
13A
 10
-62.16245643
 20
4.75690426
 30
0.0
 40
3.00922017
 50
180.12000978
 51
228.12195646
  0
ARC
  8
0
  6
CONTINUOUS
 62
       7
  5
13B
 10
-62.16863001
 20
13.80083494
 30
0.0
 40
3.00304209
 50
131.82554986
 51
179.9324839
  0
ARC
  8
0
  6
CONTINUOUS
 62
       7
  5
13C
 10
-66.16793661
 20
0.28622295
 30
0.0
 40
2.99710315
 50
359.92065955
 51
90.07934045
  0
ARC
  8
0
  6
CONTINUOUS
 62
       7
  5
13D
 10
-66.16792387
 20
18.28541285
 30
0.0
 40
2.99709043
 50
269.92041568
 51
0.07958432
  0
ARC
  8
0
  6
CONTINUOUS
 62
       7
  5
13E
 10
-84.17544627
 20
-7.71711831
 30
0.0
 40
1.99669427
 50
359.88109489
 51
90.11890511
  0
ARC
  8
0
  6
CONTINUOUS
 62
       7
  5
13F
 10
-97.18085358
 20
-10.2181488
 30
0.0
 40
2.99709808
 50
359.92056241
 51
90.07943759
  0
ARC
  8
0
  6
CONTINUOUS
 62
       7
  5
140
 10
-119.18166093
 20
-10.21814896
 30
0.0
 40
2.99709824
 50
89.92056545
 51
180.07943455
  0
ARC
  8
0
  6
CONTINUOUS
 62
       7
  5
141
 10
-127.18499334
 20
47.80602547
 30
0.0
 40
0.99627265
 50
89.7611685
 51
180.2388315
  0
ARC
  8
0
  6
CONTINUOUS
 62
       7
  5
142
 10
-127.18500356
 20
43.79604219
 30
0.0
 40
0.99626247
 50
179.76057834
 51
270.23942166
  0
ARC
  8
0
  6
CONTINUOUS
 62
       7
  5
143
 10
-89.17751174
 20
43.79604283
 30
0.0
 40
0.9962631
 50
269.76061492
 51
0.23938508
  0
ARC
  8
0
  6
CONTINUOUS
 62
       7
  5
144
 10
-89.17752196
 20
47.80602483
 30
0.0
 40
0.99627328
 50
359.76120508
 51
90.23879492
  0
ARC
  8
0
  6
CONTINUOUS
 62
       7
  5
145
 10
99.35508455
 20
-31.22675772
 30
0.0
 40
0.99612607
 50
89.75266644
 51
180.24733356
  0
ARC
  8
0
  6
CONTINUOUS
 62
       7
  5
146
 10
102.85652852
 20
-27.22507539
 30
0.0
 40
3.00556863
 50
270.08225806
 51
359.91774194
  0
ARC
  8
0
  6
CONTINUOUS
 62
       7
  5
147
 10
152.37715597
 20
-31.23537893
 30
0.0
 40
1.0047473
 50
0.24641553
 51
89.75358447
  0
ARC
  8
0
  6
CONTINUOUS
 62
       7
  5
148
 10
148.87569921
 20
-27.23370939
 30
0.0
 40
2.99693465
 50
179.91742911
 51
270.08257089
  0
CIRCLE
  8
0
  6
CONTINUOUS
 62
       7
  5
149
 10
125.8617969
 20
-14.22398166
 30
0.0
 40
17.50729471
  0
ARC
  8
0
  6
CONTINUOUS
 62
       7
  5
14A
 10
125.08249912
 20
33.1093638
 30
0.0
 40
17.51048727
 50
249.21088457
 51
249.677025
  0
ARC
  8
0
  6
CONTINUOUS
 62
       7
  5
14B
 10
142.8773132
 20
-7.252163
 30
0.0
 40
3.00147821
 50
0.22782515
 51
70.52618646
  0
ARC
  8
0
  6
CONTINUOUS
 62
       7
  5
14C
 10
126.65596133
 20
33.11576722
 30
0.0
 40
17.51732607
 50
290.323066
 51
290.78902444
  0
ARC
  8
0
  6
CONTINUOUS
 62
       7
  5
14D
 10
144.87815387
 20
-1.59291614
 30
0.0
 40
3.0010578
 50
179.90371902
 51
250.53146691
  0
ARC
  8
0
  6
CONTINUOUS
 62
       7
  5
14E
 10
144.8690785
 20
34.79472032
 30
0.0
 40
1.00969066
 50
318.78954743
 51
0.09836213
  0
ARC
  8
0
  6
CONTINUOUS
 62
       7
  5
14F
 10
147.87031814
 20
32.14787872
 30
0.0
 40
2.99196838
 50
138.52320773
 51
180.04844258
  0
ARC
  8
0
  6
CONTINUOUS
 62
       7
  5
150
 10
148.87570431
 20
39.80285178
 30
0.0
 40
2.99693974
 50
89.91752667
 51
180.08247333
  0
ARC
  8
0
  6
CONTINUOUS
 62
       7
  5
151
 10
152.37716104
 20
43.80452136
 30
0.0
 40
1.00474221
 50
270.24612786
 51
359.75387214
  0
ARC
  8
0
  6
CONTINUOUS
 62
       7
  5
152
 10
152.3771509
 20
47.79754639
 30
0.0
 40
1.00475239
 50
0.2467032
 51
89.7532968
  0
ARC
  8
0
  6
CONTINUOUS
 62
       7
  5
153
 10
148.37549135
 20
50.29859629
 30
0.0
 40
1.49631306
 50
179.83464148
 51
270.16535852
  0
ARC
  8
0
  6
CONTINUOUS
 62
       7
  5
154
 10
142.87133145
 20
9.7706037
 30
0.0
 40
2.00702288
 50
293.69378946
 51
359.89306991
  0
ARC
  8
0
  6
CONTINUOUS
 62
       7
  5
155
 10
144.87218277
 20
5.18610619
 30
0.0
 40
2.99508582
 50
113.5009274
 51
180.08593197
  0
ARC
  8
0
  6
CONTINUOUS
 62
       7
  5
156
 10
135.95244205
 20
-27.22865561
 30
0.0
 40
3.0019904
 50
233.66841307
 51
270.10545532
  0
ARC
  8
0
  6
CONTINUOUS
 62
       7
  5
157
 10
115.78673354
 20
-27.22350085
 30
0.0
 40
3.00714253
 50
269.92685177
 51
306.29927985
  0
ARC
  8
0
  6
CONTINUOUS
 62
       7
  5
158
 10
106.85669254
 20
34.78906131
 30
0.0
 40
0.99462595
 50
179.57415487
 51
221.53793557
  0
ARC
  8
0
  6
CONTINUOUS
 62
       7
  5
159
 10
103.85542734
 20
32.1421625
 30
0.0
 40
3.00708524
 50
0.06071562
 51
41.36763407
  0
ARC
  8
0
  6
CONTINUOUS
 62
       7
  5
15A
 10
102.85652344
 20
39.7942178
 30
0.0
 40
3.00557372
 50
0.08235478
 51
89.91764522
  0
ARC
  8
0
  6
CONTINUOUS
 62
       7
  5
15B
 10
99.35507944
 20
43.7959001
 30
0.0
 40
0.99612098
 50
179.75237124
 51
270.24762876
  0
ARC
  8
0
  6
CONTINUOUS
 62
       7
  5
15C
 10
99.35508966
 20
47.80616756
 30
0.0
 40
0.99613116
 50
89.75296165
 51
180.24703835
  0
ARC
  8
0
  6
CONTINUOUS
 62
       7
  5
15D
 10
103.35673638
 20
50.3072303
 30
0.0
 40
1.50494703
 50
270.16430149
 51
359.83569851
  0
ARC
  8
0
  6
CONTINUOUS
 62
       7
  5
15E
 10
108.85744235
 20
9.76269159
 30
0.0
 40
1.9949358
 50
179.88033728
 51
246.53280335
  0
ARC
  8
0
  6
CONTINUOUS
 62
       7
  5
15F
 10
106.85660748
 20
5.17820485
 30
0.0
 40
3.00715588
 50
0.06495836
 51
66.34818227
  0
ARC
  8
0
  6
CONTINUOUS
 62
       7
  5
160
 10
106.85122078
 20
-1.58480762
 30
0.0
 40
3.0125422
 50
289.62311692
 51
359.94169715
  0
ARC
  8
0
  6
CONTINUOUS
 62
       7
  5
161
 10
108.85204726
 20
-7.24399641
 30
0.0
 40
2.98995558
 50
109.31819666
 51
179.92779172
  0
ARC
  8
0
  6
CONTINUOUS
 62
       7
  5
162
 10
-131.79134627
 20
-134.58421647
 30
0.0
 40
2.99468832
 50
89.83568428
 51
177.89225964
  0
ARC
  8
0
  6
CONTINUOUS
 62
       7
  5
163
 10
-131.79107229
 20
-183.61809234
 30
0.0
 40
2.9943859
 50
181.78295405
 51
270.15908981
  0
ARC
  8
0
  6
CONTINUOUS
 62
       7
  5
164
 10
-150.19458062
 20
-144.5908066
 30
0.0
 40
2.9971006
 50
89.92061064
 51
180.07938936
  0
ARC
  8
0
  6
CONTINUOUS
 62
       7
  5
165
 10
-150.19458062
 20
-173.61120056
 30
0.0
 40
2.9971006
 50
179.92061064
 51
270.07938936
  0
ARC
  8
0
  6
CONTINUOUS
 62
       7
  5
166
 10
-66.16793151
 20
-173.6112031
 30
0.0
 40
2.99709806
 50
269.920562
 51
0.079438
  0
ARC
  8
0
  6
CONTINUOUS
 62
       7
  5
167
 10
-84.57117739
 20
-134.58422582
 30
0.0
 40
2.99469764
 50
2.10791285
 51
90.16414323
  0
ARC
  8
0
  6
CONTINUOUS
 62
       7
  5
168
 10
-84.57145143
 20
-183.61808298
 30
0.0
 40
2.99439522
 50
269.84108369
 51
358.21687245
  0
ARC
  8
0
  6
CONTINUOUS
 62
       7
  5
169
 10
-66.16793151
 20
-144.59080405
 30
0.0
 40
2.99709806
 50
359.920562
 51
90.079438
  0
CIRCLE
  8
0
  6
CONTINUOUS
 62
       7
  5
16A
 10
-128.18959478
 20
-139.09267313
 30
0.0
 40
3.00124925
  0
CIRCLE
  8
0
  6
CONTINUOUS
 62
       7
  5
16B
 10
-128.18959478
 20
-179.10934039
 30
0.0
 40
3.00124925
  0
CIRCLE
  8
0
  6
CONTINUOUS
 62
       7
  5
16C
 10
-88.17292117
 20
-139.09267313
 30
0.0
 40
3.00124925
  0
CIRCLE
  8
0
  6
CONTINUOUS
 62
       7
  5
16D
 10
-88.17292117
 20
-179.10934039
 30
0.0
 40
3.00124925
  0
CIRCLE
  8
0
  6
CONTINUOUS
 62
       7
  5
16E
 10
-108.18125797
 20
-159.10100358
 30
0.0
 40
15.9066277
  0
ARC
  8
0
  6
CONTINUOUS
 62
       7
  5
16F
 10
-108.18125734
 20
-160.00136754
 30
0.0
 40
14.99542227
 50
305.51913818
 51
234.48086182
  0
ARC
  8
0
  6
CONTINUOUS
 62
       7
  5
170
 10
-101.68883387
 20
-172.63008032
 30
0.0
 40
1.09508256
 50
332.23699804
 51
259.57601795
  0
ARC
  8
0
  6
CONTINUOUS
 62
       7
  5
171
 10
-114.67368045
 20
-172.63007958
 30
0.0
 40
1.09508322
 50
280.42395665
 51
207.76302735
  0
ARC
  8
0
  6
CONTINUOUS
 62
       7
  5
172
 10
-114.68030275
 20
-172.62707977
 30
0.0
 40
2.25253704
 50
314.85205343
 51
169.2380052
  0
ARC
  8
0
  6
CONTINUOUS
 62
       7
  5
173
 10
-101.6822115
 20
-172.62708056
 30
0.0
 40
2.25253677
 50
10.76201652
 51
225.14792486
  0
CIRCLE
  8
0
  6
CONTINUOUS
 62
       7
  5
174
 10
-108.18125797
 20
-159.10100358
 30
0.0
 40
8.00333504
  0
LINE
  8
0
  6
CONTINUOUS
 62
       7
  5
175
 10
-128.83959414
 20
51.80353998
 30
0.0
 11
-128.83959414
 21
121.30353998
 31
0.0
  0
LINE
  8
0
  6
CONTINUOUS
 62
       7
  5
176
 10
-87.53959414
 20
51.80353998
 30
0.0
 11
-87.53959414
 21
71.35986931
 31
0.0
  0
ARC
  8
0
  6
CONTINUOUS
 62
       7
  5
177
 10
-103.43082836
 20
138.24782421
 30
0.0
 40
13.55571577
 50
69.40881256
 51
110.59118744
  0
ARC
  8
0
  6
CONTINUOUS
 62
       7
  5
178
 10
-112.9571078
 20
138.29593754
 30
0.0
 40
13.50760244
 50
69.37177222
 51
110.62822778
  0
LINE
  8
0
  6
CONTINUOUS
 62
       7
  5
179
 10
-98.6633147
 20
148.80353994
 30
0.0
 11
-98.6633147
 21
151.80353998
 31
0.0
  0
LINE
  8
0
  6
CONTINUOUS
 62
       7
  5
17A
 10
-117.71587359
 20
148.80353994
 30
0.0
 11
-117.71587359
 21
151.80353998
 31
0.0
  0
LINE
  8
0
  6
CONTINUOUS
 62
       7
  5
17B
 10
-93.18959414
 20
136.80353998
 30
0.0
 11
-123.18959414
 21
136.80353998
 31
0.0
  0
LINE
  8
0
  6
CONTINUOUS
 62
       7
  5
17C
 10
-95.13973017
 20
136.80353987
 30
0.0
 11
-95.62091783
 21
142.30353998
 31
0.0
  0
LINE
  8
0
  6
CONTINUOUS
 62
       7
  5
17D
 10
-100.54314756
 20
152.15709337
 30
0.0
 11
-115.83604073
 21
152.15709337
 31
0.0
  0
LINE
  8
0
  6
CONTINUOUS
 62
       7
  5
17E
 10
-115.83604075
 20
152.15709337
 30
0.0
 11
-115.83604075
 21
151.80353998
 31
0.0
  0
LINE
  8
0
  6
CONTINUOUS
 62
       7
  5
17F
 10
-100.54314753
 20
152.15709337
 30
0.0
 11
-100.54314753
 21
151.80353998
 31
0.0
  0
LINE
  8
0
  6
CONTINUOUS
 62
       7
  5
180
 10
-115.18959414
 20
152.80353998
 30
0.0
 11
-115.83604075
 21
152.15709337
 31
0.0
  0
LINE
  8
0
  6
CONTINUOUS
 62
       7
  5
181
 10
-100.54314753
 20
152.15709337
 30
0.0
 11
-101.18959414
 21
152.80353998
 31
0.0
  0
LINE
  8
0
  6
CONTINUOUS
 62
       2
  5
182
 10
-101.18959414
 20
152.80353998
 30
0.0
 11
-101.18959414
 21
151.80353998
 31
0.0
  0
LINE
  8
0
  6
CONTINUOUS
 62
       2
  5
183
 10
-115.18959414
 20
152.80353998
 30
0.0
 11
-115.18959414
 21
151.80353998
 31
0.0
  0
LINE
  8
0
  6
CONTINUOUS
 62
       7
  5
184
 10
-98.68959414
 20
151.80353998
 30
0.0
 11
-117.71587359
 21
151.80353998
 31
0.0
  0
LINE
  8
0
  6
CONTINUOUS
 62
       7
  5
185
 10
-101.18959414
 20
152.80353998
 30
0.0
 11
-115.18959414
 21
152.80353998
 31
0.0
  0
LINE
  8
0
  6
CONTINUOUS
 62
       7
  5
186
 10
-121.23945809
 20
136.80354011
 30
0.0
 11
-120.75827046
 21
142.30353998
 31
0.0
  0
LINE
  8
0
  6
CONTINUOUS
 62
       7
  5
187
 10
-96.18959414
 20
148.80353998
 30
0.0
 11
-120.18959414
 21
148.80353998
 31
0.0
  0
LINE
  8
0
  6
CONTINUOUS
 62
       7
  5
188
 10
-94.18959414
 20
136.80353998
 30
0.0
 11
-94.18959414
 21
126.30353998
 31
0.0
  0
LINE
  8
0
  6
CONTINUOUS
 62
       7
  5
189
 10
-93.18959414
 20
136.80353998
 30
0.0
 11
-93.18959414
 21
126.30353998
 31
0.0
  0
LINE
  8
0
  6
CONTINUOUS
 62
       7
  5
18A
 10
-123.18959414
 20
136.80353998
 30
0.0
 11
-123.18959414
 21
126.30353998
 31
0.0
  0
LINE
  8
0
  6
CONTINUOUS
 62
       7
  5
18B
 10
-96.18959414
 20
136.80353998
 30
0.0
 11
-96.18959414
 21
126.30353998
 31
0.0
  0
LINE
  8
0
  6
CONTINUOUS
 62
       7
  5
18C
 10
-99.18959414
 20
136.80353998
 30
0.0
 11
-99.18959414
 21
126.30353998
 31
0.0
  0
LINE
  8
0
  6
CONTINUOUS
 62
       7
  5
18D
 10
-103.18959414
 20
136.80353998
 30
0.0
 11
-103.18959414
 21
126.30353998
 31
0.0
  0
LINE
  8
0
  6
CONTINUOUS
 62
       7
  5
18E
 10
-86.03959409
 20
61.30353998
 30
0.0
 11
-87.53959414
 21
61.30353998
 31
0.0
  0
LINE
  8
0
  6
CONTINUOUS
 62
       7
  5
18F
 10
-86.03959409
 20
70.30353998
 30
0.0
 11
-87.53959414
 21
70.30353998
 31
0.0
  0
LINE
  8
0
  6
CONTINUOUS
 62
       7
  5
190
 10
-86.03959414
 20
61.30353998
 30
0.0
 11
-86.03959414
 21
70.30353998
 31
0.0
  0
LINE
  8
0
  6
CONTINUOUS
 62
       2
  5
191
 10
-84.30847601
 20
65.80353998
 30
0.0
 11
-89.09718193
 21
65.80353998
 31
0.0
  0
LINE
  8
0
  6
CONTINUOUS
 62
       7
  5
192
 10
-106.77538051
 20
58.71775348
 30
0.0
 11
-109.60380767
 21
55.88932632
 31
0.0
  0
LINE
  8
0
  6
CONTINUOUS
 62
       7
  5
193
 10
-106.77538051
 20
55.88932641
 30
0.0
 11
-109.6038077
 21
58.71775348
 31
0.0
  0
CIRCLE
  8
0
  6
CONTINUOUS
 62
       7
  5
194
 10
-108.18959412
 20
57.30353998
 30
0.0
 40
3.5
  0
ARC
  8
0
  6
CONTINUOUS
 62
       7
  5
195
 10
-86.03959414
 20
91.30353998
 30
0.0
 40
20.0
 50
94.3012223
 51
161.40263933
  0
LINE
  8
0
  6
CONTINUOUS
 62
       7
  5
196
 10
-87.53959414
 20
121.30353998
 30
0.0
 11
-87.53959414
 21
111.24721066
 31
0.0
  0
LINE
  8
0
  6
CONTINUOUS
 62
       7
  5
197
 10
-86.03959414
 20
78.30353998
 30
0.0
 11
-87.53959414
 21
71.35986931
 31
0.0
  0
LINE
  8
0
  6
CONTINUOUS
 62
       7
  5
198
 10
-86.03959414
 20
104.30353998
 30
0.0
 11
-87.53959414
 21
111.24721066
 31
0.0
  0
ARC
  8
0
  6
CONTINUOUS
 62
       7
  5
199
 10
-86.03959414
 20
91.30353998
 30
0.0
 40
20.0
 50
197.3989673
 51
265.6987777
  0
LINE
  8
0
  6
CONTINUOUS
 62
       2
  5
19A
 10
-80.97098793
 20
91.30353998
 30
0.0
 11
-101.96340528
 21
91.30353998
 31
0.0
  0
LINE
  8
0
  6
CONTINUOUS
 62
       2
  5
19B
 10
-103.81551752
 20
57.30353998
 30
0.0
 11
-113.07979148
 21
57.30353998
 31
0.0
  0
ARC
  8
0
  6
CONTINUOUS
 62
       7
  5
19C
 10
-92.53959414
 20
121.30353998
 30
0.0
 40
5.0
 50
0.0
 51
90.0
  0
ARC
  8
0
  6
CONTINUOUS
 62
       7
  5
19D
 10
-123.83959414
 20
121.30353998
 30
0.0
 40
5.0
 50
90.0
 51
180.0
  0
LINE
  8
0
  6
CONTINUOUS
 62
       7
  5
19E
 10
-92.53959414
 20
126.30353998
 30
0.0
 11
-123.83959414
 21
126.30353998
 31
0.0
  0
LINE
  8
0
  6
CONTINUOUS
 62
       7
  5
19F
 10
-120.75827046
 20
142.30353998
 30
0.0
 11
-120.18959416
 21
148.80353987
 31
0.0
  0
LINE
  8
0
  6
CONTINUOUS
 62
       7
  5
1A0
 10
-95.62091783
 20
142.30353998
 30
0.0
 11
-96.18959413
 21
148.80353987
 31
0.0
  0
ARC
  8
0
  6
CONTINUOUS
 62
       7
  5
1A1
 10
104.17043089
 20
56.40353998
 30
0.0
 40
2.6
 50
180.0
 51
270.0
  0
LINE
  8
0
  6
CONTINUOUS
 62
       7
  5
1A2
 10
104.17043089
 20
53.80353998
 30
0.0
 11
104.17043089
 21
60.80353998
 31
0.0
  0
LINE
  8
0
  6
CONTINUOUS
 62
       7
  5
1A3
 10
147.57043089
 20
53.80353998
 30
0.0
 11
147.57043089
 21
60.80353998
 31
0.0
  0
ARC
  8
0
  6
CONTINUOUS
 62
       7
  5
1A4
 10
147.57043089
 20
56.40353998
 30
0.0
 40
2.6
 50
270.0
 51
0.0
  0
LINE
  8
0
  6
CONTINUOUS
 62
       7
  5
1A5
 10
150.17043094
 20
57.30353994
 30
0.0
 11
148.57043089
 21
55.70353989
 31
0.0
  0
ARC
  8
0
  6
CONTINUOUS
 62
       7
  5
1A6
 10
147.57043089
 20
58.20353998
 30
0.0
 40
2.6
 50
0.0
 51
90.0
  0
LINE
  8
0
  6
CONTINUOUS
 62
       7
  5
1A7
 10
150.17043094
 20
57.30353994
 30
0.0
 11
148.57043089
 21
58.90354
 31
0.0
  0
LINE
  8
0
  6
CONTINUOUS
 62
       7
  5
1A8
 10
150.17043089
 20
56.40353998
 30
0.0
 11
150.17043089
 21
58.20353998
 31
0.0
  0
LINE
  8
0
  6
CONTINUOUS
 62
       7
  5
1A9
 10
146.57043089
 20
60.80353998
 30
0.0
 11
147.57043089
 21
60.80353998
 31
0.0
  0
LINE
  8
0
  6
CONTINUOUS
 62
       7
  5
1AA
 10
101.57043089
 20
56.40353998
 30
0.0
 11
101.57043089
 21
58.20353998
 31
0.0
  0
LINE
  8
0
  6
CONTINUOUS
 62
       7
  5
1AB
 10
103.17043089
 20
55.70353992
 30
0.0
 11
101.57043087
 21
57.30353994
 31
0.0
  0
LINE
  8
0
  6
CONTINUOUS
 62
       7
  5
1AC
 10
103.17043089
 20
58.90353997
 30
0.0
 11
101.57043087
 21
57.30353994
 31
0.0
  0
LINE
  8
0
  6
CONTINUOUS
 62
       7
  5
1AD
 10
105.17043089
 20
60.80353998
 30
0.0
 11
104.17043089
 21
60.80353998
 31
0.0
  0
ARC
  8
0
  6
CONTINUOUS
 62
       7
  5
1AE
 10
104.17043089
 20
58.20353998
 30
0.0
 40
2.6
 50
90.0
 51
180.0
  0
CIRCLE
  8
0
  6
CONTINUOUS
 62
       7
  5
1AF
 10
125.87043087
 20
65.70353998
 30
0.0
 40
1.4
  0
CIRCLE
  8
0
  6
CONTINUOUS
 62
       7
  5
1B0
 10
125.87043087
 20
65.70353998
 30
0.0
 40
4.5
  0
LINE
  8
0
  6
CONTINUOUS
 62
       2
  5
1B1
 10
131.99540336
 20
65.70353998
 30
0.0
 11
120.04191424
 21
65.70353998
 31
0.0
  0
LINE
  8
0
  6
CONTINUOUS
 62
       2
  5
1B2
 10
107.11546671
 20
57.30353998
 30
0.0
 11
100.16576373
 21
57.30353998
 31
0.0
  0
LINE
  8
0
  6
CONTINUOUS
 62
       2
  5
1B3
 10
151.71253998
 20
57.30353998
 30
0.0
 11
144.36587465
 21
57.30353998
 31
0.0
  0
LINE
  8
0
  6
CONTINUOUS
 62
       7
  5
1B4
 10
104.17043089
 20
53.80353998
 30
0.0
 11
105.22043087
 21
53.80353998
 31
0.0
  0
LINE
  8
0
  6
CONTINUOUS
 62
       7
  5
1B5
 10
147.57043089
 20
53.80353998
 30
0.0
 11
146.52043087
 21
53.80353998
 31
0.0
  0
CIRCLE
  8
0
  6
CONTINUOUS
 62
       7
  5
1B6
 10
125.8617969
 20
32.79560984
 30
0.0
 40
17.50729471
  0
LINE
  8
0
  6
CONTINUOUS
 62
       7
  5
1B7
 10
108.54654591
 20
35.29666212
 30
0.0
 11
107.36271932
 21
35.29666212
 31
0.0
  0
LINE
  8
0
  6
CONTINUOUS
 62
       7
  5
1B8
 10
107.36271932
 20
35.29666212
 30
0.0
 11
107.36271932
 21
30.29457791
 31
0.0
  0
LINE
  8
0
  6
CONTINUOUS
 62
       7
  5
1B9
 10
108.54654591
 20
30.29457791
 30
0.0
 11
107.36271932
 21
30.29457791
 31
0.0
  0
LINE
  8
0
  6
CONTINUOUS
 62
       7
  5
1BA
 10
143.19431582
 20
30.29457791
 30
0.0
 11
144.37814241
 21
30.29457791
 31
0.0
  0
LINE
  8
0
  6
CONTINUOUS
 62
       7
  5
1BB
 10
144.37814241
 20
35.29666212
 30
0.0
 11
144.37814241
 21
30.29457791
 31
0.0
  0
LINE
  8
0
  6
CONTINUOUS
 62
       7
  5
1BC
 10
143.19431582
 20
35.29666212
 30
0.0
 11
144.37814241
 21
35.29666212
 31
0.0
  0
LINE
  8
0
  6
CONTINUOUS
 62
       2
  5
1BD
 10
113.73203987
 20
32.79562001
 30
0.0
 11
138.80915534
 21
32.79562001
 31
0.0
  0
LINE
  8
0
  6
CONTINUOUS
 62
       7
  5
1BE
 10
148.87139042
 20
42.79978842
 30
0.0
 11
152.38147714
 21
42.79978842
 31
0.0
  0
ARC
  8
0
  6
CONTINUOUS
 62
       7
  5
1BF
 10
116.86751298
 20
3.086056
 30
0.0
 40
2.0
 50
297.45635807
 51
0.0
  0
ARC
  8
0
  6
CONTINUOUS
 62
       7
  5
1C0
 10
134.87334875
 20
3.07707264
 30
0.0
 40
2.0
 50
180.0
 51
242.48647067
  0
LINE
  8
0
  6
CONTINUOUS
 62
       7
  5
1C1
 10
111.87043087
 20
21.31333582
 30
0.0
 11
111.87043087
 21
13.76602435
 31
0.0
  0
LINE
  8
0
  6
CONTINUOUS
 62
       7
  5
1C2
 10
139.87043087
 20
21.33893027
 30
0.0
 11
139.87043087
 21
13.76602435
 31
0.0
  0
LINE
  8
0
  6
CONTINUOUS
 62
       7
  5
1C3
 10
114.87043087
 20
10.76602435
 30
0.0
 11
115.86751298
 21
10.76602435
 31
0.0
  0
ARC
  8
0
  6
CONTINUOUS
 62
       7
  5
1C4
 10
114.87043087
 20
13.76602435
 30
0.0
 40
3.0
 50
180.0
 51
270.0
  0
ARC
  8
0
  6
CONTINUOUS
 62
       7
  5
1C5
 10
136.87043087
 20
13.76602435
 30
0.0
 40
3.0
 50
270.0
 51
0.0
  0
ARC
  8
0
  6
CONTINUOUS
 62
       2
  5
1C6
 10
108.87043087
 20
21.31333582
 30
0.0
 40
3.0
 50
0.0
 51
34.04969067
  0
ARC
  8
0
  6
CONTINUOUS
 62
       2
  5
1C7
 10
142.87043087
 20
21.33893027
 30
0.0
 40
3.0
 50
146.03657131
 51
180.0
  0
LINE
  8
0
  6
CONTINUOUS
 62
       7
  5
1C8
 10
135.87334875
 20
10.76602435
 30
0.0
 11
136.87043087
 21
10.76602435
 31
0.0
  0
ARC
  8
0
  6
CONTINUOUS
 62
       7
  5
1C9
 10
115.86751298
 20
7.76602435
 30
0.0
 40
3.0
 50
0.0
 51
90.0
  0
ARC
  8
0
  6
CONTINUOUS
 62
       7
  5
1CA
 10
135.87334875
 20
7.76602435
 30
0.0
 40
3.0
 50
90.0
 51
180.0
  0
ARC
  8
0
  6
CONTINUOUS
 62
       7
  5
1CB
 10
135.87334875
 20
4.76602435
 30
0.0
 40
3.0
 50
90.0
 51
180.0
  0
ARC
  8
0
  6
CONTINUOUS
 62
       7
  5
1CC
 10
115.86751298
 20
4.76602435
 30
0.0
 40
3.0
 50
0.0
 51
90.0
  0
LINE
  8
0
  6
CONTINUOUS
 62
       2
  5
1CD
 10
-58.68401336
 20
32.79562001
 30
0.0
 11
-86.84736822
 21
32.79562001
 31
0.0
  0
LINE
  8
0
  6
CONTINUOUS
 62
       2
  5
1CE
 10
-83.17404719
 20
65.76602435
 30
0.0
 11
-92.81574315
 21
65.76602435
 31
0.0
  0
LINE
  8
0
  6
CONTINUOUS
 62
       2
  5
1CF
 10
-108.18959414
 20
158.11863371
 30
0.0
 11
-108.18959414
 21
-44.04982892
 31
0.0
  0
LINE
  8
0
  6
CONTINUOUS
 62
       7
  5
1D0
 10
105.22043087
 20
75.30353998
 30
0.0
 11
105.22043087
 21
51.70353998
 31
0.0
  0
LINE
  8
0
  6
CONTINUOUS
 62
       7
  5
1D1
 10
146.52043087
 20
51.70353998
 30
0.0
 11
146.52043087
 21
75.30353998
 31
0.0
  0
LINE
  8
0
  6
CONTINUOUS
 62
       2
  5
1D2
 10
102.8347985
 20
91.30353998
 30
0.0
 11
148.46044813
 21
91.30353998
 31
0.0
  0
CIRCLE
  8
0
  6
CONTINUOUS
 62
       2
  5
1D3
 10
125.87043087
 20
32.79562001
 30
0.0
 40
10.47749996
  0
CIRCLE
  8
0
  6
CONTINUOUS
 62
       7
  5
1D4
 10
125.87043087
 20
32.79562001
 30
0.0
 40
9.31550026
  0
CIRCLE
  8
0
  6
CONTINUOUS
 62
       2
  5
1D5
 10
125.87043087
 20
-14.22397148
 30
0.0
 40
10.47749996
  0
CIRCLE
  8
0
  6
CONTINUOUS
 62
       7
  5
1D6
 10
125.87043087
 20
-14.22397148
 30
0.0
 40
9.31550026
  0
LINE
  8
0
  6
DASHED
 62
       2
  5
1D8
 10
-153.19167915
 20
-3.74647287
 30
0.0
 11
-140.49167725
 21
-4.14334793
 31
0.0
  0
LINE
  8
0
  6
DASHED
 62
       7
  5
1D9
 10
-153.19167897
 20
-4.90847211
 30
0.0
 11
-140.49167707
 21
-5.30534717
 31
0.0
  0
LINE
  8
0
  6
DASHED
 62
       7
  5
1DA
 10
-153.19167927
 20
-23.53940026
 30
0.0
 11
-140.49167928
 21
-23.14252526
 31
0.0
  0
LINE
  8
0
  6
DASHED
 62
       2
  5
1DB
 10
-153.19167602
 20
-24.70150911
 30
0.0
 11
-140.49167794
 21
-24.30463417
 31
0.0
  0
LINE
  8
0
  6
DASHED
 62
       2
  5
1DC
 10
-63.18750914
 20
-3.74647287
 30
0.0
 11
-75.88751104
 21
-4.14334793
 31
0.0
  0
LINE
  8
0
  6
DASHED
 62
       7
  5
1DD
 10
-63.18750932
 20
-4.90847211
 30
0.0
 11
-75.88751121
 21
-5.30534717
 31
0.0
  0
LINE
  8
0
  6
DASHED
 62
       7
  5
1DE
 10
-63.18750902
 20
-23.53940026
 30
0.0
 11
-75.88750901
 21
-23.14252526
 31
0.0
  0
LINE
  8
0
  6
DASHED
 62
       2
  5
1DF
 10
-63.18751227
 20
-24.70150911
 30
0.0
 11
-75.88751035
 21
-24.30463417
 31
0.0
  0
LINE
  8
0
  6
DASHED
 62
       2
  5
1E0
 10
-63.18750914
 20
43.27311862
 30
0.0
 11
-75.88751104
 21
42.87624357
 31
0.0
  0
LINE
  8
0
  6
DASHED
 62
       7
  5
1E1
 10
-63.18750932
 20
42.11111939
 30
0.0
 11
-75.88751121
 21
41.71424433
 31
0.0
  0
LINE
  8
0
  6
DASHED
 62
       7
  5
1E2
 10
-63.18750902
 20
23.48019124
 30
0.0
 11
-75.88750901
 21
23.87706624
 31
0.0
  0
LINE
  8
0
  6
DASHED
 62
       2
  5
1E3
 10
-63.18751227
 20
22.31808238
 30
0.0
 11
-75.88751035
 21
22.71495732
 31
0.0
  0
LINE
  8
0
  6
CONTINUOUS
 62
       7
  5
1E4
 10
138.8765505
 20
137.30353998
 30
0.0
 11
137.87043088
 21
148.80353987
 31
0.0
  0
LINE
  8
0
  6
CONTINUOUS
 62
       7
  5
1E5
 10
112.86431124
 20
137.30353998
 30
0.0
 11
113.87043085
 21
148.80353987
 31
0.0
  0
LINE
  8
0
  6
CONTINUOUS
 62
       7
  5
1E6
 10
137.87043087
 20
148.80353998
 30
0.0
 11
113.87043087
 21
148.80353998
 31
0.0
  0
LINE
  8
0
  6
CONTINUOUS
 62
       7
  5
1E7
 10
132.87043087
 20
152.80353998
 30
0.0
 11
118.87043087
 21
152.80353998
 31
0.0
  0
LINE
  8
0
  6
CONTINUOUS
 62
       7
  5
1E8
 10
135.37043087
 20
151.80353998
 30
0.0
 11
116.37043087
 21
151.80353998
 31
0.0
  0
LINE
  8
0
  6
CONTINUOUS
 62
       2
  5
1E9
 10
118.87043087
 20
152.80353998
 30
0.0
 11
118.87043087
 21
151.80353998
 31
0.0
  0
LINE
  8
0
  6
CONTINUOUS
 62
       2
  5
1EA
 10
132.87043087
 20
152.80353998
 30
0.0
 11
132.87043087
 21
151.80353998
 31
0.0
  0
LINE
  8
0
  6
CONTINUOUS
 62
       7
  5
1EB
 10
133.51687748
 20
152.15709337
 30
0.0
 11
132.87043087
 21
152.80353998
 31
0.0
  0
LINE
  8
0
  6
CONTINUOUS
 62
       7
  5
1EC
 10
118.87043087
 20
152.80353998
 30
0.0
 11
118.22398426
 21
152.15709337
 31
0.0
  0
LINE
  8
0
  6
CONTINUOUS
 62
       7
  5
1ED
 10
133.51687748
 20
152.15709337
 30
0.0
 11
133.51687748
 21
151.80353998
 31
0.0
  0
LINE
  8
0
  6
CONTINUOUS
 62
       7
  5
1EE
 10
118.22398426
 20
152.15709337
 30
0.0
 11
118.22398426
 21
151.80353998
 31
0.0
  0
LINE
  8
0
  6
CONTINUOUS
 62
       7
  5
1EF
 10
133.51687745
 20
152.15709337
 30
0.0
 11
118.22398428
 21
152.15709337
 31
0.0
  0
LINE
  8
0
  6
CONTINUOUS
 62
       7
  5
1F0
 10
116.34415143
 20
148.80353994
 30
0.0
 11
116.34415143
 21
151.80353998
 31
0.0
  0
LINE
  8
0
  6
CONTINUOUS
 62
       7
  5
1F1
 10
135.39671031
 20
148.80353994
 30
0.0
 11
135.39671031
 21
151.80353998
 31
0.0
  0
ARC
  8
0
  6
CONTINUOUS
 62
       7
  5
1F2
 10
121.10291721
 20
138.29593754
 30
0.0
 40
13.50760244
 50
69.37177222
 51
110.62822778
  0
ARC
  8
0
  6
CONTINUOUS
 62
       7
  5
1F3
 10
130.62919665
 20
138.24782421
 30
0.0
 40
13.55571577
 50
69.40881256
 51
110.59118744
  0
LINE
  8
0
  6
CONTINUOUS
 62
       7
  5
1F4
 10
-51.19167835
 20
137.30353998
 30
0.0
 11
-79.03959414
 21
137.30353998
 31
0.0
  0
LINE
  8
0
  6
CONTINUOUS
 62
       7
  5
1F5
 10
-51.19167835
 20
75.30353998
 30
0.0
 11
-79.03959414
 21
75.30353998
 31
0.0
  0
LINE
  8
0
  6
CONTINUOUS
 62
       2
  5
1F6
 10
-65.03959414
 20
82.30353998
 30
0.0
 11
-65.03959414
 21
68.90085995
 31
0.0
  0
LINE
  8
0
  6
CONTINUOUS
 62
       7
  5
1F7
 10
-41.19167848
 20
80.30354018
 30
0.0
 11
-42.19167824
 21
81.30353994
 31
0.0
  0
LINE
  8
0
  6
CONTINUOUS
 62
       7
  5
1F8
 10
-41.19167848
 20
80.30353971
 30
0.0
 11
-42.19167824
 21
79.30353994
 31
0.0
  0
ARC
  8
0
  6
CONTINUOUS
 62
       7
  5
1F9
 10
-43.19167835
 20
79.55353998
 30
0.0
 40
2.0
 50
270.0
 51
0.0
  0
ARC
  8
0
  6
CONTINUOUS
 62
       7
  5
1FA
 10
-43.19167835
 20
81.05353998
 30
0.0
 40
2.0
 50
0.0
 51
90.0
  0
LINE
  8
0
  6
CONTINUOUS
 62
       7
  5
1FB
 10
-41.19167835
 20
79.55353998
 30
0.0
 11
-41.19167835
 21
81.05353998
 31
0.0
  0
LINE
  8
0
  6
CONTINUOUS
 62
       7
  5
1FC
 10
-41.19167836
 20
132.30353994
 30
0.0
 11
-42.19167835
 21
131.30353996
 31
0.0
  0
LINE
  8
0
  6
CONTINUOUS
 62
       7
  5
1FD
 10
-41.19167835
 20
132.30354005
 30
0.0
 11
-42.19167824
 21
133.30353994
 31
0.0
  0
ARC
  8
0
  6
CONTINUOUS
 62
       7
  5
1FE
 10
-43.19167835
 20
131.55353998
 30
0.0
 40
2.0
 50
270.0
 51
0.0
  0
ARC
  8
0
  6
CONTINUOUS
 62
       7
  5
1FF
 10
-43.19167835
 20
133.05353998
 30
0.0
 40
2.0
 50
0.0
 51
90.0
  0
LINE
  8
0
  6
CONTINUOUS
 62
       7
  5
200
 10
-41.19167835
 20
131.55353998
 30
0.0
 11
-41.19167835
 21
133.05353998
 31
0.0
  0
LINE
  8
0
  6
CONTINUOUS
 62
       2
  5
201
 10
-39.84730405
 20
80.30353998
 30
0.0
 11
-45.16298103
 21
80.30353998
 31
0.0
  0
LINE
  8
0
  6
CONTINUOUS
 62
       2
  5
202
 10
-39.84730405
 20
132.30353998
 30
0.0
 11
-45.16298103
 21
132.30353998
 31
0.0
  0
ARC
  8
0
  6
CONTINUOUS
 62
       7
  5
203
 10
-45.49167835
 20
76.60353998
 30
0.0
 40
2.3
 50
270.0
 51
0.0
  0
ARC
  8
0
  6
CONTINUOUS
 62
       7
  5
204
 10
-45.49167835
 20
136.00353998
 30
0.0
 40
2.3
 50
0.0
 51
90.0
  0
LINE
  8
0
  6
CONTINUOUS
 62
       7
  5
205
 10
-45.49167835
 20
74.30353998
 30
0.0
 11
-51.19167835
 21
74.30353998
 31
0.0
  0
LINE
  8
0
  6
CONTINUOUS
 62
       7
  5
206
 10
-45.49167835
 20
138.30353998
 30
0.0
 11
-51.19167835
 21
138.30353998
 31
0.0
  0
LINE
  8
0
  6
CONTINUOUS
 62
       7
  5
207
 10
-51.19167835
 20
74.30353998
 30
0.0
 11
-51.19167835
 21
138.30353998
 31
0.0
  0
LINE
  8
0
  6
CONTINUOUS
 62
       7
  5
208
 10
-43.19167835
 20
76.60353998
 30
0.0
 11
-43.19167835
 21
136.00353998
 31
0.0
  0
ARC
  8
0
  6
CONTINUOUS
 62
       7
  5
209
 10
-79.03959414
 20
130.30353998
 30
0.0
 40
7.0
 50
90.0
 51
180.0
  0
LINE
  8
0
  6
CONTINUOUS
 62
       7
  5
20A
 10
-86.03959414
 20
78.30353998
 30
0.0
 11
-86.03959414
 21
130.30353998
 31
0.0
  0
ARC
  8
0
  6
CONTINUOUS
 62
       7
  5
20B
 10
-79.03959414
 20
82.30353998
 30
0.0
 40
7.0
 50
180.0
 51
270.0
  0
CIRCLE
  8
0
  6
CONTINUOUS
 62
       7
  5
20C
 10
125.87043087
 20
65.76602435
 30
0.0
 40
4.5
  0
LINE
  8
0
  6
CONTINUOUS
 62
       2
  5
20D
 10
131.99540336
 20
65.76602435
 30
0.0
 11
120.04191424
 21
65.76602435
 31
0.0
  0
LINE
  8
0
  6
CONTINUOUS
 62
       2
  5
20E
 10
125.87043087
 20
158.11863371
 30
0.0
 11
125.87043087
 21
-44.08734455
 31
0.0
  0
CIRCLE
  8
0
  6
CONTINUOUS
 62
       7
  5
20F
 10
125.87043087
 20
65.76602435
 30
0.0
 40
1.4
  0
LINE
  8
0
  6
CONTINUOUS
 62
       7
  5
210
 10
125.86168299
 20
150.93751465
 30
0.0
 11
125.86168299
 21
148.80353998
 31
0.0
  0
LINE
  8
0
  6
CONTINUOUS
 62
       7
  5
211
 10
-108.18959414
 20
150.94079779
 30
0.0
 11
-108.18959414
 21
148.80353998
 31
0.0
  0
LINE
  8
0
  6
CONTINUOUS
 62
       7
  5
212
 10
282.09985352
 20
195.5
 30
0.0
 11
282.09985352
 21
-195.0
 31
0.0
  0
LINE
  8
0
  6
CONTINUOUS
 62
       7
  5
213
 10
-281.25
 20
195.5
 30
0.0
 11
282.09985352
 21
195.5
 31
0.0
  0
LINE
  8
0
  6
CONTINUOUS
 62
       7
  5
214
 10
-281.25
 20
195.5
 30
0.0
 11
-281.25
 21
-195.0
 31
0.0
  0
LINE
  8
0
  6
CONTINUOUS
 62
       7
  5
215
 10
-281.25
 20
-195.0
 30
0.0
 11
282.09985352
 21
-195.0
 31
0.0
  0
TEXT
  8
0
  6
CONTINUOUS
 62
       7
  5
216
 10
-268.21411646
 20
157.35000038
 30
0.0
 40
6.29999924
  1
MODEL:501E1-81-T
 41
1.12941176
  7
MX_NOTE_STANDARD
 11
-268.21411646
 21
160.5
 31
0.0
 73
       2
  0
ENDSEC
  0
EOF
