  0
SECTION
  2
HEADER
  9
$ACADVER
  1
AC1012
  9
$DWGCODEPAGE
  3
dos932
  9
$INSBASE
 10
0.0
 20
0.0
 30
0.0
  9
$EXTMIN
 10
-138.39999389648437
 20
-94.800003051757812
 30
0.0
  9
$EXTMAX
 10
138.35000610351562
 20
94.5
 30
0.0
  9
$LIMMIN
 10
-148.5
 20
-105.00000000000001
  9
$LIMMAX
 10
148.5
 20
105.00000000000001
  9
$ORTHOMODE
 70
               0
  9
$REGENMODE
 70
               1
  9
$FILLMODE
 70
               1
  9
$QTEXTMODE
 70
               0
  9
$MIRRTEXT
 70
               1
  9
$DRAGMODE
 70
               2
  9
$LTSCALE
 40
1.0
  9
$OSMODE
 70
               0
  9
$ATTMODE
 70
               1
  9
$TEXTSIZE
 40
3.2000000476837158
  9
$TRACEWID
 40
0.05
  9
$TEXTSTYLE
  7
MX_NOTE_STANDARD
  9
$CLAYER
  8
0
  9
$CELTYPE
  6
CONTINUOUS
  9
$CECOLOR
 62
             256
  9
$CELTSCALE
 40
1.0
  9
$DELOBJ
 70
               1
  9
$DISPSILH
 70
               0
  9
$DIMSCALE
 40
1.0
  9
$DIMASZ
 40
2.5
  9
$DIMEXO
 40
1.5
  9
$DIMDLI
 40
3.75
  9
$DIMRND
 40
0.0
  9
$DIMDLE
 40
0.0
  9
$DIMEXE
 40
1.5
  9
$DIMTP
 40
0.0
  9
$DIMTM
 40
0.0
  9
$DIMTXT
 40
3.2000000476837158
  9
$DIMCEN
 40
2.5
  9
$DIMTSZ
 40
0.0
  9
$DIMTOL
 70
               0
  9
$DIMLIM
 70
               0
  9
$DIMTIH
 70
               0
  9
$DIMTOH
 70
               0
  9
$DIMSE1
 70
               0
  9
$DIMSE2
 70
               0
  9
$DIMTAD
 70
               1
  9
$DIMZIN
 70
               8
  9
$DIMBLK
  1

  9
$DIMASO
 70
               1
  9
$DIMSHO
 70
               1
  9
$DIMPOST
  1

  9
$DIMAPOST
  1

  9
$DIMALT
 70
               0
  9
$DIMALTD
 70
               4
  9
$DIMALTF
 40
0.03937007874016
  9
$DIMLFAC
 40
1.0
  9
$DIMTOFL
 70
               1
  9
$DIMTVP
 40
0.0
  9
$DIMTIX
 70
               0
  9
$DIMSOXD
 70
               0
  9
$DIMSAH
 70
               1
  9
$DIMBLK1
  1
_OPEN30
  9
$DIMBLK2
  1
_OPEN30
  9
$DIMSTYLE
  2
MXDIMSTYLE
  9
$DIMCLRD
 70
               0
  9
$DIMCLRE
 70
               0
  9
$DIMCLRT
 70
               0
  9
$DIMTFAC
 40
1.0
  9
$DIMGAP
 40
1.0
  9
$DIMJUST
 70
               0
  9
$DIMSD1
 70
               0
  9
$DIMSD2
 70
               0
  9
$DIMTOLJ
 70
               0
  9
$DIMTZIN
 70
               0
  9
$DIMALTZ
 70
               0
  9
$DIMALTTZ
 70
               0
  9
$DIMFIT
 70
               3
  9
$DIMUPT
 70
               1
  9
$DIMUNIT
 70
               2
  9
$DIMDEC
 70
               2
  9
$DIMTDEC
 70
               2
  9
$DIMALTU
 70
               2
  9
$DIMALTTD
 70
               4
  9
$DIMTXSTY
  7
MX_NOTE_STANDARD
  9
$DIMAUNIT
 70
               0
  9
$LUNITS
 70
               2
  9
$LUPREC
 70
               4
  9
$SKETCHINC
 40
0.1
  9
$FILLETRAD
 40
0.0
  9
$AUNITS
 70
               0
  9
$AUPREC
 70
               0
  9
$MENU
  1
acad
  9
$ELEVATION
 40
0.0
  9
$PELEVATION
 40
0.0
  9
$THICKNESS
 40
0.0
  9
$LIMCHECK
 70
               0
  9
$BLIPMODE
 70
               1
  9
$CHAMFERA
 40
0.0
  9
$CHAMFERB
 40
0.0
  9
$CHAMFERC
 40
0.0
  9
$CHAMFERD
 40
0.0
  9
$SKPOLY
 70
               0
  9
$TDCREATE
 40
2454085.536608796
  9
$TDUPDATE
 40
2454085.536608796
  9
$TDINDWG
 40
0.0000000000
  9
$TDUSRTIMER
 40
0.0000000000
  9
$USRTIMER
 70
               1
  9
$ANGBASE
 50
0.0
  9
$ANGDIR
 70
               0
  9
$PDMODE
 70
               0
  9
$PDSIZE
 40
0.0
  9
$PLINEWID
 40
0.0
  9
$COORDS
 70
               1
  9
$SPLFRAME
 70
               0
  9
$SPLINETYPE
 70
               6
  9
$SPLINESEGS
 70
               8
  9
$ATTDIA
 70
               0
  9
$ATTREQ
 70
               1
  9
$HANDLING
 70
               1
  9
$HANDSEED
  5
192
  9
$SURFTAB1
 70
               6
  9
$SURFTAB2
 70
               6
  9
$SURFTYPE
 70
               6
  9
$SURFU
 70
               6
  9
$SURFV
 70
               6
  9
$UCSNAME
  2

  9
$UCSORG
 10
0.0
 20
0.0
 30
0.0
  9
$UCSXDIR
 10
1.0
 20
0.0
 30
0.0
  9
$UCSYDIR
 10
0.0
 20
1.0
 30
0.0
  9
$PUCSNAME
  2

  9
$PUCSORG
 10
0.0
 20
0.0
 30
0.0
  9
$PUCSXDIR
 10
1.0
 20
0.0
 30
0.0
  9
$PUCSYDIR
 10
0.0
 20
1.0
 30
0.0
  9
$USERI1
 70
               0
  9
$USERI2
 70
               0
  9
$USERI3
 70
               0
  9
$USERI4
 70
               0
  9
$USERI5
 70
               0
  9
$USERR1
 40
0.0
  9
$USERR2
 40
0.0
  9
$USERR3
 40
0.0
  9
$USERR4
 40
0.0
  9
$USERR5
 40
0.0
  9
$WORLDVIEW
 70
               1
  9
$SHADEDGE
 70
               3
  9
$SHADEDIF
 70
              70
  9
$TILEMODE
 70
               1
  9
$MAXACTVP
 70
              16
  9
$PINSBASE
 10
0.0
 20
0.0
 30
0.0
  9
$PLIMCHECK
 70
               0
  9
$PEXTMIN
 10
1.0000000000000000E+20
 20
1.0000000000000000E+20
 30
1.0000000000000000E+20
  9
$PEXTMAX
 10
-1.0000000000000000E+20
 20
-1.0000000000000000E+20
 30
-1.0000000000000000E+20
  9
$PLIMMIN
 10
0.0
 20
0.0
  9
$PLIMMAX
 10
12.0
 20
9.0
  9
$UNITMODE
 70
               0
  9
$VISRETAIN
 70
               0
  9
$PLINEGEN
 70
               1
  9
$PSLTSCALE
 70
               0
  9
$TREEDEPTH
 70
            3020
  9
$PICKSTYLE
 70
               1
  9
$CMLSTYLE
  2
Standard
  9
$CMLJUST
 70
               0
  9
$CMLSCALE
 40
1.0
  9
$SAVEIMAGES
 70
               0
  0
ENDSEC
  0
SECTION
  2
CLASSES
  0
CLASS
  1
LWPOLYLINE
  2
AcDbPolyline
  3
"AutoCAD"
 90
    32768
280
               0
281
               1
  0
CLASS
  1
IMAGE
  2
AcDbRasterImage
  3
ISM
 90
    32895
280
               0
281
               1
  0
CLASS
  1
OLE2FRAME
  2
AcDbOle2Frame
  3
""
 90
    32768
280
               0
281
               1
  0
CLASS
  1
HATCH
  2
AcDbHatch
  3
"ACAD_SEDONA"
 90
    32768
280
               0
281
               1
  0
CLASS
  1
DICTIONARYVAR
  2
AcDbDictionaryVar
  3
"AutoCAD"
 90
    32768
280
               0
281
               0
  0
CLASS
  1
RASTERVARIABLES
  2
AcDbRasterVariables
  3
ISM
 90
    32768
280
               0
281
               0
  0
CLASS
  1
IMAGEDEF
  2
AcDbRasterImageDef
  3
ISM
 90
    32768
280
               0
281
               0
  0
CLASS
  1
IMAGEDEF_REACTOR
  2
AcDbRasterImageDefReactor
  3
ISM
 90
    32769
280
               0
281
               0
  0
CLASS
  1
IDBUFFER
  2
AcDbIdBuffer
  3
"Acad"
 90
    32768
280
               0
281
               0
  0
CLASS
  1
SPATIAL_FILTER
  2
AcDbSpatialFilter
  3
"Acad"
 90
    32768
280
               0
281
               0
  0
CLASS
  1
XRECORD
  2
AcDbXrecord
  3
"<Built In>"
 90
    32768
280
               0
281
               0
  0
CLASS
  1
SORTENTSTABLE
  2
AcDbSortentsTable
  3
"AutoCAD"
 90
    32768
280
               0
281
               0
  0
CLASS
  1
LAYER_INDEX
  2
AcDbLayerIndex
  3
"Acad"
 90
    32768
280
               0
281
               0
  0
CLASS
  1
SPATIAL_INDEX
  2
AcDbSpatialIndex
  3
"Acad"
 90
    32768
280
               0
281
               0
  0
CLASS
  1
OBJECT_PTR
  2
CAseDLPNTableRecord
  3
"ASE-LPNTableRecord"
 90
    32769
280
               0
281
               0
  0
CLASS
  1
LAYOUT
  2
AcDbLayout
  3
"AutoCAD 2000"
 90
    32768
280
               0
281
               0
  0
CLASS
  1
PLOTSETTINGS
  2
AcDbPlotSettings
  3
"AutoCAD 2000"
 90
    32768
280
               0
281
               0
  0
CLASS
  1
ACDBDICTIONARYWDFLT
  2
AcDbDictionaryWithDefault
  3
"AutoCAD 2000"
 90
    32768
280
               0
281
               0
  0
CLASS
  1
ACDBPLACEHOLDER
  2
AcDbPlaceHolder
  3
"AutoCAD 2000"
 90
    32768
280
               0
281
               0
  0
ENDSEC
  0
SECTION
  2
TABLES
  0
TABLE
  2
VPORT
  5
7
100
AcDbSymbolTable
 70
               1
  0
VPORT
  5
15
100
AcDbSymbolTableRecord
100
AcDbViewportTableRecord
  2
*ACTIVE
 70
               0
 10
0.0
 20
0.0
 11
1.0
 21
1.0
 12
0.0
 22
0.0
 13
0.0
 23
0.0
 14
1.0
 24
1.0
 15
0.0
 25
0.0
 16
0.0
 26
0.0
 36
1.0
 17
0.0
 27
0.0
 37
0.0
 40
212.10000000000002
 41
1.7320508075688772
 42
50.0
 43
0.0
 44
0.0
 50
0.0
 51
0.0
 71
               0
 72
             100
 73
               1
 74
               1
 75
               0
 76
               0
 77
               0
 78
               0
  0
ENDTAB
  0
TABLE
  2
LTYPE
  5
4
100
AcDbSymbolTable
 70
               5
  0
LTYPE
  5
11
100
AcDbSymbolTableRecord
100
AcDbLinetypeTableRecord
  2
BYBLOCK
 70
              64
  3

 72
              65
 73
               0
 40
0.0
  0
LTYPE
  5
12
100
AcDbSymbolTableRecord
100
AcDbLinetypeTableRecord
  2
BYLAYER
 70
              64
  3

 72
              65
 73
               0
 40
0.0
  0
LTYPE
  5
13
100
AcDbSymbolTableRecord
100
AcDbLinetypeTableRecord
  2
CONTINUOUS
 70
              64
  3
Solid line
 72
              65
 73
               0
 40
0.0
  0
LTYPE
  5
30
100
AcDbSymbolTableRecord
100
AcDbLinetypeTableRecord
  2
CENTER
 70
              64
  3
Center ____ _ ____ _ ____ _ ____ _ ____ _ ____
 72
              65
 73
               4
 40
50.800000000000004
 49
31.75
 74
               0
 49
-6.3499999999999996
 74
               0
 49
6.3499999999999996
 74
               0
 49
-6.3499999999999996
 74
               0
  0
LTYPE
  5
32
100
AcDbSymbolTableRecord
100
AcDbLinetypeTableRecord
  2
DASHED
 70
              64
  3
Dashed __ __ __ __ __ __ __ __ __ __ __ __ __ _
 72
              65
 73
               2
 40
19.049999999999997
 49
12.699999999999999
 74
               0
 49
-6.3499999999999996
 74
               0
  0
ENDTAB
  0
TABLE
  2
LAYER
  5
2
100
AcDbSymbolTable
 70
               2
  0
LAYER
  5
14
100
AcDbSymbolTableRecord
100
AcDbLayerTableRecord
  2
0
 70
               0
 62
               7
  6
CONTINUOUS
  0
LAYER
  5
1D
100
AcDbSymbolTableRecord
100
AcDbLayerTableRecord
  2
DEFPOINTS
 70
               0
 62
               7
  6
CONTINUOUS
  0
ENDTAB
  0
TABLE
  2
STYLE
  5
3
100
AcDbSymbolTable
 70
               1
  0
STYLE
  5
17
100
AcDbSymbolTableRecord
100
AcDbTextStyleTableRecord
  2
MX_NOTE_STANDARD
 70
               0
 40
0.0
 41
1.0
 50
0.0
 71
               0
 42
3.2000000476837158
  3
txt.shx
  4
extfont.shx
  0
ENDTAB
  0
TABLE
  2
VIEW
  5
5
100
AcDbSymbolTable
 70
               0
  0
ENDTAB
  0
TABLE
  2
UCS
  5
6
100
AcDbSymbolTable
 70
               0
  0
ENDTAB
  0
TABLE
  2
APPID
  5
8
100
AcDbSymbolTable
 70
               1
  0
APPID
  5
16
100
AcDbSymbolTableRecord
100
AcDbRegAppTableRecord
  2
ACAD
 70
               0
  0
ENDTAB
  0
TABLE
  2
DIMSTYLE
  5
9
100
AcDbSymbolTable
 70
               1
  0
DIMSTYLE
105
18
100
AcDbSymbolTableRecord
100
AcDbDimStyleTableRecord
  2
MXDIMSTYLE
 70
               0
  3

  4

  5

  6
_OPEN30
  7
_OPEN30
 40
1.0
 41
2.5
 42
1.5
 43
3.75
 44
1.5
 45
0.0
 46
0.0
 47
0.0
 48
0.0
 71
               0
 72
               0
 73
               0
 74
               0
 75
               0
 76
               0
 77
               1
 78
               8
140
3.2000000476837158
141
2.5
142
0.0
143
0.03937007874016
144
1.0
145
0.0
146
1.0
147
1.0
170
               0
171
               4
172
               1
173
               1
174
               0
175
               0
176
               0
177
               0
178
               0
270
               2
271
               2
272
               2
273
               2
274
               4
275
               0
280
               0
281
               0
282
               0
283
               0
284
               0
285
               0
286
               0
287
               3
288
               1
340
17
  0
ENDTAB
  0
TABLE
  2
BLOCK_RECORD
  5
1
100
AcDbSymbolTable
 70
               5
  0
BLOCK_RECORD
  5
A
100
AcDbSymbolTableRecord
100
AcDbBlockTableRecord
  2
*MODEL_SPACE
  0
BLOCK_RECORD
  5
B
100
AcDbSymbolTableRecord
100
AcDbBlockTableRecord
  2
*PAPER_SPACE
  0
BLOCK_RECORD
  5
1E
100
AcDbSymbolTableRecord
100
AcDbBlockTableRecord
  2
4PP-1
  0
BLOCK_RECORD
  5
1F
100
AcDbSymbolTableRecord
100
AcDbBlockTableRecord
  2
4PP-2
  0
BLOCK_RECORD
  5
20
100
AcDbSymbolTableRecord
100
AcDbBlockTableRecord
  2
4PP-3
  0
BLOCK_RECORD
  5
21
100
AcDbSymbolTableRecord
100
AcDbBlockTableRecord
  2
4PP-4
  0
BLOCK_RECORD
  5
22
100
AcDbSymbolTableRecord
100
AcDbBlockTableRecord
  2
_OPEN30
  0
ENDTAB
  0
ENDSEC
  0
SECTION
  2
BLOCKS
  0
BLOCK
  5
D
100
AcDbEntity
  8
0
100
AcDbBlockBegin
  2
*MODEL_SPACE
 70
               0
 10
0.0
 20
0.0
 30
0.0
  3
*MODEL_SPACE
  1

  0
ENDBLK
  5
E
100
AcDbEntity
  8
0
100
AcDbBlockEnd
  0
BLOCK
  5
F
100
AcDbEntity
 67
               1
  8
0
100
AcDbBlockBegin
  2
*PAPER_SPACE
 70
               0
 10
0.0
 20
0.0
 30
0.0
  3
*PAPER_SPACE
  1

  0
ENDBLK
  5
10
100
AcDbEntity
 67
               1
  8
0
100
AcDbBlockEnd
  0
BLOCK
  5
28
100
AcDbEntity
  8
0
100
AcDbBlockBegin
  2
4PP-1
 70
               0
 10
0.0
 20
0.0
 30
0.0
  3
4PP-1
  1

  0
LINE
  5
29
100
AcDbEntity
  8
0
  6
CONTINUOUS
 62
               7
100
AcDbLine
 10
8.3999999999999151
 20
31.509964468846597
 30
0.0
 11
8.3999999999999151
 21
43.709964468846593
 31
0.0
  0
LINE
  5
2A
100
AcDbEntity
  8
0
  6
CONTINUOUS
 62
               7
100
AcDbLine
 10
8.3999999999999151
 20
10.909964468846596
 30
0.0
 11
8.3999999999999151
 21
23.309964468846598
 31
0.0
  0
LINE
  5
2B
100
AcDbEntity
  8
0
  6
CONTINUOUS
 62
               7
100
AcDbLine
 10
8.3999999999999151
 20
23.309964468846598
 30
0.0
 11
8.4999999999999094
 21
23.336020806874767
 31
0.0
  0
LINE
  5
2C
100
AcDbEntity
  8
0
  6
CONTINUOUS
 62
               7
100
AcDbLine
 10
8.4999999999999094
 20
23.336020806875432
 30
0.0
 11
8.4999999999999094
 21
31.483203905465597
 31
0.0
  0
LINE
  5
2D
100
AcDbEntity
  8
0
  6
CONTINUOUS
 62
               7
100
AcDbLine
 10
8.4999999999999094
 20
31.483203905466315
 30
0.0
 11
8.3999999999999151
 21
31.509964468846597
 31
0.0
  0
ARC
  5
2E
100
AcDbEntity
  8
0
  6
CONTINUOUS
 62
               7
100
AcDbCircle
 10
-7.3999969482376136
 20
43.709961417084131
 30
0.0
 40
1.0000030517671257
100
AcDbArc
 50
90.0
 51
179.99982514742405
  0
ARC
  5
2F
100
AcDbEntity
  8
0
  6
CONTINUOUS
 62
               7
100
AcDbCircle
 10
-7.3999984741107019
 20
10.90996599473598
 30
0.0
 40
1.0000015258905481
100
AcDbArc
 50
180.00008742688834
 51
264.26075044213871
  0
LINE
  5
31
100
AcDbEntity
  8
0
  6
CENTER
 62
               2
100
AcDbLine
 10
-4.4000000000000972
 20
35.909961417088851
 30
0.0
 11
-9.7249107815928522
 21
35.909961417088851
 31
0.0
  0
LINE
  5
33
100
AcDbEntity
  8
0
  6
DASHED
 62
               7
100
AcDbLine
 10
-0.0000000000000772
 20
23.678649816172474
 30
0.0
 11
-0.0000000000000772
 21
31.131314652674074
 31
0.0
  0
LINE
  5
34
100
AcDbEntity
  8
0
  6
DASHED
 62
               7
100
AcDbLine
 10
-0.0000000000000772
 20
47.421852457002672
 30
0.0
 11
-0.0000000000000772
 21
45.998076480690528
 31
0.0
  0
LINE
  5
35
100
AcDbEntity
  8
0
  6
CONTINUOUS
 62
               7
100
AcDbLine
 10
-2.6000000000000858
 20
54.409964468846624
 30
0.0
 11
-2.6000000000000858
 21
51.909964468846546
 31
0.0
  0
LINE
  5
36
100
AcDbEntity
  8
0
  6
CONTINUOUS
 62
               7
100
AcDbLine
 10
2.599999999999917
 20
51.909964468846546
 30
0.0
 11
2.599999999999917
 21
54.409964468846624
 31
0.0
  0
LINE
  5
37
100
AcDbEntity
  8
0
  6
CONTINUOUS
 62
               7
100
AcDbLine
 10
-5.3000000000000886
 20
54.409964468846624
 30
0.0
 11
5.2999999999999199
 21
54.409964468846624
 31
0.0
  0
LINE
  5
38
100
AcDbEntity
  8
0
  6
CONTINUOUS
 62
               7
100
AcDbLine
 10
-5.5000000000000346
 20
51.909964468846603
 30
0.0
 11
-6.0000000000000844
 21
51.409964468846603
 31
0.0
  0
LINE
  5
39
100
AcDbEntity
  8
0
  6
CONTINUOUS
 62
               7
100
AcDbLine
 10
5.9999999999999085
 20
51.409964468846603
 30
0.0
 11
5.4999999999998517
 21
51.909964468846603
 31
0.0
  0
LINE
  5
3A
100
AcDbEntity
  8
0
  6
CONTINUOUS
 62
               7
100
AcDbLine
 10
-5.5000000000000346
 20
51.909964468846603
 30
0.0
 11
5.4999999999998517
 21
51.909964468846603
 31
0.0
  0
LINE
  5
3B
100
AcDbEntity
  8
0
  6
CONTINUOUS
 62
               7
100
AcDbLine
 10
-6.0000000000000844
 20
51.409964468846603
 30
0.0
 11
-6.0000000000000844
 21
47.709964468846579
 31
0.0
  0
LINE
  5
3C
100
AcDbEntity
  8
0
  6
CONTINUOUS
 62
               7
100
AcDbLine
 10
5.9999999999999085
 20
47.709964468846579
 30
0.0
 11
5.9999999999999085
 21
51.409964468846603
 31
0.0
  0
LINE
  5
3D
100
AcDbEntity
  8
0
  6
CONTINUOUS
 62
               7
100
AcDbLine
 10
-6.0000000000000844
 20
51.409964468846603
 30
0.0
 11
5.9999999999999085
 21
51.409964468846603
 31
0.0
  0
LINE
  5
3E
100
AcDbEntity
  8
0
  6
CONTINUOUS
 62
               7
100
AcDbLine
 10
-7.0000000000000844
 20
45.709964468846593
 30
0.0
 11
-7.0000000000000844
 21
47.709964468846593
 31
0.0
  0
LINE
  5
3F
100
AcDbEntity
  8
0
  6
CONTINUOUS
 62
               7
100
AcDbLine
 10
6.9999999999999085
 20
45.709964468846593
 30
0.0
 11
6.9999999999999085
 21
47.709964468846593
 31
0.0
  0
LINE
  5
40
100
AcDbEntity
  8
0
  6
CONTINUOUS
 62
               7
100
AcDbLine
 10
-7.5000000000000844
 20
44.709964468846692
 30
0.0
 11
7.4999999999999085
 21
44.709964468846692
 31
0.0
  0
LINE
  5
41
100
AcDbEntity
  8
0
  6
CONTINUOUS
 62
               7
100
AcDbLine
 10
-7.5000000000000844
 20
45.709964468846579
 30
0.0
 11
-7.5000000000000844
 21
44.709964468846692
 31
0.0
  0
LINE
  5
42
100
AcDbEntity
  8
0
  6
CONTINUOUS
 62
               7
100
AcDbLine
 10
7.4999999999999085
 20
44.709964468846692
 30
0.0
 11
7.4999999999999085
 21
45.709964468846579
 31
0.0
  0
LINE
  5
43
100
AcDbEntity
  8
0
  6
CONTINUOUS
 62
               7
100
AcDbLine
 10
-7.5000000000000844
 20
45.709964468846579
 30
0.0
 11
7.4999999999999085
 21
45.709964468846579
 31
0.0
  0
LINE
  5
44
100
AcDbEntity
  8
0
  6
CONTINUOUS
 62
               7
100
AcDbLine
 10
7.4999999999999085
 20
9.099999999999973
 30
0.0
 11
7.4999999999999085
 21
9.9149771774102682
 31
0.0
  0
LINE
  5
45
100
AcDbEntity
  8
0
  6
CONTINUOUS
 62
               7
100
AcDbLine
 10
-7.5000000000000844
 20
9.9149771774102682
 30
0.0
 11
-7.5000000000000844
 21
9.099999999999973
 31
0.0
  0
LINE
  5
46
100
AcDbEntity
  8
0
  6
CONTINUOUS
 62
               7
100
AcDbLine
 10
-7.5000000000000844
 20
9.099999999999973
 30
0.0
 11
7.4999999999999085
 21
9.099999999999973
 31
0.0
  0
LINE
  5
47
100
AcDbEntity
  8
0
  6
CONTINUOUS
 62
               7
100
AcDbLine
 10
-0.0000000000000914
 20
7.3844253484584961
 30
0.0
 11
-0.0000000000000914
 21
8.621849405244852
 31
0.0
  0
LINE
  5
48
100
AcDbEntity
  8
0
  6
CONTINUOUS
 62
               7
100
AcDbLine
 10
-0.0000000000000914
 20
47.421852457002672
 30
0.0
 11
-0.0000000000000914
 21
45.998076480690528
 31
0.0
  0
LINE
  5
49
100
AcDbEntity
  8
0
  6
CONTINUOUS
 62
               7
100
AcDbLine
 10
6.9999999999999369
 20
7.0999999999999694
 30
0.0
 11
6.9999999999999369
 21
9.099999999999973
 31
0.0
  0
LINE
  5
4A
100
AcDbEntity
  8
0
  6
CONTINUOUS
 62
               7
100
AcDbLine
 10
-7.0000000000000844
 20
7.0999999999999694
 30
0.0
 11
-7.0000000000000844
 21
9.099999999999973
 31
0.0
  0
LINE
  5
4B
100
AcDbEntity
  8
0
  6
CONTINUOUS
 62
               7
100
AcDbLine
 10
-7.0000000000000844
 20
47.709964468846593
 30
0.0
 11
6.9999999999999085
 21
47.709964468846593
 31
0.0
  0
LINE
  5
4C
100
AcDbEntity
  8
0
  6
CONTINUOUS
 62
               7
100
AcDbLine
 10
-7.0000000000000062
 20
7.0999999999999481
 30
0.0
 11
6.9999999999998517
 21
7.0999999999999481
 31
0.0
  0
LINE
  5
4D
100
AcDbEntity
  8
0
  6
CONTINUOUS
 62
               7
100
AcDbLine
 10
-7.4000000000000901
 20
34.549964468846582
 30
0.0
 11
-7.4000000000000901
 21
37.25996446884659
 31
0.0
  0
LINE
  5
4E
100
AcDbEntity
  8
0
  6
CONTINUOUS
 62
               7
100
AcDbLine
 10
-7.4000000000000901
 20
37.25996446884659
 30
0.0
 11
-8.4000000000000821
 21
40.10996446884657
 31
0.0
  0
LINE
  5
4F
100
AcDbEntity
  8
0
  6
CONTINUOUS
 62
               7
100
AcDbLine
 10
-8.4000000000000821
 20
43.709964468846593
 30
0.0
 11
-8.4000000000000821
 21
40.10996446884657
 31
0.0
  0
LINE
  5
50
100
AcDbEntity
  8
0
  6
CONTINUOUS
 62
               7
100
AcDbLine
 10
-8.4000000000000821
 20
31.709964468846607
 30
0.0
 11
-8.4000000000000821
 21
31.509964468846597
 31
0.0
  0
LINE
  5
51
100
AcDbEntity
  8
0
  6
CONTINUOUS
 62
               7
100
AcDbLine
 10
-7.4000000000000901
 20
34.549964468846582
 30
0.0
 11
-8.4000000000000892
 21
31.709964468846604
 31
0.0
  0
LINE
  5
52
100
AcDbEntity
  8
0
  6
CONTINUOUS
 62
               7
100
AcDbLine
 10
-7.5000000000000844
 20
9.9149771774102682
 30
0.0
 11
7.4999999999999085
 21
9.9149771774102682
 31
0.0
  0
LINE
  5
53
100
AcDbEntity
  8
0
  6
CONTINUOUS
 62
               7
100
AcDbLine
 10
-7.4000000000000901
 20
20.25996446884659
 30
0.0
 11
-7.4000000000000901
 21
17.559964468846591
 31
0.0
  0
LINE
  5
54
100
AcDbEntity
  8
0
  6
CONTINUOUS
 62
               7
100
AcDbLine
 10
-7.4000000000000901
 20
17.559964468846587
 30
0.0
 11
-8.4000000000000821
 21
14.709964468846604
 31
0.0
  0
LINE
  5
55
100
AcDbEntity
  8
0
  6
CONTINUOUS
 62
               7
100
AcDbLine
 10
-8.4000000000000821
 20
23.309964468846594
 30
0.0
 11
-8.4000000000000821
 21
23.109964468846606
 31
0.0
  0
LINE
  5
56
100
AcDbEntity
  8
0
  6
CONTINUOUS
 62
               7
100
AcDbLine
 10
-8.4000000000000821
 20
10.909964468846596
 30
0.0
 11
-8.4000000000000821
 21
14.709964468846604
 31
0.0
  0
LINE
  5
57
100
AcDbEntity
  8
0
  6
CONTINUOUS
 62
               7
100
AcDbLine
 10
-8.4000000000000892
 20
23.109964468846613
 30
0.0
 11
-7.4000000000000972
 21
20.259964468846587
 31
0.0
  0
LINE
  5
58
100
AcDbEntity
  8
0
  6
CONTINUOUS
 62
               7
100
AcDbLine
 10
-8.5000000000000906
 20
23.336020806874767
 30
0.0
 11
-8.4000000000000821
 21
23.309964468846594
 31
0.0
  0
LINE
  5
59
100
AcDbEntity
  8
0
  6
CONTINUOUS
 62
               7
100
AcDbLine
 10
-0.0000000000000914
 20
23.678649816172474
 30
0.0
 11
-0.0000000000000914
 21
31.131314652674074
 31
0.0
  0
LINE
  5
5A
100
AcDbEntity
  8
0
  6
CONTINUOUS
 62
               7
100
AcDbLine
 10
-8.5000000000000835
 20
23.336020806877539
 30
0.0
 11
-8.5000000000000835
 21
31.483203905463068
 31
0.0
  0
LINE
  5
5B
100
AcDbEntity
  8
0
  6
CONTINUOUS
 62
               7
100
AcDbLine
 10
-8.4000000000000821
 20
31.509964468846597
 30
0.0
 11
-8.5000000000000906
 21
31.483203905466311
 31
0.0
  0
LINE
  5
5C
100
AcDbEntity
  8
0
  6
CENTER
 62
               2
100
AcDbLine
 10
-4.4000000000000972
 20
18.909964468846589
 30
0.0
 11
-9.7249107815928522
 21
18.909964468846589
 31
0.0
  0
ARC
  5
5D
100
AcDbEntity
  8
0
  6
CONTINUOUS
 62
               7
100
AcDbCircle
 10
3.4999999999999512
 20
-9.9806877242315828
 30
0.0
 40
19.080687724231559
100
AcDbArc
 50
79.430298312498834
 51
100.56970168750117
  0
ARC
  5
5E
100
AcDbEntity
  8
0
  6
CONTINUOUS
 62
               7
100
AcDbCircle
 10
-3.5000000000000631
 20
-9.9806877242321228
 30
0.0
 40
19.080687724232099
100
AcDbArc
 50
79.430298312499005
 51
100.56970168750023
  0
ARC
  5
5F
100
AcDbEntity
  8
0
  6
CONTINUOUS
 62
               7
100
AcDbCircle
 10
-3.5000000000000915
 20
28.776861513358554
 30
0.0
 40
21.676861513358602
100
AcDbArc
 50
260.70820553001278
 51
279.29179446998728
  0
ARC
  5
60
100
AcDbEntity
  8
0
  6
CONTINUOUS
 62
               7
100
AcDbCircle
 10
3.4999999999999227
 20
28.776861513352493
 30
0.0
 40
21.676861513352542
100
AcDbArc
 50
260.70820553001016
 51
279.29179446998984
  0
ARC
  5
61
100
AcDbEntity
  8
0
  6
CONTINUOUS
 62
               7
100
AcDbCircle
 10
-3.5000000000001199
 20
26.306815651071034
 30
0.0
 40
21.403148817775563
100
AcDbArc
 50
80.588304649436409
 51
99.411695350563562
  0
ARC
  5
62
100
AcDbEntity
  8
0
  6
CONTINUOUS
 62
               7
100
AcDbCircle
 10
3.4999999999999085
 20
26.306815651071382
 30
0.0
 40
21.403148817775214
100
AcDbArc
 50
80.588304649436211
 51
99.411695350563761
  0
ARC
  5
63
100
AcDbEntity
  8
0
  6
CONTINUOUS
 62
               7
100
AcDbCircle
 10
3.4999999999998943
 20
67.113113286621584
 30
0.0
 40
21.403148817774998
100
AcDbArc
 50
260.58830464943605
 51
279.41169535056395
  0
ARC
  5
64
100
AcDbEntity
  8
0
  6
CONTINUOUS
 62
               7
100
AcDbCircle
 10
-3.5000000000001199
 20
67.1131132866211
 30
0.0
 40
21.403148817774522
100
AcDbArc
 50
260.588304649436
 51
279.411695350564
  0
ARC
  5
65
100
AcDbEntity
  8
0
  6
CONTINUOUS
 62
               7
100
AcDbCircle
 10
-4.2500000000000915
 20
7.4694461512670109
 30
0.0
 40
24.040518317579586
100
AcDbArc
 50
79.817456497181112
 51
100.1825435028189
  0
ARC
  5
66
100
AcDbEntity
  8
0
  6
CONTINUOUS
 62
               7
100
AcDbCircle
 10
-4.2500000000000915
 20
47.990127400908335
 30
0.0
 40
24.680162932061734
100
AcDbArc
 50
260.08406461521349
 51
279.91593538478651
  0
LINE
  5
67
100
AcDbEntity
  8
0
  6
CONTINUOUS
 62
               7
100
AcDbLine
 10
-6.0000000000000346
 20
3.2999999999999794
 30
0.0
 11
5.9999999999999654
 21
3.2999999999999794
 31
0.0
  0
LINE
  5
68
100
AcDbEntity
  8
0
  6
CONTINUOUS
 62
               7
100
AcDbLine
 10
5.4999999999999369
 20
2.8000000000000007
 30
0.0
 11
-5.5000000000000062
 21
2.8000000000000007
 31
0.0
  0
LINE
  5
69
100
AcDbEntity
  8
0
  6
CONTINUOUS
 62
               7
100
AcDbLine
 10
-6.0000000000000346
 20
7.100000000000005
 30
0.0
 11
-6.0000000000000346
 21
3.2999999999999794
 31
0.0
  0
ARC
  5
6A
100
AcDbEntity
  8
0
  6
CONTINUOUS
 62
               7
100
AcDbCircle
 10
-1.4842431943322714
 20
4.0
 30
0.0
 40
4.0
100
AcDbArc
 50
197.45760312372323
 51
270.0
  0
LINE
  5
6B
100
AcDbEntity
  8
0
  6
CONTINUOUS
 62
               7
100
AcDbLine
 10
-6.0000000000000346
 20
3.2999999999999794
 30
0.0
 11
-5.5000000000000062
 21
2.8000000000000007
 31
0.0
  0
LINE
  5
6C
100
AcDbEntity
  8
0
  6
CONTINUOUS
 62
               7
100
AcDbLine
 10
5.9999999999999654
 20
3.2999999999999794
 30
0.0
 11
5.9999999999999654
 21
7.100000000000005
 31
0.0
  0
LINE
  5
6D
100
AcDbEntity
  8
0
  6
CONTINUOUS
 62
               7
100
AcDbLine
 10
1.4842431942133283
 20
0.0
 30
0.0
 11
-1.4842431943322714
 21
0.0
 31
0.0
  0
ARC
  5
6E
100
AcDbEntity
  8
0
  6
CONTINUOUS
 62
               7
100
AcDbCircle
 10
1.4842431943322021
 20
4.0
 30
0.0
 40
4.0
100
AcDbArc
 50
270.0
 51
342.54239687627671
  0
LINE
  5
6F
100
AcDbEntity
  8
0
  6
CONTINUOUS
 62
               7
100
AcDbLine
 10
5.4999999999999369
 20
2.8000000000000007
 30
0.0
 11
5.9999999999999654
 21
3.2999999999999794
 31
0.0
  0
LINE
  5
70
100
AcDbEntity
  8
0
  6
CONTINUOUS
 62
               2
100
AcDbLine
 10
-5.5000000000000346
 20
51.909964468846603
 30
0.0
 11
-5.5000000000000346
 21
47.709964468846593
 31
0.0
  0
LINE
  5
71
100
AcDbEntity
  8
0
  6
CONTINUOUS
 62
               2
100
AcDbLine
 10
5.4999999999998517
 20
51.909964468846603
 30
0.0
 11
5.4999999999998517
 21
47.709964468846593
 31
0.0
  0
ARC
  5
72
100
AcDbEntity
  8
0
  6
CONTINUOUS
 62
               7
100
AcDbCircle
 10
4.2499999999999085
 20
47.990127400908023
 30
0.0
 40
24.680162932061425
100
AcDbArc
 50
260.08406461521338
 51
279.91593538478662
  0
ARC
  5
73
100
AcDbEntity
  8
0
  6
CONTINUOUS
 62
               7
100
AcDbCircle
 10
4.2499999999999085
 20
7.4694461512667907
 30
0.0
 40
24.04051831757981
100
AcDbArc
 50
79.817456497181198
 51
100.18254350281877
  0
LINE
  5
74
100
AcDbEntity
  8
0
  6
CONTINUOUS
 62
               7
100
AcDbLine
 10
8.3999999999999151
 20
31.509964468846597
 30
0.0
 11
-8.4000000000000821
 21
31.509964468846597
 31
0.0
  0
LINE
  5
75
100
AcDbEntity
  8
0
  6
CONTINUOUS
 62
               7
100
AcDbLine
 10
8.3999999999999151
 20
23.309964468846598
 30
0.0
 11
-8.4000000000000821
 21
23.309964468846594
 31
0.0
  0
ARC
  5
76
100
AcDbEntity
  8
0
  6
CONTINUOUS
 62
               7
100
AcDbCircle
 10
7.399998474110526
 20
10.90996599473598
 30
0.0
 40
1.0000015258905481
100
AcDbArc
 50
275.73924955786123
 51
359.99991257311166
  0
ARC
  5
77
100
AcDbEntity
  8
0
  6
CONTINUOUS
 62
               7
100
AcDbCircle
 10
7.3999969482374519
 20
43.709961417084131
 30
0.0
 40
1.0000030517671257
100
AcDbArc
 50
0.0001748525759521
 51
90.0
  0
ARC
  5
78
100
AcDbEntity
  8
0
  6
CONTINUOUS
 62
               7
100
AcDbCircle
 10
0.0068654461745804
 20
45.209994456648573
 30
0.0
 40
11.993237423581604
100
AcDbArc
 50
69.014829998769116
 51
111.04639117315809
  0
ARC
  5
79
100
AcDbEntity
  8
0
  6
CONTINUOUS
 62
               7
100
AcDbCircle
 10
-3.7451133548119406
 20
54.956002334049288
 30
0.0
 40
1.554886645188208
100
AcDbArc
 50
110.98517000123093
 51
179.99999999999997
  0
LINE
  5
7A
100
AcDbEntity
  8
0
  6
CONTINUOUS
 62
               7
100
AcDbLine
 10
-5.3000000000001455
 20
54.956002334049288
 30
0.0
 11
-5.3000000000001455
 21
54.409964468846624
 31
0.0
  0
ARC
  5
7B
100
AcDbEntity
  8
0
  6
CONTINUOUS
 62
               7
100
AcDbCircle
 10
3.745113354811644
 20
54.956002334049288
 30
0.0
 40
1.554886645188208
100
AcDbArc
 50
0.0000000000000254
 51
69.014829998769073
  0
LINE
  5
7C
100
AcDbEntity
  8
0
  6
CONTINUOUS
 62
               7
100
AcDbLine
 10
5.2999999999998488
 20
54.409964468846624
 30
0.0
 11
5.2999999999998488
 21
54.956002334049288
 31
0.0
  0
LINE
  5
7D
100
AcDbEntity
  8
0
  6
CENTER
 62
               2
100
AcDbLine
 10
11.499999999999902
 20
27.409612356170513
 30
0.0
 11
6.1750892184071455
 21
27.409612356170513
 31
0.0
  0
LINE
  5
7E
100
AcDbEntity
  8
0
  6
CENTER
 62
               2
100
AcDbLine
 10
0.0000000000000081
 20
-3.1999999999999966
 30
0.0
 11
-0.0000000000001624
 21
60.00996446884659
 31
0.0
  0
ENDBLK
  5
7F
100
AcDbEntity
  8
0
100
AcDbBlockEnd
  0
BLOCK
  5
80
100
AcDbEntity
  8
0
100
AcDbBlockBegin
  2
4PP-2
 70
               0
 10
0.0
 20
0.0
 30
0.0
  3
4PP-2
  1

  0
CIRCLE
  5
81
100
AcDbEntity
  8
0
  6
CONTINUOUS
 62
               7
100
AcDbCircle
 10
0.0
 20
42.47951793896528
 30
0.0
 40
1.1505232327512009
  0
CIRCLE
  5
82
100
AcDbEntity
  8
0
  6
CONTINUOUS
 62
               7
100
AcDbCircle
 10
0.0
 20
12.330446529881268
 30
0.0
 40
1.1505232327512009
  0
LINE
  5
83
100
AcDbEntity
  8
0
  6
CENTER
 62
               2
100
AcDbLine
 10
-4.5
 20
18.909961417088788
 30
0.0
 11
4.5
 21
18.909961417088788
 31
0.0
  0
CIRCLE
  5
84
100
AcDbEntity
  8
0
  6
CONTINUOUS
 62
               2
100
AcDbCircle
 10
0.0
 20
35.90996141708878
 30
0.0
 40
2.5
  0
CIRCLE
  5
85
100
AcDbEntity
  8
0
  6
CONTINUOUS
 62
               7
100
AcDbCircle
 10
0.0
 20
35.90996141708878
 30
0.0
 40
2.0670000000000002
  0
CIRCLE
  5
86
100
AcDbEntity
  8
0
  6
CONTINUOUS
 62
               2
100
AcDbCircle
 10
0.0
 20
18.909961417088788
 30
0.0
 40
2.5
  0
CIRCLE
  5
87
100
AcDbEntity
  8
0
  6
CONTINUOUS
 62
               7
100
AcDbCircle
 10
0.0
 20
18.909961417088788
 30
0.0
 40
2.0670000000000002
  0
LINE
  5
88
100
AcDbEntity
  8
0
  6
CONTINUOUS
 62
               7
100
AcDbLine
 10
8.4000000000000057
 20
31.509964468846597
 30
0.0
 11
-8.4000000000000057
 21
31.509964468846597
 31
0.0
  0
LINE
  5
89
100
AcDbEntity
  8
0
  6
CONTINUOUS
 62
               7
100
AcDbLine
 10
9.8149545762236414
 20
31.131314652674074
 30
0.0
 11
8.4000000000000057
 21
31.509964468846597
 31
0.0
  0
LINE
  5
8A
100
AcDbEntity
  8
0
  6
CONTINUOUS
 62
               7
100
AcDbLine
 10
-8.4000000000000057
 20
31.509964468846597
 30
0.0
 11
-9.8149545762236414
 21
31.131314652674078
 31
0.0
  0
LINE
  5
8B
100
AcDbEntity
  8
0
  6
CONTINUOUS
 62
               7
100
AcDbLine
 10
4.9074772881118065
 20
23.678649816172474
 30
0.0
 11
4.9074772881118065
 21
31.131314652674074
 31
0.0
  0
LINE
  5
8C
100
AcDbEntity
  8
0
  6
CONTINUOUS
 62
               7
100
AcDbLine
 10
9.8149545762236414
 20
23.678649816172474
 30
0.0
 11
9.8149545762236414
 21
31.131314652674074
 31
0.0
  0
LINE
  5
8D
100
AcDbEntity
  8
0
  6
CONTINUOUS
 62
               7
100
AcDbLine
 10
-4.9074772881118349
 20
23.67864981617247
 30
0.0
 11
-4.9074772881118349
 21
31.131314652674074
 31
0.0
  0
LINE
  5
8E
100
AcDbEntity
  8
0
  6
CONTINUOUS
 62
               7
100
AcDbLine
 10
8.4000000000000057
 20
23.309964468846594
 30
0.0
 11
-8.4000000000000057
 21
23.309964468846594
 31
0.0
  0
LINE
  5
8F
100
AcDbEntity
  8
0
  6
CONTINUOUS
 62
               7
100
AcDbLine
 10
-9.8149545762236414
 20
23.678649816172474
 30
0.0
 11
-8.4000000000000057
 21
23.309964468846594
 31
0.0
  0
LINE
  5
90
100
AcDbEntity
  8
0
  6
CONTINUOUS
 62
               7
100
AcDbLine
 10
8.4000000000000057
 20
23.309964468846594
 30
0.0
 11
9.8149545762236414
 21
23.678649816172474
 31
0.0
  0
LINE
  5
91
100
AcDbEntity
  8
0
  6
CONTINUOUS
 62
               7
100
AcDbLine
 10
-9.8149545762236414
 20
23.678649816172474
 30
0.0
 11
-9.8149545762236414
 21
31.131314652674074
 31
0.0
  0
LINE
  5
92
100
AcDbEntity
  8
0
  6
CONTINUOUS
 62
               7
100
AcDbLine
 10
-7.5
 20
9.9149771774102682
 30
0.0
 11
7.5
 21
9.9149771774102682
 31
0.0
  0
LINE
  5
93
100
AcDbEntity
  8
0
  6
CONTINUOUS
 62
               7
100
AcDbLine
 10
8.4000000000000057
 20
10.909964468846596
 30
0.0
 11
8.4000000000000057
 21
23.309964468846594
 31
0.0
  0
LINE
  5
94
100
AcDbEntity
  8
0
  6
CONTINUOUS
 62
               7
100
AcDbLine
 10
-8.4000000000000057
 20
23.309964468846594
 30
0.0
 11
-8.4000000000000057
 21
10.909964468846596
 31
0.0
  0
LINE
  5
95
100
AcDbEntity
  8
0
  6
CONTINUOUS
 62
               7
100
AcDbLine
 10
3.974921382877028
 20
20.25996446884659
 30
0.0
 11
3.974921382877028
 21
17.559964468846587
 31
0.0
  0
LINE
  5
96
100
AcDbEntity
  8
0
  6
CONTINUOUS
 62
               7
100
AcDbLine
 10
-3.974921382877028
 20
17.559964468846587
 30
0.0
 11
-3.974921382877028
 21
20.25996446884659
 31
0.0
  0
LINE
  5
97
100
AcDbEntity
  8
0
  6
CONTINUOUS
 62
               7
100
AcDbLine
 10
8.4000000000000057
 20
31.509964468846597
 30
0.0
 11
8.4000000000000057
 21
43.709964468846593
 31
0.0
  0
LINE
  5
98
100
AcDbEntity
  8
0
  6
CONTINUOUS
 62
               7
100
AcDbLine
 10
-8.4000000000000057
 20
43.709964468846593
 30
0.0
 11
-8.4000000000000057
 21
31.509964468846597
 31
0.0
  0
LINE
  5
99
100
AcDbEntity
  8
0
  6
CONTINUOUS
 62
               7
100
AcDbLine
 10
-3.974921382877028
 20
37.25996446884659
 30
0.0
 11
-3.974921382877028
 21
34.549964468846589
 31
0.0
  0
LINE
  5
9A
100
AcDbEntity
  8
0
  6
CONTINUOUS
 62
               7
100
AcDbLine
 10
3.974921382877028
 20
34.549964468846589
 30
0.0
 11
3.974921382877028
 21
37.25996446884659
 31
0.0
  0
LINE
  5
9B
100
AcDbEntity
  8
0
  6
CONTINUOUS
 62
               7
100
AcDbLine
 10
-7.5
 20
44.709964468846685
 30
0.0
 11
7.5
 21
44.709964468846685
 31
0.0
  0
LINE
  5
9C
100
AcDbEntity
  8
0
  6
CONTINUOUS
 62
               7
100
AcDbLine
 10
-7.5
 20
45.709964468846579
 30
0.0
 11
7.5
 21
45.709964468846579
 31
0.0
  0
LINE
  5
9D
100
AcDbEntity
  8
0
  6
CONTINUOUS
 62
               7
100
AcDbLine
 10
7.5
 20
44.709964468846685
 30
0.0
 11
7.5
 21
45.709964468846579
 31
0.0
  0
LINE
  5
9E
100
AcDbEntity
  8
0
  6
CONTINUOUS
 62
               7
100
AcDbLine
 10
-7.5
 20
45.709964468846579
 30
0.0
 11
-7.5
 21
44.709964468846685
 31
0.0
  0
LINE
  5
9F
100
AcDbEntity
  8
0
  6
CONTINUOUS
 62
               7
100
AcDbLine
 10
-7.5
 20
9.099999999999973
 30
0.0
 11
7.5
 21
9.099999999999973
 31
0.0
  0
LINE
  5
A0
100
AcDbEntity
  8
0
  6
CONTINUOUS
 62
               7
100
AcDbLine
 10
-7.5
 20
9.9149771774102682
 30
0.0
 11
-7.5
 21
9.099999999999973
 31
0.0
  0
LINE
  5
A1
100
AcDbEntity
  8
0
  6
CONTINUOUS
 62
               7
100
AcDbLine
 10
7.5
 20
9.099999999999973
 30
0.0
 11
7.5
 21
9.9149771774102682
 31
0.0
  0
LINE
  5
A2
100
AcDbEntity
  8
0
  6
CONTINUOUS
 62
               7
100
AcDbLine
 10
5.841844681049821
 20
7.0999999999999517
 30
0.0
 11
0.4406662908824046
 21
7.0999999999999517
 31
0.0
  0
LINE
  5
A3
100
AcDbEntity
  8
0
  6
CONTINUOUS
 62
               7
100
AcDbLine
 10
-6.0621778264910802
 20
47.709964468846593
 30
0.0
 11
6.062177826491066
 21
47.709964468846593
 31
0.0
  0
LINE
  5
A4
100
AcDbEntity
  8
0
  6
CONTINUOUS
 62
               7
100
AcDbLine
 10
4.0414518843273726
 20
47.421852457002672
 30
0.0
 11
4.0414518843273726
 21
45.998076480690521
 31
0.0
  0
LINE
  5
A5
100
AcDbEntity
  8
0
  6
CONTINUOUS
 62
               7
100
AcDbLine
 10
8.0829037686547593
 20
47.421852457002672
 30
0.0
 11
8.0829037686547593
 21
45.998076480690521
 31
0.0
  0
LINE
  5
A6
100
AcDbEntity
  8
0
  6
CONTINUOUS
 62
               7
100
AcDbLine
 10
-4.0414518843273868
 20
47.421852457002672
 30
0.0
 11
-4.0414518843273868
 21
45.998076480690514
 31
0.0
  0
LINE
  5
A7
100
AcDbEntity
  8
0
  6
CONTINUOUS
 62
               7
100
AcDbLine
 10
8.0829037686547593
 20
7.3844253484584961
 30
0.0
 11
8.0829037686547593
 21
8.8155746515415245
 31
0.0
  0
LINE
  5
A8
100
AcDbEntity
  8
0
  6
CONTINUOUS
 62
               7
100
AcDbLine
 10
5.841844681049821
 20
7.0999999999999517
 30
0.0
 11
6.2825109719323109
 21
7.0999999999999517
 31
0.0
  0
LINE
  5
A9
100
AcDbEntity
  8
0
  6
CONTINUOUS
 62
               7
100
AcDbLine
 10
4.0414518843273441
 20
7.3844253484584108
 30
0.0
 11
4.0414518843273726
 21
8.8155746515414073
 31
0.0
  0
LINE
  5
AA
100
AcDbEntity
  8
0
  6
CONTINUOUS
 62
               7
100
AcDbLine
 10
-0.440666290882433
 20
7.0999999999999517
 30
0.0
 11
0.4406662908824046
 21
7.0999999999999517
 31
0.0
  0
LINE
  5
AB
100
AcDbEntity
  8
0
  6
CONTINUOUS
 62
               7
100
AcDbLine
 10
-4.0414518843274152
 20
7.3844253484584321
 30
0.0
 11
-4.0414518843273868
 21
8.8155746515414144
 31
0.0
  0
LINE
  5
AC
100
AcDbEntity
  8
0
  6
CONTINUOUS
 62
               7
100
AcDbLine
 10
-8.0829037686547736
 20
7.3844253484584144
 30
0.0
 11
-8.0829037686547593
 21
8.8155746515413256
 31
0.0
  0
LINE
  5
AD
100
AcDbEntity
  8
0
  6
CONTINUOUS
 62
               7
100
AcDbLine
 10
-6.2825109719322825
 20
7.0999999999999517
 30
0.0
 11
-5.8418446810498637
 21
7.0999999999999517
 31
0.0
  0
LINE
  5
AE
100
AcDbEntity
  8
0
  6
CONTINUOUS
 62
               7
100
AcDbLine
 10
-8.0829037686547593
 20
47.421852457002672
 30
0.0
 11
-8.0829037686547593
 21
45.998076480690521
 31
0.0
  0
LINE
  5
AF
100
AcDbEntity
  8
0
  6
CONTINUOUS
 62
               7
100
AcDbLine
 10
-0.440666290882433
 20
7.0999999999999517
 30
0.0
 11
-5.8418446810498637
 21
7.0999999999999517
 31
0.0
  0
LINE
  5
B0
100
AcDbEntity
  8
0
  6
CONTINUOUS
 62
               7
100
AcDbLine
 10
-6.0
 20
3.2999999999999794
 30
0.0
 11
6.0
 21
3.2999999999999794
 31
0.0
  0
LINE
  5
B1
100
AcDbEntity
  8
0
  6
CONTINUOUS
 62
               7
100
AcDbLine
 10
-6.0
 20
3.2999999999999794
 30
0.0
 11
-5.4999999999999716
 21
2.8000000000000007
 31
0.0
  0
LINE
  5
B2
100
AcDbEntity
  8
0
  6
CONTINUOUS
 62
               7
100
AcDbLine
 10
5.4999999999999716
 20
2.8000000000000007
 30
0.0
 11
6.0
 21
3.2999999999999794
 31
0.0
  0
LINE
  5
B3
100
AcDbEntity
  8
0
  6
CONTINUOUS
 62
               7
100
AcDbLine
 10
5.4999999999999716
 20
2.8000000000000007
 30
0.0
 11
-5.4999999999999716
 21
2.8000000000000007
 31
0.0
  0
LINE
  5
B4
100
AcDbEntity
  8
0
  6
CONTINUOUS
 62
               7
100
AcDbLine
 10
6.0
 20
47.709964468846579
 30
0.0
 11
6.0
 21
51.409964468846603
 31
0.0
  0
LINE
  5
B5
100
AcDbEntity
  8
0
  6
CONTINUOUS
 62
               7
100
AcDbLine
 10
-6.0
 20
51.409964468846603
 30
0.0
 11
-6.0
 21
47.709964468846579
 31
0.0
  0
LINE
  5
B6
100
AcDbEntity
  8
0
  6
CONTINUOUS
 62
               7
100
AcDbLine
 10
6.0
 20
51.409964468846603
 30
0.0
 11
-6.0
 21
51.409964468846603
 31
0.0
  0
LINE
  5
B7
100
AcDbEntity
  8
0
  6
CONTINUOUS
 62
               7
100
AcDbLine
 10
6.0
 20
3.2999999999999794
 30
0.0
 11
6.0
 21
7.100000000000005
 31
0.0
  0
LINE
  5
B8
100
AcDbEntity
  8
0
  6
CONTINUOUS
 62
               7
100
AcDbLine
 10
-6.0
 20
7.100000000000005
 30
0.0
 11
-6.0
 21
3.2999999999999794
 31
0.0
  0
LINE
  5
B9
100
AcDbEntity
  8
0
  6
CONTINUOUS
 62
               7
100
AcDbLine
 10
-5.4999999999999432
 20
51.909964468846596
 30
0.0
 11
5.4999999999999574
 21
51.909964468846596
 31
0.0
  0
LINE
  5
BA
100
AcDbEntity
  8
0
  6
CONTINUOUS
 62
               7
100
AcDbLine
 10
6.0
 20
51.409964468846603
 30
0.0
 11
5.4999999999999574
 21
51.909964468846596
 31
0.0
  0
LINE
  5
BB
100
AcDbEntity
  8
0
  6
CONTINUOUS
 62
               7
100
AcDbLine
 10
-5.4999999999999432
 20
51.909964468846596
 30
0.0
 11
-6.0
 21
51.409964468846603
 31
0.0
  0
LINE
  5
BC
100
AcDbEntity
  8
0
  6
CONTINUOUS
 62
               7
100
AcDbLine
 10
1.4842431942133629
 20
0.0
 30
0.0
 11
-1.4842431943322367
 21
0.0
 31
0.0
  0
LINE
  5
BD
100
AcDbEntity
  8
0
  6
CONTINUOUS
 62
               7
100
AcDbLine
 10
5.2933259094191527
 20
54.409964468846596
 30
0.0
 11
-5.2933259094191527
 21
54.409964468846596
 31
0.0
  0
LINE
  5
BE
100
AcDbEntity
  8
0
  6
CONTINUOUS
 62
               7
100
AcDbLine
 10
7.0
 20
45.709964468846593
 30
0.0
 11
8.0829037686547593
 21
45.998076480690521
 31
0.0
  0
LINE
  5
BF
100
AcDbEntity
  8
0
  6
CONTINUOUS
 62
               7
100
AcDbLine
 10
7.0
 20
47.709964468846593
 30
0.0
 11
6.062177826491066
 21
47.709964468846593
 31
0.0
  0
LINE
  5
C0
100
AcDbEntity
  8
0
  6
CONTINUOUS
 62
               7
100
AcDbLine
 10
8.0829037686547593
 20
47.421852457002672
 30
0.0
 11
7.0
 21
47.709964468846593
 31
0.0
  0
LINE
  5
C1
100
AcDbEntity
  8
0
  6
CONTINUOUS
 62
               7
100
AcDbLine
 10
-8.0829037686547593
 20
45.998076480690521
 30
0.0
 11
-7.0
 21
45.709964468846593
 31
0.0
  0
LINE
  5
C2
100
AcDbEntity
  8
0
  6
CONTINUOUS
 62
               7
100
AcDbLine
 10
-7.0
 20
47.709964468846593
 30
0.0
 11
-8.0829037686547593
 21
47.421852457002672
 31
0.0
  0
LINE
  5
C3
100
AcDbEntity
  8
0
  6
CONTINUOUS
 62
               7
100
AcDbLine
 10
-6.0621778264910802
 20
47.709964468846593
 30
0.0
 11
-7.0
 21
47.709964468846593
 31
0.0
  0
LINE
  5
C4
100
AcDbEntity
  8
0
  6
CONTINUOUS
 62
               7
100
AcDbLine
 10
-8.0829037686547736
 20
7.3844253484585032
 30
0.0
 11
-7.0138567692760887
 21
7.0999999999999517
 31
0.0
  0
LINE
  5
C5
100
AcDbEntity
  8
0
  6
CONTINUOUS
 62
               7
100
AcDbLine
 10
-6.2825109719322825
 20
7.0999999999999517
 30
0.0
 11
-7.0138567692760887
 21
7.0999999999999517
 31
0.0
  0
LINE
  5
C6
100
AcDbEntity
  8
0
  6
CONTINUOUS
 62
               7
100
AcDbLine
 10
7.0138567692760887
 20
7.0999999999999517
 30
0.0
 11
6.2825109719323109
 21
7.0999999999999517
 31
0.0
  0
LINE
  5
C7
100
AcDbEntity
  8
0
  6
CONTINUOUS
 62
               7
100
AcDbLine
 10
7.0138567692760887
 20
7.0999999999999517
 30
0.0
 11
8.0829037686547593
 21
7.3844253484584961
 31
0.0
  0
LINE
  5
C8
100
AcDbEntity
  8
0
  6
CONTINUOUS
 62
               7
100
AcDbLine
 10
2.5999999999999943
 20
51.909964468846546
 30
0.0
 11
2.5999999999999943
 21
54.409964468846617
 31
0.0
  0
LINE
  5
C9
100
AcDbEntity
  8
0
  6
CONTINUOUS
 62
               7
100
AcDbLine
 10
-2.5999999999999943
 20
54.409964468846617
 30
0.0
 11
-2.5999999999999943
 21
51.909964468846546
 31
0.0
  0
LINE
  5
CA
100
AcDbEntity
  8
0
  6
CENTER
 62
               2
100
AcDbLine
 10
-4.5
 20
35.90996141708878
 30
0.0
 11
4.5
 21
35.90996141708878
 31
0.0
  0
ARC
  5
CB
100
AcDbEntity
  8
0
  6
CONTINUOUS
 62
               7
100
AcDbCircle
 10
7.3999984741106175
 20
10.90996599473598
 30
0.0
 40
1.0000015258905481
100
AcDbArc
 50
275.73924955786123
 51
359.99991257311166
  0
ARC
  5
CC
100
AcDbEntity
  8
0
  6
CONTINUOUS
 62
               7
100
AcDbCircle
 10
-7.3999984741106175
 20
10.90996599473598
 30
0.0
 40
1.0000015258905481
100
AcDbArc
 50
180.00008742688834
 51
264.26075044213871
  0
ARC
  5
CD
100
AcDbEntity
  8
0
  6
CONTINUOUS
 62
               7
100
AcDbCircle
 10
7.3999969482375292
 20
43.709961417084131
 30
0.0
 40
1.0000030517671257
100
AcDbArc
 50
0.0001748525759638
 51
90.0
  0
ARC
  5
CE
100
AcDbEntity
  8
0
  6
CONTINUOUS
 62
               7
100
AcDbCircle
 10
-7.3999969482375292
 20
43.709961417084131
 30
0.0
 40
1.0000030517671257
100
AcDbArc
 50
90.0
 51
179.99982514742405
  0
ARC
  5
CF
100
AcDbEntity
  8
0
  6
CONTINUOUS
 62
               7
100
AcDbCircle
 10
-1.4842431943322367
 20
4.0
 30
0.0
 40
4.0
100
AcDbArc
 50
197.45760312372323
 51
270.0
  0
ARC
  5
D0
100
AcDbEntity
  8
0
  6
CONTINUOUS
 62
               7
100
AcDbCircle
 10
1.4842431943322367
 20
4.0
 30
0.0
 40
4.0
100
AcDbArc
 50
270.0
 51
342.54239687627671
  0
ELLIPSE
  5
D1
100
AcDbEntity
  8
0
  6
CONTINUOUS
 62
               7
100
AcDbEllipse
 10
0.0
 20
38.649964468846591
 30
0.0
 11
0.0000000000000015
 21
-23.93999999999998
 31
0.0
210
0.0
220
0.0
230
1.0
 40
0.3508771929824565
 41
5.7902600441933689
 42
0.4929252629862173
  0
ELLIPSE
  5
D2
100
AcDbEntity
  8
0
  6
CONTINUOUS
 62
               7
100
AcDbEllipse
 10
0.0
 20
-0.8300355311536336
 30
0.0
 11
0.0000000000000015
 21
-23.940000000000246
 31
0.0
210
0.0
220
0.0
230
1.0
 40
0.3508771929824526
 41
2.6486673906035767
 42
3.63451791657601
  0
ELLIPSE
  5
D3
100
AcDbEntity
  8
0
  6
CONTINUOUS
 62
               7
100
AcDbEllipse
 10
0.0
 20
55.56596446884663
 30
0.0
 11
0.0000000000000015
 21
-23.856000000000023
 31
0.0
210
0.0
220
0.0
230
1.0
 40
0.3521126760563376
 41
5.7902600441933689
 42
0.4929252629862173
  0
ELLIPSE
  5
D4
100
AcDbEntity
  8
0
  6
CONTINUOUS
 62
               7
100
AcDbEllipse
 10
0.0
 20
16.169964468846608
 30
0.0
 11
0.0000000000000015
 21
-23.939999999999962
 31
0.0
210
0.0
220
0.0
230
1.0
 40
0.3508771929824566
 41
2.6486673906035763
 42
3.6345179165760104
  0
ARC
  5
D5
100
AcDbEntity
  8
0
  6
CONTINUOUS
 62
               7
100
AcDbCircle
 10
6.058222719663533
 20
40.507256905443178
 30
0.0
 40
7.2027075634034192
100
AcDbArc
 50
75.101304565599634
 51
106.26031008882805
  0
ARC
  5
D6
100
AcDbEntity
  8
0
  6
CONTINUOUS
 62
               7
100
AcDbCircle
 10
6.0582227196635188
 20
52.912672032249517
 30
0.0
 40
7.202707563402944
100
AcDbArc
 50
253.7396899111709
 51
284.89869543440022
  0
ARC
  5
D7
100
AcDbEntity
  8
0
  6
CONTINUOUS
 62
               7
100
AcDbCircle
 10
-0.0000000000000142
 20
19.220451380452886
 30
0.0
 40
28.489513088393711
100
AcDbArc
 50
81.844652362277202
 51
98.155347637722812
  0
ARC
  5
D8
100
AcDbEntity
  8
0
  6
CONTINUOUS
 62
               7
100
AcDbCircle
 10
-0.0000000000000142
 20
74.199477557238893
 30
0.0
 40
28.489513088392318
100
AcDbArc
 50
261.8446523622768
 51
278.1553476377232
  0
ARC
  5
D9
100
AcDbEntity
  8
0
  6
CONTINUOUS
 62
               7
100
AcDbCircle
 10
-6.0582227196635472
 20
40.507256905443313
 30
0.0
 40
7.2027075634032878
100
AcDbArc
 50
73.739689911171709
 51
104.89869543440039
  0
ARC
  5
DA
100
AcDbEntity
  8
0
  6
CONTINUOUS
 62
               7
100
AcDbCircle
 10
-6.058222719663533
 20
52.91267203224939
 30
0.0
 40
7.2027075634028099
100
AcDbArc
 50
255.1013045655998
 51
286.26031008882933
  0
ARC
  5
DB
100
AcDbEntity
  8
0
  6
CONTINUOUS
 62
               7
100
AcDbCircle
 10
7.3441789521219363
 20
23.480262059184504
 30
0.0
 40
8.0297024096620913
100
AcDbArc
 50
75.018367427609135
 51
107.66559897425262
  0
ARC
  5
DC
100
AcDbEntity
  8
0
  6
CONTINUOUS
 62
               7
100
AcDbCircle
 10
-0.0000000000000142
 20
-0.4809516518977084
 30
0.0
 40
31.990916120744306
100
AcDbArc
 50
81.17585848084849
 51
98.824141519151524
  0
ARC
  5
DD
100
AcDbEntity
  8
0
  6
CONTINUOUS
 62
               7
100
AcDbCircle
 10
-7.3441789521219363
 20
23.480262059184547
 30
0.0
 40
8.0297024096620486
100
AcDbArc
 50
72.334401025747439
 51
104.98163257239086
  0
ARC
  5
DE
100
AcDbEntity
  8
0
  6
CONTINUOUS
 62
               7
100
AcDbCircle
 10
-7.3443741275343655
 20
31.547876736555096
 30
0.0
 40
8.2379122677085004
100
AcDbArc
 50
255.39555255320991
 51
287.20640618877331
  0
ARC
  5
DF
100
AcDbEntity
  8
0
  6
CONTINUOUS
 62
               7
100
AcDbCircle
 10
-0.0000000000000142
 20
56.155400820374808
 30
0.0
 40
32.845436351528214
100
AcDbArc
 50
261.4071915442259
 51
278.5928084557741
  0
ARC
  5
E0
100
AcDbEntity
  8
0
  6
CONTINUOUS
 62
               7
100
AcDbCircle
 10
7.3443741275343513
 20
31.54787673655526
 30
0.0
 40
8.2379122677086656
100
AcDbArc
 50
252.79359381122683
 51
284.60444744679006
  0
ARC
  5
E1
100
AcDbEntity
  8
0
  6
CONTINUOUS
 62
               7
100
AcDbCircle
 10
6.091686762344608
 20
14.631608657780729
 30
0.0
 40
7.5316086577807777
100
AcDbArc
 50
254.20374261009974
 51
281.15189452587799
  0
ARC
  5
E2
100
AcDbEntity
  8
0
  6
CONTINUOUS
 62
               7
100
AcDbCircle
 10
-0.0000000000000284
 20
35.95507779306827
 30
0.0
 40
28.855077793068322
100
AcDbArc
 50
261.94866236800738
 51
278.05133763199262
  0
ARC
  5
E3
100
AcDbEntity
  8
0
  6
CONTINUOUS
 62
               7
100
AcDbCircle
 10
-6.0916867623446933
 20
14.631608657779843
 30
0.0
 40
7.5316086577798922
100
AcDbArc
 50
258.84810547412138
 51
285.79625738990245
  0
ARC
  5
E4
100
AcDbEntity
  8
0
  6
CONTINUOUS
 62
               7
100
AcDbCircle
 10
6.0916867623446791
 20
1.5683913422192717
 30
0.0
 40
7.5316086577807777
100
AcDbArc
 50
78.848105474122733
 51
105.79625738990096
  0
ARC
  5
E5
100
AcDbEntity
  8
0
  6
CONTINUOUS
 62
               7
100
AcDbCircle
 10
0.0000000000003126
 20
-19.755077793068349
 30
0.0
 40
28.855077793068322
100
AcDbArc
 50
81.948662368008087
 51
98.051337631993334
  0
LINE
  5
E6
100
AcDbEntity
  8
0
  6
CONTINUOUS
 62
               7
100
AcDbLine
 10
7.0138567692760745
 20
9.1000000000000547
 30
0.0
 11
8.0829037686547593
 21
8.8155746515415245
 31
0.0
  0
ARC
  5
E7
100
AcDbEntity
  8
0
  6
CONTINUOUS
 62
               7
100
AcDbCircle
 10
-6.091686762344608
 20
1.56839134222
 30
0.0
 40
7.5316086577798922
100
AcDbArc
 50
74.203742610098274
 51
101.15189452587936
  0
LINE
  5
E8
100
AcDbEntity
  8
0
  6
CONTINUOUS
 62
               7
100
AcDbLine
 10
-8.0829037686547878
 20
8.8155746515413185
 30
0.0
 11
-7.0138567692761029
 21
9.0999999999998842
 31
0.0
  0
LINE
  5
E9
100
AcDbEntity
  8
0
  6
CENTER
 62
               2
100
AcDbLine
 10
-2.0
 20
42.474964468846707
 30
0.0
 11
2.0
 21
42.474964468846707
 31
0.0
  0
LINE
  5
EA
100
AcDbEntity
  8
0
  6
CONTINUOUS
 62
               2
100
AcDbLine
 10
-5.5000000000000142
 20
51.909964468846589
 30
0.0
 11
-5.5000000000000142
 21
47.709964468846593
 31
0.0
  0
LINE
  5
EB
100
AcDbEntity
  8
0
  6
CONTINUOUS
 62
               2
100
AcDbLine
 10
5.5000000000000142
 20
51.909964468846589
 30
0.0
 11
5.5000000000000142
 21
47.709964468846593
 31
0.0
  0
LINE
  5
EC
100
AcDbEntity
  8
0
  6
CENTER
 62
               2
100
AcDbLine
 10
-2.0
 20
12.325893059762702
 30
0.0
 11
2.0
 21
12.325893059762702
 31
0.0
  0
ARC
  5
ED
100
AcDbEntity
  8
0
  6
CONTINUOUS
 62
               7
100
AcDbCircle
 10
0.0068654461747286
 20
45.209994456648559
 30
0.0
 40
11.993237423581604
100
AcDbArc
 50
69.014829998769116
 51
111.04639117315809
  0
ARC
  5
EE
100
AcDbEntity
  8
0
  6
CONTINUOUS
 62
               7
100
AcDbCircle
 10
-3.7451133548117923
 20
54.956002334049259
 30
0.0
 40
1.554886645188208
100
AcDbArc
 50
110.98517000123093
 51
179.99999999999997
  0
LINE
  5
EF
100
AcDbEntity
  8
0
  6
CONTINUOUS
 62
               7
100
AcDbLine
 10
-5.2999999999999972
 20
54.956002334049259
 30
0.0
 11
-5.2999999999999972
 21
54.409964468846596
 31
0.0
  0
ARC
  5
F0
100
AcDbEntity
  8
0
  6
CONTINUOUS
 62
               7
100
AcDbCircle
 10
3.7451133548117923
 20
54.956002334049259
 30
0.0
 40
1.554886645188208
100
AcDbArc
 50
0.0000000000000254
 51
69.014829998769073
  0
LINE
  5
F1
100
AcDbEntity
  8
0
  6
CONTINUOUS
 62
               7
100
AcDbLine
 10
5.2999999999999972
 20
54.409964468846596
 30
0.0
 11
5.2999999999999972
 21
54.956002334049259
 31
0.0
  0
LINE
  5
F2
100
AcDbEntity
  8
0
  6
CENTER
 62
               2
100
AcDbLine
 10
0.0
 20
-3.0999999999999965
 30
0.0
 11
0.0
 21
60.109964468846592
 31
0.0
  0
ENDBLK
  5
F3
100
AcDbEntity
  8
0
100
AcDbBlockEnd
  0
BLOCK
  5
F4
100
AcDbEntity
  8
0
100
AcDbBlockBegin
  2
4PP-3
 70
               0
 10
0.0
 20
0.0
 30
0.0
  3
4PP-3
  1

  0
LINE
  5
F5
100
AcDbEntity
  8
0
  6
CONTINUOUS
 62
               7
100
AcDbLine
 10
9.8149545762236414
 20
23.678649816172449
 30
0.0
 11
9.8149545762236272
 21
31.13131465267405
 31
0.0
  0
CIRCLE
  5
F6
100
AcDbEntity
  8
0
  6
CONTINUOUS
 62
               7
100
AcDbCircle
 10
0.0
 20
42.479517938965259
 30
0.0
 40
1.1505232327512009
  0
CIRCLE
  5
F7
100
AcDbEntity
  8
0
  6
CONTINUOUS
 62
               7
100
AcDbCircle
 10
0.0
 20
12.330446529881243
 30
0.0
 40
1.1505232327512009
  0
LINE
  5
F8
100
AcDbEntity
  8
0
  6
CONTINUOUS
 62
               7
100
AcDbLine
 10
-8.3999999999999915
 20
31.509964468846572
 30
0.0
 11
8.3999999999999915
 21
31.509964468846572
 31
0.0
  0
LINE
  5
F9
100
AcDbEntity
  8
0
  6
CONTINUOUS
 62
               7
100
AcDbLine
 10
-9.8149545762236414
 20
31.13131465267405
 30
0.0
 11
-8.3999999999999915
 21
31.509964468846572
 31
0.0
  0
LINE
  5
FA
100
AcDbEntity
  8
0
  6
CONTINUOUS
 62
               7
100
AcDbLine
 10
-4.9074772881118065
 20
23.678649816172449
 30
0.0
 11
-4.9074772881118065
 21
31.13131465267405
 31
0.0
  0
LINE
  5
FB
100
AcDbEntity
  8
0
  6
CONTINUOUS
 62
               7
100
AcDbLine
 10
-9.8149545762236414
 20
23.678649816172449
 30
0.0
 11
-9.8149545762236414
 21
31.13131465267405
 31
0.0
  0
LINE
  5
FC
100
AcDbEntity
  8
0
  6
CONTINUOUS
 62
               7
100
AcDbLine
 10
4.9074772881118349
 20
23.678649816172445
 30
0.0
 11
4.9074772881118207
 21
31.13131465267405
 31
0.0
  0
LINE
  5
FD
100
AcDbEntity
  8
0
  6
CONTINUOUS
 62
               7
100
AcDbLine
 10
-8.3999999999999915
 20
23.309964468846569
 30
0.0
 11
8.3999999999999915
 21
23.309964468846569
 31
0.0
  0
LINE
  5
FE
100
AcDbEntity
  8
0
  6
CONTINUOUS
 62
               7
100
AcDbLine
 10
-8.3999999999999915
 20
23.309964468846569
 30
0.0
 11
-9.8149545762236414
 21
23.678649816172449
 31
0.0
  0
LINE
  5
FF
100
AcDbEntity
  8
0
  6
CONTINUOUS
 62
               7
100
AcDbLine
 10
7.5
 20
9.9149771774102433
 30
0.0
 11
-7.5
 21
9.9149771774102433
 31
0.0
  0
LINE
  5
100
100
AcDbEntity
  8
0
  6
CONTINUOUS
 62
               7
100
AcDbLine
 10
-8.4000000000000057
 20
10.909964468846571
 30
0.0
 11
-8.4000000000000057
 21
23.309964468846569
 31
0.0
  0
LINE
  5
101
100
AcDbEntity
  8
0
  6
CONTINUOUS
 62
               7
100
AcDbLine
 10
8.3999999999999915
 20
23.309964468846569
 30
0.0
 11
8.3999999999999915
 21
10.909964468846571
 31
0.0
  0
LINE
  5
102
100
AcDbEntity
  8
0
  6
CONTINUOUS
 62
               7
100
AcDbLine
 10
-8.3999999999999915
 20
31.509964468846572
 30
0.0
 11
-8.3999999999999915
 21
43.709964468846565
 31
0.0
  0
LINE
  5
103
100
AcDbEntity
  8
0
  6
CONTINUOUS
 62
               7
100
AcDbLine
 10
8.3999999999999915
 20
43.709964468846565
 30
0.0
 11
8.3999999999999915
 21
31.509964468846572
 31
0.0
  0
LINE
  5
104
100
AcDbEntity
  8
0
  6
CONTINUOUS
 62
               7
100
AcDbLine
 10
7.5
 20
44.709964468846664
 30
0.0
 11
-7.5
 21
44.709964468846664
 31
0.0
  0
LINE
  5
105
100
AcDbEntity
  8
0
  6
CONTINUOUS
 62
               7
100
AcDbLine
 10
7.5
 20
45.70996446884655
 30
0.0
 11
-7.5
 21
45.70996446884655
 31
0.0
  0
LINE
  5
106
100
AcDbEntity
  8
0
  6
CONTINUOUS
 62
               7
100
AcDbLine
 10
-7.5
 20
44.709964468846664
 30
0.0
 11
-7.5
 21
45.70996446884655
 31
0.0
  0
LINE
  5
107
100
AcDbEntity
  8
0
  6
CONTINUOUS
 62
               7
100
AcDbLine
 10
7.5
 20
45.70996446884655
 30
0.0
 11
7.5
 21
44.709964468846664
 31
0.0
  0
LINE
  5
108
100
AcDbEntity
  8
0
  6
CONTINUOUS
 62
               7
100
AcDbLine
 10
7.5
 20
9.0999999999999481
 30
0.0
 11
-7.5
 21
9.0999999999999481
 31
0.0
  0
LINE
  5
109
100
AcDbEntity
  8
0
  6
CONTINUOUS
 62
               7
100
AcDbLine
 10
7.5
 20
9.9149771774102433
 30
0.0
 11
7.5
 21
9.0999999999999481
 31
0.0
  0
LINE
  5
10A
100
AcDbEntity
  8
0
  6
CONTINUOUS
 62
               7
100
AcDbLine
 10
-7.5
 20
9.0999999999999481
 30
0.0
 11
-7.5
 21
9.9149771774102433
 31
0.0
  0
LINE
  5
10B
100
AcDbEntity
  8
0
  6
CONTINUOUS
 62
               7
100
AcDbLine
 10
-5.841844681049821
 20
7.0999999999999268
 30
0.0
 11
-0.4406662908824046
 21
7.0999999999999268
 31
0.0
  0
LINE
  5
10C
100
AcDbEntity
  8
0
  6
CONTINUOUS
 62
               7
100
AcDbLine
 10
6.062177826491066
 20
47.709964468846565
 30
0.0
 11
-6.062177826491066
 21
47.709964468846565
 31
0.0
  0
LINE
  5
10D
100
AcDbEntity
  8
0
  6
CONTINUOUS
 62
               7
100
AcDbLine
 10
-4.0414518843273726
 20
47.421852457002643
 30
0.0
 11
-4.0414518843273726
 21
45.9980764806905
 31
0.0
  0
LINE
  5
10E
100
AcDbEntity
  8
0
  6
CONTINUOUS
 62
               7
100
AcDbLine
 10
-8.0829037686547593
 20
47.421852457002643
 30
0.0
 11
-8.0829037686547593
 21
45.9980764806905
 31
0.0
  0
LINE
  5
10F
100
AcDbEntity
  8
0
  6
CONTINUOUS
 62
               7
100
AcDbLine
 10
4.0414518843273868
 20
47.421852457002643
 30
0.0
 11
4.0414518843273868
 21
45.998076480690486
 31
0.0
  0
LINE
  5
110
100
AcDbEntity
  8
0
  6
CONTINUOUS
 62
               7
100
AcDbLine
 10
-8.0829037686547593
 20
7.3844253484584712
 30
0.0
 11
-8.0829037686547593
 21
8.8155746515414997
 31
0.0
  0
LINE
  5
111
100
AcDbEntity
  8
0
  6
CONTINUOUS
 62
               7
100
AcDbLine
 10
-5.841844681049821
 20
7.0999999999999268
 30
0.0
 11
-6.2825109719323109
 21
7.0999999999999268
 31
0.0
  0
LINE
  5
112
100
AcDbEntity
  8
0
  6
CONTINUOUS
 62
               7
100
AcDbLine
 10
-4.0414518843273441
 20
7.3844253484583859
 30
0.0
 11
-4.0414518843273726
 21
8.8155746515413824
 31
0.0
  0
LINE
  5
113
100
AcDbEntity
  8
0
  6
CONTINUOUS
 62
               7
100
AcDbLine
 10
0.440666290882433
 20
7.0999999999999268
 30
0.0
 11
-0.4406662908824046
 21
7.0999999999999268
 31
0.0
  0
LINE
  5
114
100
AcDbEntity
  8
0
  6
CONTINUOUS
 62
               7
100
AcDbLine
 10
4.041451884327401
 20
7.3844253484584073
 30
0.0
 11
4.0414518843273868
 21
8.8155746515413895
 31
0.0
  0
LINE
  5
115
100
AcDbEntity
  8
0
  6
CONTINUOUS
 62
               7
100
AcDbLine
 10
8.0829037686547878
 20
7.3844253484583895
 30
0.0
 11
8.0829037686547593
 21
8.8155746515413007
 31
0.0
  0
LINE
  5
116
100
AcDbEntity
  8
0
  6
CONTINUOUS
 62
               7
100
AcDbLine
 10
6.2825109719322825
 20
7.0999999999999268
 30
0.0
 11
5.8418446810498637
 21
7.0999999999999268
 31
0.0
  0
LINE
  5
117
100
AcDbEntity
  8
0
  6
CONTINUOUS
 62
               7
100
AcDbLine
 10
8.0829037686547593
 20
47.421852457002643
 30
0.0
 11
8.0829037686547593
 21
45.9980764806905
 31
0.0
  0
LINE
  5
118
100
AcDbEntity
  8
0
  6
CONTINUOUS
 62
               7
100
AcDbLine
 10
0.440666290882433
 20
7.0999999999999268
 30
0.0
 11
5.8418446810498637
 21
7.0999999999999268
 31
0.0
  0
LINE
  5
119
100
AcDbEntity
  8
0
  6
CONTINUOUS
 62
               7
100
AcDbLine
 10
6.0
 20
3.2999999999999545
 30
0.0
 11
-6.0
 21
3.2999999999999545
 31
0.0
  0
LINE
  5
11A
100
AcDbEntity
  8
0
  6
CONTINUOUS
 62
               7
100
AcDbLine
 10
6.0
 20
3.2999999999999545
 30
0.0
 11
5.4999999999999574
 21
2.7999999999999758
 31
0.0
  0
LINE
  5
11B
100
AcDbEntity
  8
0
  6
CONTINUOUS
 62
               7
100
AcDbLine
 10
-5.4999999999999716
 20
2.7999999999999758
 30
0.0
 11
-6.0
 21
3.2999999999999545
 31
0.0
  0
LINE
  5
11C
100
AcDbEntity
  8
0
  6
CONTINUOUS
 62
               7
100
AcDbLine
 10
-5.4999999999999716
 20
2.7999999999999758
 30
0.0
 11
5.4999999999999574
 21
2.7999999999999758
 31
0.0
  0
LINE
  5
11D
100
AcDbEntity
  8
0
  6
CONTINUOUS
 62
               7
100
AcDbLine
 10
-6.0
 20
47.70996446884655
 30
0.0
 11
-6.0
 21
51.409964468846574
 31
0.0
  0
LINE
  5
11E
100
AcDbEntity
  8
0
  6
CONTINUOUS
 62
               7
100
AcDbLine
 10
6.0
 20
51.409964468846574
 30
0.0
 11
6.0
 21
47.70996446884655
 31
0.0
  0
LINE
  5
11F
100
AcDbEntity
  8
0
  6
CONTINUOUS
 62
               7
100
AcDbLine
 10
-6.0
 20
51.409964468846574
 30
0.0
 11
6.0
 21
51.409964468846574
 31
0.0
  0
LINE
  5
120
100
AcDbEntity
  8
0
  6
CONTINUOUS
 62
               7
100
AcDbLine
 10
-6.0
 20
3.2999999999999545
 30
0.0
 11
-6.0
 21
7.0999999999999801
 31
0.0
  0
LINE
  5
121
100
AcDbEntity
  8
0
  6
CONTINUOUS
 62
               7
100
AcDbLine
 10
6.0
 20
7.0999999999999801
 30
0.0
 11
6.0
 21
3.2999999999999545
 31
0.0
  0
LINE
  5
122
100
AcDbEntity
  8
0
  6
CONTINUOUS
 62
               7
100
AcDbLine
 10
5.4999999999999574
 20
51.909964468846574
 30
0.0
 11
-5.4999999999999574
 21
51.909964468846574
 31
0.0
  0
LINE
  5
123
100
AcDbEntity
  8
0
  6
CONTINUOUS
 62
               7
100
AcDbLine
 10
-6.0
 20
51.409964468846574
 30
0.0
 11
-5.4999999999999574
 21
51.909964468846574
 31
0.0
  0
LINE
  5
124
100
AcDbEntity
  8
0
  6
CONTINUOUS
 62
               7
100
AcDbLine
 10
5.4999999999999574
 20
51.909964468846574
 30
0.0
 11
6.0
 21
51.409964468846574
 31
0.0
  0
LINE
  5
125
100
AcDbEntity
  8
0
  6
CONTINUOUS
 62
               7
100
AcDbLine
 10
-1.4842431942133629
 20
-0.0000000000000249
 30
0.0
 11
1.4842431943322367
 21
-0.0000000000000249
 31
0.0
  0
LINE
  5
126
100
AcDbEntity
  8
0
  6
CONTINUOUS
 62
               7
100
AcDbLine
 10
-5.2933259094191527
 20
54.409964468846567
 30
0.0
 11
5.2933259094191527
 21
54.409964468846567
 31
0.0
  0
LINE
  5
127
100
AcDbEntity
  8
0
  6
CONTINUOUS
 62
               7
100
AcDbLine
 10
-7.0
 20
45.709964468846565
 30
0.0
 11
-8.0829037686547593
 21
45.9980764806905
 31
0.0
  0
LINE
  5
128
100
AcDbEntity
  8
0
  6
CONTINUOUS
 62
               7
100
AcDbLine
 10
-7.0
 20
47.709964468846565
 30
0.0
 11
-6.062177826491066
 21
47.709964468846565
 31
0.0
  0
LINE
  5
129
100
AcDbEntity
  8
0
  6
CONTINUOUS
 62
               7
100
AcDbLine
 10
-8.0829037686547593
 20
47.421852457002643
 30
0.0
 11
-7.0
 21
47.709964468846565
 31
0.0
  0
LINE
  5
12A
100
AcDbEntity
  8
0
  6
CONTINUOUS
 62
               7
100
AcDbLine
 10
8.0829037686547593
 20
45.9980764806905
 30
0.0
 11
7.0
 21
45.709964468846565
 31
0.0
  0
LINE
  5
12B
100
AcDbEntity
  8
0
  6
CONTINUOUS
 62
               7
100
AcDbLine
 10
7.0
 20
47.709964468846565
 30
0.0
 11
8.0829037686547593
 21
47.421852457002643
 31
0.0
  0
LINE
  5
12C
100
AcDbEntity
  8
0
  6
CONTINUOUS
 62
               7
100
AcDbLine
 10
6.062177826491066
 20
47.709964468846565
 30
0.0
 11
7.0
 21
47.709964468846565
 31
0.0
  0
LINE
  5
12D
100
AcDbEntity
  8
0
  6
CONTINUOUS
 62
               7
100
AcDbLine
 10
8.0829037686547878
 20
7.3844253484584783
 30
0.0
 11
7.0138567692760887
 21
7.0999999999999268
 31
0.0
  0
LINE
  5
12E
100
AcDbEntity
  8
0
  6
CONTINUOUS
 62
               7
100
AcDbLine
 10
6.2825109719322825
 20
7.0999999999999268
 30
0.0
 11
7.0138567692760887
 21
7.0999999999999268
 31
0.0
  0
LINE
  5
12F
100
AcDbEntity
  8
0
  6
CONTINUOUS
 62
               7
100
AcDbLine
 10
-7.0138567692760887
 20
7.0999999999999268
 30
0.0
 11
-6.2825109719323109
 21
7.0999999999999268
 31
0.0
  0
LINE
  5
130
100
AcDbEntity
  8
0
  6
CONTINUOUS
 62
               7
100
AcDbLine
 10
-7.0138567692760887
 20
7.0999999999999268
 30
0.0
 11
-8.0829037686547593
 21
7.3844253484584712
 31
0.0
  0
LINE
  5
131
100
AcDbEntity
  8
0
  6
CONTINUOUS
 62
               7
100
AcDbLine
 10
-2.5999999999999943
 20
51.909964468846518
 30
0.0
 11
-2.5999999999999943
 21
54.409964468846596
 31
0.0
  0
LINE
  5
132
100
AcDbEntity
  8
0
  6
CONTINUOUS
 62
               7
100
AcDbLine
 10
2.5999999999999943
 20
54.409964468846596
 30
0.0
 11
2.5999999999999943
 21
51.909964468846518
 31
0.0
  0
ARC
  5
133
100
AcDbEntity
  8
0
  6
CONTINUOUS
 62
               7
100
AcDbCircle
 10
-7.3999984741106175
 20
10.909965994735956
 30
0.0
 40
1.0000015258905481
100
AcDbArc
 50
180.00008742688865
 51
264.26075044213906
  0
ARC
  5
134
100
AcDbEntity
  8
0
  6
CONTINUOUS
 62
               7
100
AcDbCircle
 10
7.3999984741106175
 20
10.909965994735956
 30
0.0
 40
1.0000015258905481
100
AcDbArc
 50
275.73924955786157
 51
359.999912573112
  0
ARC
  5
135
100
AcDbEntity
  8
0
  6
CONTINUOUS
 62
               7
100
AcDbCircle
 10
-7.3999969482375292
 20
43.709961417084102
 30
0.0
 40
1.0000030517671257
100
AcDbArc
 50
90.000000000000313
 51
179.99982514742436
  0
ARC
  5
136
100
AcDbEntity
  8
0
  6
CONTINUOUS
 62
               7
100
AcDbCircle
 10
7.3999969482375292
 20
43.709961417084102
 30
0.0
 40
1.0000030517671257
100
AcDbArc
 50
0.0001748525762575
 51
90.000000000000298
  0
ARC
  5
137
100
AcDbEntity
  8
0
  6
CONTINUOUS
 62
               7
100
AcDbCircle
 10
1.4842431943322367
 20
3.9999999999999751
 30
0.0
 40
4.0
100
AcDbArc
 50
270.00000000000028
 51
342.54239687627711
  0
ARC
  5
138
100
AcDbEntity
  8
0
  6
CONTINUOUS
 62
               7
100
AcDbCircle
 10
-1.4842431943322367
 20
3.9999999999999751
 30
0.0
 40
4.0
100
AcDbArc
 50
197.45760312372357
 51
270.00000000000028
  0
ARC
  5
139
100
AcDbEntity
  8
0
  6
CONTINUOUS
 62
               7
100
AcDbCircle
 10
-6.058222719663533
 20
40.507256905443157
 30
0.0
 40
7.2027075634034192
100
AcDbArc
 50
73.739689911172235
 51
104.89869543440066
  0
ARC
  5
13A
100
AcDbEntity
  8
0
  6
CONTINUOUS
 62
               7
100
AcDbCircle
 10
-6.0582227196635188
 20
52.912672032249489
 30
0.0
 40
7.202707563402944
100
AcDbArc
 50
255.10130456560009
 51
286.26031008882939
  0
ARC
  5
13B
100
AcDbEntity
  8
0
  6
CONTINUOUS
 62
               7
100
AcDbCircle
 10
0.0000000000000142
 20
19.220451380452861
 30
0.0
 40
28.489513088393711
100
AcDbArc
 50
81.844652362277472
 51
98.155347637723096
  0
ARC
  5
13C
100
AcDbEntity
  8
0
  6
CONTINUOUS
 62
               7
100
AcDbCircle
 10
0.0000000000000142
 20
74.199477557238865
 30
0.0
 40
28.489513088392318
100
AcDbArc
 50
261.84465236227709
 51
278.15534763772348
  0
ARC
  5
13D
100
AcDbEntity
  8
0
  6
CONTINUOUS
 62
               7
100
AcDbCircle
 10
6.0582227196635472
 20
40.507256905443285
 30
0.0
 40
7.2027075634032878
100
AcDbArc
 50
75.101304565599932
 51
106.26031008882863
  0
ARC
  5
13E
100
AcDbEntity
  8
0
  6
CONTINUOUS
 62
               7
100
AcDbCircle
 10
6.058222719663533
 20
52.912672032249361
 30
0.0
 40
7.2027075634028099
100
AcDbArc
 50
253.73968991117096
 51
284.89869543440051
  0
ARC
  5
13F
100
AcDbEntity
  8
0
  6
CONTINUOUS
 62
               7
100
AcDbCircle
 10
-7.3441789521219363
 20
23.480262059184479
 30
0.0
 40
8.0297024096620913
100
AcDbArc
 50
72.334401025747681
 51
104.98163257239116
  0
ARC
  5
140
100
AcDbEntity
  8
0
  6
CONTINUOUS
 62
               7
100
AcDbCircle
 10
0.0000000000000142
 20
-0.4809516518977333
 30
0.0
 40
31.990916120744306
100
AcDbArc
 50
81.175858480848817
 51
98.824141519151837
  0
ARC
  5
141
100
AcDbEntity
  8
0
  6
CONTINUOUS
 62
               7
100
AcDbCircle
 10
7.3441789521219363
 20
23.480262059184522
 30
0.0
 40
8.0297024096620486
100
AcDbArc
 50
75.018367427609448
 51
107.66559897425287
  0
ARC
  5
142
100
AcDbEntity
  8
0
  6
CONTINUOUS
 62
               7
100
AcDbCircle
 10
7.3443741275343797
 20
31.547876736555072
 30
0.0
 40
8.2379122677085004
100
AcDbArc
 50
252.79359381122697
 51
284.6044474467904
  0
ARC
  5
143
100
AcDbEntity
  8
0
  6
CONTINUOUS
 62
               7
100
AcDbCircle
 10
0.0000000000000142
 20
56.15540082037478
 30
0.0
 40
32.845436351528214
100
AcDbArc
 50
261.40719154422624
 51
278.59280845577445
  0
ARC
  5
144
100
AcDbEntity
  8
0
  6
CONTINUOUS
 62
               7
100
AcDbCircle
 10
-7.3443741275343513
 20
31.547876736555235
 30
0.0
 40
8.2379122677086656
100
AcDbArc
 50
255.39555255321022
 51
287.20640618877349
  0
ARC
  5
145
100
AcDbEntity
  8
0
  6
CONTINUOUS
 62
               7
100
AcDbCircle
 10
-6.091686762344608
 20
14.631608657780705
 30
0.0
 40
7.5316086577807777
100
AcDbArc
 50
258.84810547412235
 51
285.79625738990057
  0
ARC
  5
146
100
AcDbEntity
  8
0
  6
CONTINUOUS
 62
               7
100
AcDbCircle
 10
0.0000000000000284
 20
35.955077793068241
 30
0.0
 40
28.855077793068322
100
AcDbArc
 50
261.94866236800766
 51
278.05133763199291
  0
ARC
  5
147
100
AcDbEntity
  8
0
  6
CONTINUOUS
 62
               7
100
AcDbCircle
 10
6.0916867623447075
 20
14.631608657779818
 30
0.0
 40
7.5316086577798922
100
AcDbArc
 50
254.20374261009786
 51
281.15189452587896
  0
ARC
  5
148
100
AcDbEntity
  8
0
  6
CONTINUOUS
 62
               7
100
AcDbCircle
 10
-6.0916867623446791
 20
1.5683913422192468
 30
0.0
 40
7.5316086577807777
100
AcDbArc
 50
74.20374261009934
 51
101.15189452587757
  0
ARC
  5
149
100
AcDbEntity
  8
0
  6
CONTINUOUS
 62
               7
100
AcDbCircle
 10
-0.0000000000003126
 20
-19.755077793068374
 30
0.0
 40
28.855077793068322
100
AcDbArc
 50
81.948662368006964
 51
98.051337631992226
  0
LINE
  5
14A
100
AcDbEntity
  8
0
  6
CONTINUOUS
 62
               7
100
AcDbLine
 10
-7.0138567692760745
 20
9.1000000000000298
 30
0.0
 11
-8.0829037686547593
 21
8.8155746515414997
 31
0.0
  0
ARC
  5
14B
100
AcDbEntity
  8
0
  6
CONTINUOUS
 62
               7
100
AcDbCircle
 10
6.0916867623446223
 20
1.5683913422199751
 30
0.0
 40
7.5316086577798922
100
AcDbArc
 50
78.848105474120899
 51
105.79625738990198
  0
LINE
  5
14C
100
AcDbEntity
  8
0
  6
CONTINUOUS
 62
               7
100
AcDbLine
 10
8.0829037686547878
 20
8.8155746515412936
 30
0.0
 11
7.0138567692761029
 21
9.0999999999998593
 31
0.0
  0
LINE
  5
14D
100
AcDbEntity
  8
0
  6
CENTER
 62
               2
100
AcDbLine
 10
2.0
 20
42.474964468846679
 30
0.0
 11
-2.0
 21
42.474964468846679
 31
0.0
  0
LINE
  5
14E
100
AcDbEntity
  8
0
  6
CONTINUOUS
 62
               2
100
AcDbLine
 10
5.5000000000000142
 20
51.90996446884656
 30
0.0
 11
5.5000000000000142
 21
47.709964468846565
 31
0.0
  0
LINE
  5
14F
100
AcDbEntity
  8
0
  6
CONTINUOUS
 62
               2
100
AcDbLine
 10
-5.5000000000000142
 20
51.90996446884656
 30
0.0
 11
-5.5000000000000142
 21
47.709964468846565
 31
0.0
  0
LINE
  5
150
100
AcDbEntity
  8
0
  6
CENTER
 62
               2
100
AcDbLine
 10
2.0
 20
12.325893059762677
 30
0.0
 11
-2.0
 21
12.325893059762677
 31
0.0
  0
LINE
  5
151
100
AcDbEntity
  8
0
  6
CENTER
 62
               2
100
AcDbLine
 10
4.0
 20
27.409964468846571
 30
0.0
 11
-4.0
 21
27.409964468846571
 31
0.0
  0
CIRCLE
  5
152
100
AcDbEntity
  8
0
  6
CONTINUOUS
 62
               2
100
AcDbCircle
 10
0.0
 20
27.409964468846571
 30
0.0
 40
2.5
  0
CIRCLE
  5
153
100
AcDbEntity
  8
0
  6
CONTINUOUS
 62
               7
100
AcDbCircle
 10
0.0
 20
27.409964468846571
 30
0.0
 40
2.0670000000000002
  0
ARC
  5
154
100
AcDbEntity
  8
0
  6
CONTINUOUS
 62
               7
100
AcDbCircle
 10
0.0068654461747144
 20
45.209994456648531
 30
0.0
 40
11.993237423581604
100
AcDbArc
 50
69.014829998769116
 51
111.04639117315809
  0
ARC
  5
155
100
AcDbEntity
  8
0
  6
CONTINUOUS
 62
               7
100
AcDbCircle
 10
-3.7451133548118065
 20
54.956002334049231
 30
0.0
 40
1.554886645188208
100
AcDbArc
 50
110.98517000123093
 51
179.99999999999997
  0
LINE
  5
156
100
AcDbEntity
  8
0
  6
CONTINUOUS
 62
               7
100
AcDbLine
 10
-5.3000000000000114
 20
54.956002334049231
 30
0.0
 11
-5.3000000000000114
 21
54.409964468846567
 31
0.0
  0
ARC
  5
157
100
AcDbEntity
  8
0
  6
CONTINUOUS
 62
               7
100
AcDbCircle
 10
3.7451133548117781
 20
54.956002334049231
 30
0.0
 40
1.554886645188208
100
AcDbArc
 50
0.0000000000000254
 51
69.014829998769073
  0
LINE
  5
158
100
AcDbEntity
  8
0
  6
CONTINUOUS
 62
               7
100
AcDbLine
 10
5.2999999999999829
 20
54.409964468846567
 30
0.0
 11
5.2999999999999829
 21
54.956002334049231
 31
0.0
  0
LINE
  5
159
100
AcDbEntity
  8
0
  6
CENTER
 62
               2
100
AcDbLine
 10
0.0
 20
-3.1000000000000214
 30
0.0
 11
0.0
 21
60.109964468846563
 31
0.0
  0
LINE
  5
15A
100
AcDbEntity
  8
0
  6
CONTINUOUS
 62
               7
100
AcDbLine
 10
9.8149545762236414
 20
23.678649816172449
 30
0.0
 11
8.3999999999999915
 21
23.309964468846569
 31
0.0
  0
LINE
  5
15B
100
AcDbEntity
  8
0
  6
CONTINUOUS
 62
               7
100
AcDbLine
 10
8.3999999999999915
 20
31.509964468846572
 30
0.0
 11
9.8149545762236272
 21
31.131314652674053
 31
0.0
  0
ENDBLK
  5
15C
100
AcDbEntity
  8
0
100
AcDbBlockEnd
  0
BLOCK
  5
15D
100
AcDbEntity
  8
0
100
AcDbBlockBegin
  2
4PP-4
 70
               0
 10
0.0
 20
0.0
 30
0.0
  3
4PP-4
  1

  0
CIRCLE
  5
15E
100
AcDbEntity
  8
0
  6
CONTINUOUS
 62
               7
100
AcDbCircle
 10
0.0
 20
0.0
 30
0.0
 40
8.3999999999999986
  0
CIRCLE
  5
15F
100
AcDbEntity
  8
0
  6
CONTINUOUS
 62
               7
100
AcDbCircle
 10
0.0
 20
0.0
 30
0.0
 40
6.0
  0
CIRCLE
  5
160
100
AcDbEntity
  8
0
  6
CONTINUOUS
 62
               7
100
AcDbCircle
 10
0.0
 20
0.0
 30
0.0
 40
5.2999999999999998
  0
ARC
  5
161
100
AcDbEntity
  8
0
  6
CONTINUOUS
 62
               7
100
AcDbCircle
 10
0.0
 20
0.0
 30
0.0
 40
7.5
100
AcDbArc
 50
39.102654793971354
 51
80.876608001518505
  0
ARC
  5
162
100
AcDbEntity
  8
0
  6
CONTINUOUS
 62
               7
100
AcDbCircle
 10
0.0
 20
0.0
 30
0.0
 40
7.5
100
AcDbArc
 50
339.01770285385265
 51
20.9335611566453
  0
ARC
  5
163
100
AcDbEntity
  8
0
  6
CONTINUOUS
 62
               7
100
AcDbCircle
 10
0.0
 20
0.0
 30
0.0
 40
7.5
100
AcDbArc
 50
279.00699925911704
 51
321.01314402202888
  0
ARC
  5
164
100
AcDbEntity
  8
0
  6
CONTINUOUS
 62
               7
100
AcDbCircle
 10
0.0
 20
0.0
 30
0.0
 40
7.5
100
AcDbArc
 50
219.08161282784178
 51
260.95905489998842
  0
ARC
  5
165
100
AcDbEntity
  8
0
  6
CONTINUOUS
 62
               7
100
AcDbCircle
 10
0.0
 20
0.0
 30
0.0
 40
7.5
100
AcDbArc
 50
159.13299010241778
 51
200.88354282441216
  0
ARC
  5
166
100
AcDbEntity
  8
0
  6
CONTINUOUS
 62
               7
100
AcDbCircle
 10
0.0
 20
0.0
 30
0.0
 40
7.5
100
AcDbArc
 50
99.158244710849047
 51
140.84596713098003
  0
ARC
  5
167
100
AcDbEntity
  8
0
  6
CONTINUOUS
 62
               7
100
AcDbCircle
 10
0.0
 20
0.0
 30
0.0
 40
7.0
100
AcDbArc
 50
119.99999999999997
 51
180.0
  0
ARC
  5
168
100
AcDbEntity
  8
0
  6
CONTINUOUS
 62
               7
100
AcDbCircle
 10
0.0
 20
0.0
 30
0.0
 40
7.0
100
AcDbArc
 50
180.0
 51
239.99999999999997
  0
ARC
  5
169
100
AcDbEntity
  8
0
  6
CONTINUOUS
 62
               7
100
AcDbCircle
 10
0.0
 20
0.0
 30
0.0
 40
7.0
100
AcDbArc
 50
240.00000000000003
 51
299.99999999999994
  0
ARC
  5
16A
100
AcDbEntity
  8
0
  6
CONTINUOUS
 62
               7
100
AcDbCircle
 10
0.0
 20
0.0
 30
0.0
 40
7.0
100
AcDbArc
 50
299.99999999999989
 51
359.99999999999989
  0
ARC
  5
16B
100
AcDbEntity
  8
0
  6
CONTINUOUS
 62
               7
100
AcDbCircle
 10
0.0
 20
0.0
 30
0.0
 40
7.0
100
AcDbArc
 50
59.999999999999929
 51
119.99999999999994
  0
ARC
  5
16C
100
AcDbEntity
  8
0
  6
CONTINUOUS
 62
               7
100
AcDbCircle
 10
0.0
 20
0.0
 30
0.0
 40
7.0
100
AcDbArc
 50
359.99999999999989
 51
59.999999999999929
  0
LINE
  5
16D
100
AcDbEntity
  8
0
  6
CONTINUOUS
 62
               7
100
AcDbLine
 10
-8.5000000000000142
 20
4.9074772881118207
 30
0.0
 11
-8.5000000000000142
 21
-4.9074772881118207
 31
0.0
  0
LINE
  5
16E
100
AcDbEntity
  8
0
  6
CONTINUOUS
 62
               7
100
AcDbLine
 10
-8.5000000000000142
 20
-4.9074772881118207
 30
0.0
 11
-0.0000000000000071
 21
-9.8149545762236343
 31
0.0
  0
LINE
  5
16F
100
AcDbEntity
  8
0
  6
CONTINUOUS
 62
               7
100
AcDbLine
 10
8.4999999999999929
 20
-4.9074772881118278
 30
0.0
 11
-0.0000000000000071
 21
-9.8149545762236343
 31
0.0
  0
LINE
  5
170
100
AcDbEntity
  8
0
  6
CONTINUOUS
 62
               7
100
AcDbLine
 10
8.5000000000000071
 20
4.9074772881118065
 30
0.0
 11
8.4999999999999929
 21
-4.9074772881118278
 31
0.0
  0
LINE
  5
171
100
AcDbEntity
  8
0
  6
CONTINUOUS
 62
               7
100
AcDbLine
 10
0.0
 20
9.8149545762236414
 30
0.0
 11
8.5000000000000071
 21
4.9074772881118065
 31
0.0
  0
LINE
  5
172
100
AcDbEntity
  8
0
  6
CONTINUOUS
 62
               7
100
AcDbLine
 10
0.0
 20
9.8149545762236414
 30
0.0
 11
-8.5000000000000142
 21
4.9074772881118207
 31
0.0
  0
LINE
  5
173
100
AcDbEntity
  8
0
  6
CONTINUOUS
 62
               7
100
AcDbLine
 10
0.0
 20
8.0829037686547593
 30
0.0
 11
-7.0000000000000142
 21
4.0414518843273797
 31
0.0
  0
LINE
  5
174
100
AcDbEntity
  8
0
  6
CONTINUOUS
 62
               7
100
AcDbLine
 10
-7.0000000000000142
 20
-4.0414518843273797
 30
0.0
 11
-7.0000000000000142
 21
4.0414518843273797
 31
0.0
  0
LINE
  5
175
100
AcDbEntity
  8
0
  6
CONTINUOUS
 62
               7
100
AcDbLine
 10
-0.0000000000000071
 20
-8.0829037686547593
 30
0.0
 11
-7.0000000000000142
 21
-4.0414518843273797
 31
0.0
  0
LINE
  5
176
100
AcDbEntity
  8
0
  6
CONTINUOUS
 62
               7
100
AcDbLine
 10
6.9999999999999929
 20
-4.0414518843273868
 30
0.0
 11
-0.0000000000000071
 21
-8.0829037686547593
 31
0.0
  0
LINE
  5
177
100
AcDbEntity
  8
0
  6
CONTINUOUS
 62
               7
100
AcDbLine
 10
6.9999999999999929
 20
-4.0414518843273868
 30
0.0
 11
7.0000000000000071
 21
4.0414518843273726
 31
0.0
  0
LINE
  5
178
100
AcDbEntity
  8
0
  6
CONTINUOUS
 62
               7
100
AcDbLine
 10
7.0000000000000071
 20
4.0414518843273726
 30
0.0
 11
0.0
 21
8.0829037686547593
 31
0.0
  0
CIRCLE
  5
179
100
AcDbEntity
  8
0
  6
CONTINUOUS
 62
               2
100
AcDbCircle
 10
0.0
 20
0.0
 30
0.0
 40
5.4999999999999512
  0
LINE
  5
17A
100
AcDbEntity
  8
0
  6
CENTER
 62
               2
100
AcDbLine
 10
-11.500000000000014
 20
0.0
 30
0.0
 11
11.5
 21
0.0
 31
0.0
  0
LINE
  5
17B
100
AcDbEntity
  8
0
  6
CENTER
 62
               2
100
AcDbLine
 10
0.0
 20
12.814954576223641
 30
0.0
 11
0.0
 21
-12.814954576223634
 31
0.0
  0
ENDBLK
  5
17C
100
AcDbEntity
  8
0
100
AcDbBlockEnd
  0
BLOCK
  5
23
100
AcDbEntity
  8
0
  6
ByBlock
 62
               0
100
AcDbBlockBegin
  2
_OPEN30
 70
               2
 10
0.0
 20
0.0
 30
0.0
  3
_OPEN30
  1

  0
LINE
  5
24
100
AcDbEntity
  8
0
  6
ByBlock
 62
               0
100
AcDbLine
 10
-1.0
 20
0.267949
 30
0.0
 11
0.0
 21
0.0
 31
0.0
  0
LINE
  5
25
100
AcDbEntity
  8
0
  6
ByBlock
 62
               0
100
AcDbLine
 10
0.0
 20
0.0
 30
0.0
 11
-1.0
 21
-0.267949
 31
0.0
  0
LINE
  5
26
100
AcDbEntity
  8
0
  6
ByBlock
 62
               0
100
AcDbLine
 10
0.0
 20
0.0
 30
0.0
 11
-1.0
 21
0.0
 31
0.0
  0
ENDBLK
  5
27
100
AcDbEntity
  8
0
  6
ByBlock
 62
               0
100
AcDbBlockEnd
  0
ENDSEC
  0
SECTION
  2
ENTITIES
  0
INSERT
  5
17D
100
AcDbEntity
  8
0
  6
ByBlock
100
AcDbBlockReference
  2
4PP-4
 10
0.0
 20
59.877002752348474
 30
0.0
  0
INSERT
  5
17E
100
AcDbEntity
  8
0
  6
ByBlock
100
AcDbBlockReference
  2
4PP-3
 10
80.000000000000071
 20
-39.91497717740981
 30
0.0
  0
INSERT
  5
17F
100
AcDbEntity
  8
0
  6
ByBlock
100
AcDbBlockReference
  2
4PP-2
 10
-80.0
 20
-39.914977177410265
 30
0.0
  0
INSERT
  5
180
100
AcDbEntity
  8
0
  6
ByBlock
100
AcDbBlockReference
  2
4PP-1
 10
0.0000000000000345
 20
-39.914977177410265
 30
0.0
  0
MTEXT
  5
181
100
AcDbEntity
  8
0
  6
CONTINUOUS
 62
               7
100
AcDbMText
 10
-110.16666030883789
 20
89.099999904632568
 30
0.0
 40
3.1999998092651367
 41
0.0
 71
               1
 72
               1
  1
\A1;4PP
  0
LINE
  5
182
100
AcDbEntity
  8
0
  6
CONTINUOUS
 62
               7
100
AcDbLine
 10
-138.39999389648437
 20
94.5
 30
0.0
 11
138.35000610351562
 21
94.5
 31
0.0
  0
LINE
  5
183
100
AcDbEntity
  8
0
  6
CONTINUOUS
 62
               7
100
AcDbLine
 10
138.35000610351562
 20
94.5
 30
0.0
 11
138.35000610351562
 21
-94.800003051757812
 31
0.0
  0
LINE
  5
184
100
AcDbEntity
  8
0
  6
CONTINUOUS
 62
               7
100
AcDbLine
 10
-138.39999389648437
 20
-94.800003051757812
 30
0.0
 11
138.35000610351562
 21
-94.800003051757812
 31
0.0
  0
LINE
  5
185
100
AcDbEntity
  8
0
  6
CONTINUOUS
 62
               7
100
AcDbLine
 10
-138.39999389648437
 20
94.5
 30
0.0
 11
-138.39999389648437
 21
-94.800003051757812
 31
0.0
  0
LINE
  5
186
100
AcDbEntity
  8
0
  6
CONTINUOUS
 62
               7
100
AcDbLine
 10
73.350006103515625
 20
-84.800003051757813
 30
0.0
 11
138.35000610351562
 21
-84.800003051757813
 31
0.0
  0
LINE
  5
187
100
AcDbEntity
  8
0
  6
CONTINUOUS
 62
               7
100
AcDbLine
 10
-138.39999389648437
 20
84.5
 30
0.0
 11
-73.399993896484375
 21
84.5
 31
0.0
  0
LINE
  5
188
100
AcDbEntity
  8
0
  6
CONTINUOUS
 62
               7
100
AcDbLine
 10
73.350006103515625
 20
84.5
 30
0.0
 11
138.35000610351562
 21
84.5
 31
0.0
  0
LINE
  5
189
100
AcDbEntity
  8
0
  6
CONTINUOUS
 62
               7
100
AcDbLine
 10
73.350006103515625
 20
-84.800003051757813
 30
0.0
 11
73.350006103515625
 21
-94.800003051757812
 31
0.0
  0
LINE
  5
18A
100
AcDbEntity
  8
0
  6
CONTINUOUS
 62
               7
100
AcDbLine
 10
73.350006103515625
 20
94.5
 30
0.0
 11
73.350006103515625
 21
84.5
 31
0.0
  0
LINE
  5
18B
100
AcDbEntity
  8
0
  6
CONTINUOUS
 62
               7
100
AcDbLine
 10
-73.399993896484375
 20
94.5
 30
0.0
 11
-73.399993896484375
 21
84.5
 31
0.0
  0
MTEXT
  5
18C
100
AcDbEntity
  8
0
  6
CONTINUOUS
 62
               7
100
AcDbMText
 10
77.440523342735503
 20
-89.800003051757812
 30
0.0
 40
4.5
 41
0.0
 71
               4
 72
               1
  1
\W1.121;\A1;KOGANEI CORP.
  0
MTEXT
  5
18D
100
AcDbEntity
  8
0
  6
CONTINUOUS
 62
               7
100
AcDbMText
 10
93.749460369842424
 20
89.5
 30
0.0
 40
3.1999998092651367
 41
0.0
 71
               4
 72
               1
  1
\W1.311;\A1;Ver. 1.0
  0
MTEXT
  5
18E
100
AcDbEntity
  8
0
  6
CONTINUOUS
 62
               7
100
AcDbMText
 10
-119.7820074619834
 20
93.099999904632568
 30
0.0
 40
3.1999998092651367
 41
0.0
 71
               1
 72
               1
  1
\W0.971;\A1;TAC VALVE
  0
MTEXT
  5
18F
100
AcDbEntity
  8
0
  6
CONTINUOUS
 62
               7
100
AcDbMText
 10
-129.42399391242981
 20
74.5
 30
0.0
 40
3.2000000476837158
 41
0.0
 71
               4
 72
               1
  1
\W1.080;\A1;MODEL:4PP
  0
ENDSEC
  0
SECTION
  2
OBJECTS
  0
DICTIONARY
  5
19
100
AcDbDictionary
  3
ACAD_GROUP
350
1A
  3
ACAD_MLINESTYLE
350
1B
  0
DICTIONARY
  5
1A
102
{ACAD_REACTORS
330
19
102
}
100
AcDbDictionary
  0
DICTIONARY
  5
1B
102
{ACAD_REACTORS
330
19
102
}
100
AcDbDictionary
  3
STANDARD
350
1C
  0
MLINESTYLE
  5
1C
102
{ACAD_REACTORS
330
1B
102
}
100
AcDbMlineStyle
  2
Standard
 70
               0
  3

 62
               0
 51
90.0
 52
90.0
 71
               2
 49
0.5
 62
             256
  6
ByLayer
 49
-0.5
 62
             256
  6
ByLayer
  0
ENDSEC
  0
EOF
