  0
SECTION
  2
HEADER
  0
ENDSEC
  0
SECTION
  2
TABLES
  0
TABLE
  2
LTYPE
 70
     4
  0
LTYPE
  2
CONTINUOUS
 70
    64
  3
Solid line
 72
    65
 73
     0
 40
0.000000
  0
LTYPE
  2
DASHED
 70
    64
  3
__ __ __ __ __ __ __ __ __ __ __ __ __ __ __
 72
    65
 73
     2
 40
3.500000
 49
2.000000
 49
-1.500000
  0
LTYPE
  2
CENTER
 70
    64
  3
____ _ ____ _ ____ _ ____ _ ____ _ ____ _ ____
 72
    65
 73
     4
 40
17.500000
 49
13.000000
 49
-1.500000
 49
1.500000
 49
-1.500000
  0
LTYPE
  2
PHANTOM
 70
    64
  3
_____ _ _ _____ _ _ _____ _ _ _____ _ _ ____  
 72
    65
 73
     6
 40
15.500000
 49
8.000000
 49
-1.500000
 49
1.500000
 49
-1.500000
 49
1.500000
 49
-1.500000
  0
LTYPE
  2
DASHED1
 70
    64
  3
__ __ __ __ __ __ __ __ __ __ __ __ __ __ __
 72
    65
 73
     2
 40
1.500000
 49
1.000000
 49
-0.500000
  0
LTYPE
  2
DASHED2
 70
    64
  3
__ __ __ __ __ __ __ __ __ __ __ __ __ __ __
 72
    65
 73
     2
 40
3.500000
 49
2.500000
 49
-1.000000
  0
LTYPE
  2
DASHED3
 70
    64
  3
__ __ __ __ __ __ __ __ __ __ __ __ __ __ __
 72
    65
 73
     2
 40
6.000000
 49
4.000000
 49
-2.000000
  0
LTYPE
  2
DASHED4
 70
    64
  3
__ __ __ __ __ __ __ __ __ __ __ __ __ __ __
 72
    65
 73
     2
 40
12.000000
 49
10.000000
 49
-2.000000
  0
LTYPE
  2
DASHED5
 70
    64
  3
__ __ __ __ __ __ __ __ __ __ __ __ __ __ __
 72
    65
 73
     2
 40
17.000000
 49
15.000000
 49
-2.000000
  0
LTYPE
  2
DASHED6
 70
    64
  3
__ __ __ __ __ __ __ __ __ __ __ __ __ __ __
 72
    65
 73
     2
 40
29.000000
 49
27.000000
 49
-2.000000
  0
LTYPE
  2
PHANTOM1
 70
    64
  3
_____ _ _ _____ _ _ _____ _ _ _____ _ _ ____  
 72
    65
 73
     6
 40
31.000000
 49
25.000000
 49
-1.500000
 49
1.000000
 49
-1.000000
 49
1.000000
 49
-1.500000
  0
LTYPE
  2
PHANTOM2
 70
    64
  3
_____ _ _ _____ _ _ _____ _ _ _____ _ _ ____  
 72
    65
 73
     6
 40
36.000000
 49
27.000000
 49
-1.500000
 49
2.500000
 49
-1.000000
 49
2.500000
 49
-1.500000
  0
LTYPE
  2
PHANTOM3
 70
    64
  3
_____ _ _ _____ _ _ _____ _ _ _____ _ _ ____  
 72
    65
 73
     6
 40
78.000000
 49
64.000000
 49
-2.000000
 49
4.000000
 49
-2.000000
 49
4.000000
 49
-2.000000
  0
LTYPE
  2
CENTER1
 70
    64
  3
____ _ ____ _ ____ _ ____ _ ____ _ ____ _ ____
 72
    65
 73
     4
 40
19.000000
 49
14.000000
 49
-1.000000
 49
3.000000
 49
-1.000000
  0
LTYPE
  2
CENTER2
 70
    64
  3
____ _ ____ _ ____ _ ____ _ ____ _ ____ _ ____
 72
    65
 73
     4
 40
28.500000
 49
25.000000
 49
-1.000000
 49
1.500000
 49
-1.000000
  0
LTYPE
  2
CENTER3
 70
    64
  3
____ _ ____ _ ____ _ ____ _ ____ _ ____ _ ____
 72
    65
 73
     4
 40
31.500000
 49
27.000000
 49
-1.000000
 49
2.500000
 49
-1.000000
  0
LTYPE
  2
CENTER4
 70
    64
  3
____ _ ____ _ ____ _ ____ _ ____ _ ____ _ ____
 72
    65
 73
     4
 40
50.000000
 49
45.000000
 49
-1.000000
 49
3.000000
 49
-1.000000
  0
LTYPE
  2
CENTER5
 70
    64
  3
____ _ ____ _ ____ _ ____ _ ____ _ ____ _ ____
 72
    65
 73
     4
 40
100.000000
 49
92.000000
 49
-2.000000
 49
4.000000
 49
-2.000000
  0
LTYPE
  2
SBK1
 70
    64
  3
______ _ _ _ ______ _ _ _ ______ _ _ _ _____  
 72
    65
 73
     8
 40
60.500000
 49
45.000000
 49
-2.000000
 49
2.500000
 49
-2.000000
 49
2.500000
 49
-2.000000
 49
2.500000
 49
-2.000000
  0
LTYPE
  2
SBK2
 70
    64
  3
______ _ _ _ ______ _ _ _ ______ _ _ _ _____  
 72
    65
 73
     8
 40
84.000000
 49
64.000000
 49
-2.000000
 49
4.000000
 49
-2.000000
 49
4.000000
 49
-2.000000
 49
4.000000
 49
-2.000000
  0
LTYPE
  2
STCH
 70
    64
  3
__ __ __ __ __ __ __ __ __ __ __ __ __ __ __
 72
    65
 73
     2
 40
3.000000
 49
1.000000
 49
-2.000000
  0
LTYPE
  2
MTCH
 70
    64
  3
_____ _ _ _____ _ _ _____ _ _ _____ _ _ ____  
 72
    65
 73
     6
 40
80.000000
 49
66.000000
 49
-2.000000
 49
4.000000
 49
-2.000000
 49
4.000000
 49
-2.000000
  0
ENDTAB
  0
TABLE
  2
LAYER
 70
     1
  0
LAYER
  2
0
 70
     0
 62
     7
  6
CONTINUOUS
  0
ENDTAB
  0
TABLE
  2
STYLE
 70
     1
  0
STYLE
  2
STANDARD
 70
     0
 40
0.000000
 41
1.000000
 50
0.000000
 71
     0
 42
0.200000
  3
txt
  4
BIGFONT
  0
ENDTAB
  0
TABLE
  2
VIEW
 70
     0
  0
ENDTAB
  0
ENDSEC
  0
SECTION
  2
BLOCKS
  0
ENDSEC
  0
SECTION
  2
ENTITIES
  0
LINE
  8
0
 10
182.099976
 20
-175.000000
 11
282.099976
 21
-175.000000
  0
LINE
  8
0
 10
182.099976
 20
-175.000000
 11
182.099976
 21
-195.000000
  0
LINE
  8
0
 10
182.099976
 20
180.500000
 11
282.099976
 21
180.500000
  0
LINE
  8
0
 10
-281.250000
 20
180.500000
 11
-181.250000
 21
180.500000
  0
LINE
  8
0
 10
-181.250000
 20
195.500000
 11
-181.250000
 21
180.500000
  0
LINE
  8
0
 10
182.099976
 20
180.500000
 11
182.099976
 21
195.500000
  0
LINE
  8
0
 10
-297.000000
 20
210.000000
 11
297.000000
 21
210.000000
  0
LINE
  8
0
 10
-297.000000
 20
210.000000
 11
-297.000000
 21
-210.000000
  0
LINE
  8
0
 10
-297.000000
 20
-210.000000
 11
297.000000
 21
-210.000000
  0
LINE
  8
0
 10
297.000000
 20
210.000000
 11
297.000000
 21
-210.000000
  0
LINE
  8
0
 10
-281.250000
 20
-195.000000
 11
282.099976
 21
-195.000000
  0
LINE
  8
0
 10
282.099976
 20
195.500000
 11
282.099976
 21
-195.000000
  0
LINE
  8
0
 10
-281.250000
 20
195.500000
 11
282.099976
 21
195.500000
  0
LINE
  8
0
 10
-281.250000
 20
195.500000
 11
-281.250000
 21
-195.000000
  0
TEXT
  8
0
 10
178.000870
 20
-190.300003
 40
7.000000
  1
ＫＯＧＡＮＥＩ，ＣＯＲＰ．
 50
0.000000
 41
0.902367
 51
15.000000
  7
STANDARD
  0
TEXT
  8
0
 10
188.021667
 20
183.779999
 40
5.800000
  1
DATE: MAY ,1992
 50
0.000000
 41
1.052632
 51
0.000000
  7
STANDARD
  0
TEXT
  8
0
 10
-252.128311
 20
183.779999
 40
5.800000
  1
430-4E1
 50
0.000000
 41
1.052632
 51
0.000000
  7
STANDARD
  0
TEXT
  8
0
 10
-274.028320
 20
163.779999
 40
5.800000
  1
MODEL: 430-4E1-262
 50
0.000000
 41
1.052632
 51
0.000000
  7
STANDARD
  0
POINT
  8
0
 10
-25.424997
 20
-60.999981
  0
POINT
  8
0
 10
21.075003
 20
-60.999981
  0
LINE
  8
0
 10
-4.424997
 20
-101.333305
 11
-4.424997
 21
72.353134
  0
LINE
  8
0
 10
-9.424997
 20
-58.999981
 11
-9.424997
 21
-0.999981
  0
LINE
  8
0
 10
0.575003
 20
-58.999981
 11
0.575003
 21
-0.999981
  0
LINE
  8
0
 10
-10.424997
 20
-58.999981
 11
-10.424997
 21
-0.999981
  0
LINE
  8
0
 10
1.575003
 20
-58.999981
 11
1.575003
 21
-0.999981
  0
LINE
  8
0
 10
-16.924997
 20
-19.499981
 11
-16.924997
 21
-10.499981
  0
LINE
  8
0
 10
8.075003
 20
-49.499981
 11
8.075003
 21
-40.499981
  0
LINE
  8
0
 10
11.575003
 20
-70.999985
 11
11.575003
 21
47.000019
  0
LINE
  8
0
 10
-21.424997
 20
-15.000011
 11
-12.424997
 21
-15.000011
  0
LINE
  8
0
 10
3.575003
 20
-44.999981
 11
12.575003
 21
-44.999981
  0
LINE
  8
0
 10
-9.424997
 20
-9.999996
 11
0.575003
 21
-9.999996
  0
LINE
  8
0
 10
-9.424997
 20
-49.999981
 11
0.575003
 21
-49.999981
  0
LINE
  8
0
 10
-8.424997
 20
0.000004
 11
-0.424997
 21
0.000004
  0
LINE
  8
0
 10
-8.424967
 20
-59.999981
 11
-0.424967
 21
-59.999981
  0
LINE
  8
0
 10
-8.424997
 20
1.000004
 11
-0.424997
 21
1.000004
  0
LINE
  8
0
 10
-8.424967
 20
-60.999981
 11
-0.424967
 21
-60.999981
  0
LINE
  8
0
 10
-20.424997
 20
6.000004
 11
11.575003
 21
6.000004
  0
LINE
  8
0
 10
-17.424997
 20
49.999989
 11
8.575003
 21
49.999989
  0
LINE
  8
0
 10
8.075003
 20
-41.999981
 11
11.575003
 21
-41.999981
  0
LINE
  8
0
 10
8.075003
 20
-47.999981
 11
11.575003
 21
-47.999981
  0
LINE
  8
0
 10
-16.924997
 20
-47.999981
 11
-20.424997
 21
-47.999981
  0
LINE
  8
0
 10
-16.924997
 20
-41.999981
 11
-20.424997
 21
-41.999981
  0
LINE
  8
0
 10
8.075003
 20
-11.999996
 11
11.575003
 21
-11.999996
  0
LINE
  8
0
 10
8.075003
 20
-18.000011
 11
11.575003
 21
-18.000011
  0
LINE
  8
0
 10
-16.924997
 20
-11.999996
 11
-20.424997
 21
-11.999996
  0
LINE
  8
0
 10
-16.924997
 20
-18.000011
 11
-20.424997
 21
-18.000011
  0
LINE
  8
0
 10
3.575003
 20
-15.000011
 11
12.575003
 21
-15.000011
  0
LINE
  8
0
 10
8.075003
 20
-10.499981
 11
8.075003
 21
-19.499981
  0
LINE
  8
0
 10
-16.924997
 20
-40.499981
 11
-16.924997
 21
-49.499981
  0
LINE
  8
0
 10
-21.424997
 20
-44.999981
 11
-12.424997
 21
-44.999981
  0
LINE
  8
0
 10
10.075003
 20
-2.499981
 11
10.075003
 21
4.500019
  0
LINE
  8
0
 10
4.275015
 20
4.500004
 11
10.075003
 21
4.500004
  0
LINE
  8
0
 10
4.275015
 20
-2.499981
 11
4.275015
 21
4.500019
  0
LINE
  8
0
 10
4.274984
 20
-2.499996
 11
10.075003
 21
-2.499996
  0
LINE
  8
0
 10
-13.124979
 20
-57.499981
 11
-18.924967
 21
-57.499981
  0
LINE
  8
0
 10
-13.124979
 20
-57.499981
 11
-13.124979
 21
-64.499985
  0
LINE
  8
0
 10
-13.124979
 20
-64.499985
 11
-18.924967
 21
-64.499985
  0
LINE
  8
0
 10
-18.924997
 20
-57.499981
 11
-18.924997
 21
-64.499985
  0
LINE
  8
0
 10
7.353323
 20
-43.749981
 11
8.796713
 21
-43.749981
  0
LINE
  8
0
 10
7.353323
 20
-46.249981
 11
8.796713
 21
-46.249981
  0
LINE
  8
0
 10
7.353331
 20
-46.249954
 11
6.631636
 21
-44.999943
  0
LINE
  8
0
 10
9.518393
 20
-44.999954
 11
8.796698
 21
-43.749947
  0
LINE
  8
0
 10
8.797014
 20
-46.250172
 11
9.518702
 21
-45.000175
  0
LINE
  8
0
 10
6.631975
 20
-45.000134
 11
7.353662
 21
-43.750137
  0
LINE
  8
0
 10
-17.646677
 20
-46.249981
 11
-16.203287
 21
-46.249981
  0
LINE
  8
0
 10
-17.646683
 20
-46.249939
 11
-18.368362
 21
-44.999954
  0
LINE
  8
0
 10
-15.481619
 20
-44.999931
 11
-16.203299
 21
-43.749947
  0
LINE
  8
0
 10
-16.203007
 20
-46.250149
 11
-15.481318
 21
-45.000149
  0
LINE
  8
0
 10
-18.368095
 20
-45.000141
 11
-17.646408
 21
-43.750145
  0
LINE
  8
0
 10
-17.646677
 20
-43.749981
 11
-16.203287
 21
-43.749981
  0
LINE
  8
0
 10
-17.646677
 20
-16.250011
 11
-16.203287
 21
-16.250011
  0
LINE
  8
0
 10
-17.646677
 20
-16.249947
 11
-18.368357
 21
-14.999962
  0
LINE
  8
0
 10
-15.481589
 20
-14.999935
 11
-16.203285
 21
-13.749920
  0
LINE
  8
0
 10
-16.203068
 20
-16.250126
 11
-15.481372
 21
-15.000114
  0
LINE
  8
0
 10
-18.368160
 20
-15.000114
 11
-17.646473
 21
-13.750114
  0
LINE
  8
0
 10
-17.646677
 20
-13.750011
 11
-16.203287
 21
-13.750011
  0
LINE
  8
0
 10
7.353323
 20
-16.250011
 11
8.796713
 21
-16.250011
  0
LINE
  8
0
 10
7.353327
 20
-16.249943
 11
6.631647
 21
-14.999958
  0
LINE
  8
0
 10
9.518389
 20
-14.999943
 11
8.796694
 21
-13.749931
  0
LINE
  8
0
 10
8.797026
 20
-16.250202
 11
9.518721
 21
-15.000191
  0
LINE
  8
0
 10
6.631926
 20
-15.000145
 11
7.353621
 21
-13.750134
  0
LINE
  8
0
 10
7.353323
 20
-13.750011
 11
8.796713
 21
-13.750011
  0
LINE
  8
0
 10
-2.274973
 20
50.700001
 11
-6.574961
 21
50.700001
  0
LINE
  8
0
 10
-2.274973
 20
50.000019
 11
-2.274973
 21
50.700001
  0
LINE
  8
0
 10
-6.574991
 20
50.000019
 11
-6.574991
 21
50.700001
  0
LINE
  8
0
 10
-29.924997
 20
26.000019
 11
-29.924997
 21
-70.999985
  0
LINE
  8
0
 10
21.075033
 20
26.000004
 11
11.575003
 21
26.000004
  0
LINE
  8
0
 10
21.075003
 20
26.000019
 11
21.075003
 21
-70.999985
  0
LINE
  8
0
 10
-25.424997
 20
-55.999981
 11
-28.924997
 21
-55.999981
  0
LINE
  8
0
 10
-25.424997
 20
-65.999985
 11
-28.924997
 21
-65.999985
  0
LINE
  8
0
 10
16.575033
 20
18.000004
 11
20.075033
 21
18.000004
  0
LINE
  8
0
 10
16.575033
 20
8.000004
 11
20.075033
 21
8.000004
  0
LINE
  8
0
 10
-19.424997
 20
-60.999981
 11
-31.424997
 21
-60.999981
  0
LINE
  8
0
 10
-25.424997
 20
-54.999981
 11
-25.424997
 21
-66.999985
  0
LINE
  8
0
 10
16.575003
 20
19.000019
 11
16.575003
 21
7.000019
  0
LINE
  8
0
 10
22.575033
 20
13.000004
 11
10.575033
 21
13.000004
  0
LINE
  8
0
 10
-26.591013
 20
-14.799999
 11
-26.591013
 21
-20.199993
  0
LINE
  8
0
 10
-24.724985
 20
-22.065990
 11
-22.524973
 21
-22.065990
  0
LINE
  8
0
 10
-20.658945
 20
-14.799999
 11
-20.658945
 21
-20.199993
  0
LINE
  8
0
 10
-24.724985
 20
-12.934002
 11
-22.524973
 21
-12.934002
  0
LINE
  8
0
 10
-26.591013
 20
-39.799969
 11
-26.591013
 21
-45.199963
  0
LINE
  8
0
 10
-24.724985
 20
-47.065990
 11
-22.524973
 21
-47.065990
  0
LINE
  8
0
 10
-20.658945
 20
-39.799969
 11
-20.658945
 21
-45.199963
  0
LINE
  8
0
 10
-24.724985
 20
-37.934002
 11
-22.524973
 21
-37.934002
  0
LINE
  8
0
 10
11.808981
 20
-2.799984
 11
11.808981
 21
-8.199978
  0
LINE
  8
0
 10
13.675009
 20
-10.065990
 11
15.875021
 21
-10.065990
  0
LINE
  8
0
 10
17.741049
 20
-2.799984
 11
17.741049
 21
-8.199978
  0
LINE
  8
0
 10
13.675009
 20
-0.934002
 11
15.875021
 21
-0.934002
  0
LINE
  8
0
 10
11.808981
 20
-27.299999
 11
11.808981
 21
-32.699963
  0
LINE
  8
0
 10
13.675009
 20
-34.565990
 11
15.875021
 21
-34.565990
  0
LINE
  8
0
 10
17.741049
 20
-27.299999
 11
17.741049
 21
-32.699963
  0
LINE
  8
0
 10
13.675009
 20
-25.434002
 11
15.875021
 21
-25.434002
  0
LINE
  8
0
 10
11.808981
 20
-51.799969
 11
11.808981
 21
-57.199963
  0
LINE
  8
0
 10
13.675009
 20
-59.065990
 11
15.875021
 21
-59.065990
  0
LINE
  8
0
 10
17.741049
 20
-51.799969
 11
17.741049
 21
-57.199963
  0
LINE
  8
0
 10
13.675009
 20
-49.934002
 11
15.875021
 21
-49.934002
  0
LINE
  8
0
 10
20.925009
 20
56.999989
 11
20.925009
 21
26.000004
  0
LINE
  8
0
 10
-29.774973
 20
56.999989
 11
-29.774973
 21
26.000004
  0
LINE
  8
0
 10
17.925009
 20
59.999989
 11
-26.774973
 21
59.999989
  0
LINE
  8
0
 10
18.075003
 20
-73.999985
 11
-26.924997
 21
-73.999985
  0
LINE
  8
0
 10
-20.424997
 20
26.000004
 11
-29.924967
 21
26.000004
  0
LINE
  8
0
 10
11.575003
 20
26.000004
 11
-20.424997
 21
26.000004
  0
LINE
  8
0
 10
11.575003
 20
-23.999989
 11
-20.424997
 21
-23.999989
  0
LINE
  8
0
 10
-20.424997
 20
47.000019
 11
-20.424997
 21
-70.999985
  0
LINE
  8
0
 10
-20.424997
 20
-65.999985
 11
11.575003
 21
-65.999985
  0
ARC
  8
0
 10
8.575003
 20
47.000019
 40
3.000000
 50
0.000000
 51
90.000000
  0
ARC
  8
0
 10
-17.424997
 20
47.000019
 40
3.000000
 50
89.999962
 51
180.000000
  0
ARC
  8
0
 10
-0.424997
 20
-0.999981
 40
2.000000
 50
0.000000
 51
90.000000
  0
ARC
  8
0
 10
-8.424997
 20
-0.999981
 40
2.000000
 50
90.000000
 51
180.000000
  0
ARC
  8
0
 10
-8.424967
 20
-58.999981
 40
2.000000
 50
180.000000
 51
270.000000
  0
ARC
  8
0
 10
-0.424967
 20
-58.999981
 40
2.000000
 50
270.000000
 51
0.000109
  0
ARC
  8
0
 10
-0.424997
 20
-0.999981
 40
1.000000
 50
0.000000
 51
90.000000
  0
ARC
  8
0
 10
-8.424997
 20
-0.999981
 40
1.000000
 50
90.000000
 51
180.000000
  0
ARC
  8
0
 10
-8.424967
 20
-58.999981
 40
1.000000
 50
180.000000
 51
270.000000
  0
ARC
  8
0
 10
-0.424967
 20
-58.999981
 40
1.000000
 50
270.000000
 51
0.000000
  0
CIRCLE
  8
0
 10
8.075003
 20
-44.999981
 40
2.500000
  0
ARC
  8
0
 10
8.075003
 20
-44.999981
 40
3.000000
 50
90.000000
 51
270.000000
  0
ARC
  8
0
 10
-16.924997
 20
-44.999981
 40
3.000000
 50
270.000031
 51
89.999962
  0
CIRCLE
  8
0
 10
8.075003
 20
-44.999981
 40
2.500000
  0
ARC
  8
0
 10
8.075003
 20
-14.999981
 40
3.000000
 50
90.000000
 51
270.000000
  0
CIRCLE
  8
0
 10
8.075003
 20
-14.999981
 40
2.500000
  0
ARC
  8
0
 10
-16.924997
 20
-14.999981
 40
3.000000
 50
270.000061
 51
90.000038
  0
CIRCLE
  8
0
 10
-16.924997
 20
-14.999981
 40
2.500000
  0
CIRCLE
  8
0
 10
-16.924997
 20
-44.999981
 40
2.500000
  0
CIRCLE
  8
0
 10
-16.924997
 20
-14.999981
 40
2.500000
  0
CIRCLE
  8
0
 10
8.075003
 20
-14.999981
 40
2.500000
  0
ARC
  8
0
 10
-24.724985
 20
-14.799999
 40
1.865997
 50
89.999939
 51
179.999878
  0
ARC
  8
0
 10
15.875021
 20
-57.199963
 40
1.865997
 50
270.000000
 51
0.000000
  0
ARC
  8
0
 10
15.875021
 20
-51.799969
 40
1.865997
 50
0.000117
 51
90.000000
  0
ARC
  8
0
 10
-24.724985
 20
-39.799969
 40
1.865997
 50
89.999939
 51
179.999878
  0
ARC
  8
0
 10
-22.524973
 20
-39.799969
 40
1.865997
 50
0.000117
 51
90.000061
  0
ARC
  8
0
 10
-22.524973
 20
-45.199963
 40
1.865997
 50
270.000000
 51
0.000000
  0
ARC
  8
0
 10
13.675009
 20
-8.199978
 40
1.865997
 50
180.000000
 51
270.000000
  0
ARC
  8
0
 10
15.875021
 20
-8.199978
 40
1.865997
 50
270.000000
 51
0.000000
  0
ARC
  8
0
 10
13.675039
 20
-2.799984
 40
1.865997
 50
89.999886
 51
179.999878
  0
ARC
  8
0
 10
13.675009
 20
-51.799969
 40
1.865997
 50
89.999886
 51
179.999878
  0
ARC
  8
0
 10
13.675009
 20
-57.199963
 40
1.865997
 50
180.000000
 51
270.000000
  0
ARC
  8
0
 10
13.675009
 20
-27.299999
 40
1.865997
 50
89.999886
 51
179.999878
  0
ARC
  8
0
 10
15.875021
 20
-27.299999
 40
1.865997
 50
0.000117
 51
90.000000
  0
ARC
  8
0
 10
-22.524973
 20
-20.199993
 40
1.865997
 50
270.000000
 51
0.000000
  0
ARC
  8
0
 10
-24.724985
 20
-20.199993
 40
1.865997
 50
180.000000
 51
269.999939
  0
ARC
  8
0
 10
15.875021
 20
-2.799984
 40
1.865997
 50
0.000117
 51
90.000000
  0
ARC
  8
0
 10
13.675009
 20
-32.699963
 40
1.865997
 50
179.999878
 51
270.000000
  0
ARC
  8
0
 10
-22.524973
 20
-14.799999
 40
1.865997
 50
0.000117
 51
90.000061
  0
ARC
  8
0
 10
15.875021
 20
-32.699963
 40
1.865997
 50
270.000000
 51
0.000000
  0
ARC
  8
0
 10
-24.724985
 20
-45.199963
 40
1.865997
 50
180.000000
 51
269.999939
  0
ARC
  8
0
 10
18.075003
 20
-70.999985
 40
3.000000
 50
270.000000
 51
0.000000
  0
ARC
  8
0
 10
-26.924997
 20
-70.999985
 40
3.000000
 50
180.000000
 51
270.000031
  0
ARC
  8
0
 10
16.575033
 20
13.000019
 40
5.000000
 50
90.000000
 51
270.000000
  0
CIRCLE
  8
0
 10
16.575033
 20
13.000019
 40
2.750000
  0
CIRCLE
  8
0
 10
-25.424997
 20
-60.999981
 40
2.750000
  0
ARC
  8
0
 10
-25.424997
 20
-60.999981
 40
5.000004
 50
270.000031
 51
89.999977
  0
ARC
  8
0
 10
20.075033
 20
7.000019
 40
1.000000
 50
0.000000
 51
90.000000
  0
ARC
  8
0
 10
20.075033
 20
19.000019
 40
1.000000
 50
270.000000
 51
0.000000
  0
ARC
  8
0
 10
-28.924997
 20
-54.999981
 40
1.000000
 50
180.000000
 51
270.000000
  0
ARC
  8
0
 10
-28.924997
 20
-66.999985
 40
1.000000
 50
90.000000
 51
180.000000
  0
ARC
  8
0
 10
-26.774973
 20
56.999989
 40
3.000000
 50
89.999962
 51
180.000000
  0
ARC
  8
0
 10
17.925009
 20
56.999989
 40
3.000000
 50
0.000000
 51
90.000000
  0
ARC
  8
0
 10
-17.424997
 20
-70.999985
 40
3.000000
 50
179.999847
 51
270.000031
  0
ARC
  8
0
 10
8.575003
 20
-70.999985
 40
3.000000
 50
270.000000
 51
0.000000
  0
TEXT
  8
0
 10
-14.217971
 20
-59.119984
 40
3.200000
  1
B
 50
180.000000
 41
1.052632
 51
0.000000
  7
STANDARD
  0
TEXT
  8
0
 10
5.368009
 20
-0.879981
 40
3.200000
  1
A
 50
0.000000
 41
1.052632
 51
0.000000
  7
STANDARD
  0
TEXT
  8
0
 10
15.215014
 20
-7.078480
 40
1.599999
  1
R1
 50
90.000000
 41
1.052632
 51
0.000000
  7
STANDARD
  0
TEXT
  8
0
 10
15.215014
 20
-56.078480
 40
1.599999
  1
R2
 50
90.000000
 41
1.052632
 51
0.000000
  7
STANDARD
  0
TEXT
  8
0
 10
-24.064978
 20
-41.721481
 40
1.599999
  1
B
 50
270.000000
 41
1.052632
 51
0.000000
  7
STANDARD
  0
TEXT
  8
0
 10
15.215014
 20
-30.778481
 40
1.599999
  1
P
 50
90.000000
 41
1.052632
 51
0.000000
  7
STANDARD
  0
TEXT
  8
0
 10
-24.064978
 20
-16.721481
 40
1.599999
  1
A
 50
270.000000
 41
1.052632
 51
0.000000
  7
STANDARD
  0
POINT
  8
0
 10
-94.824982
 20
-60.999981
  0
POINT
  8
0
 10
-185.424988
 20
-60.999981
  0
LINE
  8
0
 10
-94.824982
 20
-73.999985
 11
-94.824982
 21
48.500019
  0
LINE
  8
0
 10
-94.825012
 20
-47.999981
 11
-124.825012
 21
-47.999981
  0
LINE
  8
0
 10
-94.825012
 20
-41.999981
 11
-124.825012
 21
-41.999981
  0
LINE
  8
0
 10
-124.824982
 20
-47.999950
 11
-124.824982
 21
-41.999950
  0
LINE
  8
0
 10
-120.824982
 20
-47.499950
 11
-120.824982
 21
-42.499950
  0
LINE
  8
0
 10
-94.824982
 20
-73.999985
 11
-149.824982
 21
-73.999985
  0
LINE
  8
0
 10
-94.825012
 20
26.000004
 11
-149.825012
 21
26.000004
  0
LINE
  8
0
 10
-94.825012
 20
6.000004
 11
-149.825012
 21
6.000004
  0
LINE
  8
0
 10
-104.824982
 20
-65.999954
 11
-104.824982
 21
6.000042
  0
LINE
  8
0
 10
-94.824982
 20
-65.999985
 11
-149.824982
 21
-65.999985
  0
LINE
  8
0
 10
-120.062469
 20
-44.999981
 11
-125.525635
 21
-44.999981
  0
LINE
  8
0
 10
-120.825012
 20
-42.499981
 11
-124.825012
 21
-42.499981
  0
LINE
  8
0
 10
-120.825012
 20
-47.499981
 11
-124.825012
 21
-47.499981
  0
LINE
  8
0
 10
-94.825012
 20
-11.999996
 11
-124.825012
 21
-11.999996
  0
LINE
  8
0
 10
-94.825012
 20
-18.000011
 11
-124.825012
 21
-18.000011
  0
LINE
  8
0
 10
-124.824982
 20
-11.999973
 11
-124.824982
 21
-17.999981
  0
LINE
  8
0
 10
-120.824982
 20
-12.499973
 11
-120.824982
 21
-17.499981
  0
LINE
  8
0
 10
-120.062469
 20
-15.000011
 11
-125.706299
 21
-15.000011
  0
LINE
  8
0
 10
-120.825012
 20
-17.500011
 11
-124.825012
 21
-17.500011
  0
LINE
  8
0
 10
-120.825012
 20
-12.499996
 11
-124.825012
 21
-12.499996
  0
LINE
  8
0
 10
-149.824982
 20
-73.999985
 11
-149.824982
 21
48.500019
  0
LINE
  8
0
 10
-146.324982
 20
44.920155
 11
-146.324982
 21
50.745869
  0
LINE
  8
0
 10
-143.325043
 20
45.999989
 11
-149.825043
 21
45.999989
  0
LINE
  8
0
 10
-145.325043
 20
48.999989
 11
-147.325043
 21
48.999989
  0
LINE
  8
0
 10
-143.324982
 20
46.000019
 11
-143.324982
 21
50.000019
  0
LINE
  8
0
 10
-148.824982
 20
46.000019
 11
-148.824982
 21
47.500019
  0
LINE
  8
0
 10
-143.824982
 20
46.000019
 11
-143.824982
 21
47.500019
  0
LINE
  8
0
 10
-143.825043
 20
46.999989
 11
-148.825043
 21
46.999989
  0
LINE
  8
0
 10
-141.074982
 20
50.000019
 11
-141.074982
 21
50.700031
  0
LINE
  8
0
 10
-136.774963
 20
50.000019
 11
-136.774963
 21
50.700031
  0
LINE
  8
0
 10
-136.775055
 20
50.700001
 11
-141.075043
 21
50.700001
  0
LINE
  8
0
 10
-96.325043
 20
49.999989
 11
-148.325043
 21
49.999989
  0
LINE
  8
0
 10
-106.224976
 20
50.000050
 11
-106.224976
 21
26.000050
  0
LINE
  8
0
 10
-108.224976
 20
50.000019
 11
-108.224976
 21
26.000019
  0
LINE
  8
0
 10
-109.824982
 20
50.000019
 11
-109.824982
 21
26.000019
  0
LINE
  8
0
 10
-111.824982
 20
50.000019
 11
-111.824982
 21
26.000019
  0
LINE
  8
0
 10
-113.424988
 20
50.000019
 11
-113.424988
 21
26.000019
  0
LINE
  8
0
 10
-115.424988
 20
50.000019
 11
-115.424988
 21
26.000019
  0
LINE
  8
0
 10
-117.024963
 20
50.000019
 11
-117.024963
 21
26.000019
  0
LINE
  8
0
 10
-119.024963
 20
50.000019
 11
-119.024963
 21
26.000019
  0
LINE
  8
0
 10
-120.624969
 20
50.000019
 11
-120.624969
 21
26.000019
  0
LINE
  8
0
 10
-122.624969
 20
50.000019
 11
-122.624969
 21
26.000019
  0
LINE
  8
0
 10
-124.224976
 20
50.000019
 11
-124.224976
 21
26.000019
  0
LINE
  8
0
 10
-126.224976
 20
50.000019
 11
-126.224976
 21
26.000019
  0
LINE
  8
0
 10
-127.824982
 20
50.000019
 11
-127.824982
 21
26.000019
  0
LINE
  8
0
 10
-129.824982
 20
50.000019
 11
-129.824982
 21
26.000034
  0
LINE
  8
0
 10
-131.424988
 20
50.000019
 11
-131.424988
 21
26.000019
  0
LINE
  8
0
 10
-133.424988
 20
50.000019
 11
-133.424988
 21
26.000019
  0
LINE
  8
0
 10
-104.824982
 20
50.000050
 11
-104.824982
 21
26.000050
  0
LINE
  8
0
 10
-134.824982
 20
50.000019
 11
-134.824982
 21
26.000019
  0
LINE
  8
0
 10
-146.125031
 20
47.999989
 11
-146.525055
 21
47.999989
  0
LINE
  8
0
 10
-146.125000
 20
48.000019
 11
-146.125000
 21
49.000019
  0
LINE
  8
0
 10
-146.524963
 20
48.000019
 11
-146.524963
 21
49.000019
  0
LINE
  8
0
 10
-159.424988
 20
-55.999950
 11
-159.424988
 21
-65.999954
  0
LINE
  8
0
 10
-152.424988
 20
-55.999981
 11
-159.424988
 21
-55.999981
  0
LINE
  8
0
 10
-152.424988
 20
-65.999985
 11
-159.424988
 21
-65.999985
  0
LINE
  8
0
 10
-146.117981
 20
-60.999981
 11
-163.630371
 21
-60.999981
  0
LINE
  8
0
 10
-154.424988
 20
-73.999985
 11
-185.424988
 21
-73.999985
  0
LINE
  8
0
 10
-149.824982
 20
-68.999985
 11
-151.424988
 21
-68.999985
  0
LINE
  8
0
 10
-170.524994
 20
-63.066021
 11
-168.324982
 21
-63.066021
  0
LINE
  8
0
 10
-172.391022
 20
-55.799999
 11
-172.391022
 21
-61.199963
  0
LINE
  8
0
 10
-166.458954
 20
-55.799999
 11
-166.458954
 21
-61.199963
  0
LINE
  8
0
 10
-170.524994
 20
-53.934032
 11
-168.324982
 21
-53.934032
  0
LINE
  8
0
 10
-151.424927
 20
26.000004
 11
-185.424927
 21
26.000004
  0
LINE
  8
0
 10
-151.424988
 20
26.000050
 11
-151.424988
 21
-70.999954
  0
LINE
  8
0
 10
-149.824982
 20
8.500004
 11
-151.424927
 21
8.500004
  0
LINE
  8
0
 10
-172.391022
 20
1.200001
 11
-172.391022
 21
-4.199993
  0
LINE
  8
0
 10
-170.524994
 20
-6.066044
 11
-168.324982
 21
-6.066044
  0
LINE
  8
0
 10
-166.458954
 20
1.200001
 11
-166.458954
 21
-4.199993
  0
LINE
  8
0
 10
-170.524994
 20
3.065945
 11
-168.324982
 21
3.065945
  0
LINE
  8
0
 10
-185.424988
 20
26.000050
 11
-185.424988
 21
-73.999954
  0
LINE
  8
0
 10
-159.424988
 20
-42.499981
 11
-179.424988
 21
-42.499981
  0
LINE
  8
0
 10
-169.424988
 20
-7.499943
 11
-169.424988
 21
-52.499920
  0
LINE
  8
0
 10
-159.424988
 20
-17.500011
 11
-179.424988
 21
-17.500011
  0
LINE
  8
0
 10
-151.574982
 20
56.999989
 11
-151.574982
 21
26.000004
  0
LINE
  8
0
 10
-184.774994
 20
56.999989
 11
-184.774994
 21
26.000004
  0
LINE
  8
0
 10
-181.774994
 20
59.999989
 11
-154.574982
 21
59.999989
  0
LINE
  8
0
 10
-138.925049
 20
53.149982
 11
-138.925049
 21
47.550007
  0
ARC
  8
0
 10
-148.325043
 20
48.500019
 40
1.500000
 50
90.000000
 51
180.000000
  0
ARC
  8
0
 10
-145.325043
 20
47.500019
 40
1.500000
 50
0.000000
 51
90.000000
  0
ARC
  8
0
 10
-147.325043
 20
47.500019
 40
1.500000
 50
90.000000
 51
180.000000
  0
ARC
  8
0
 10
-96.325043
 20
48.500050
 40
1.500000
 50
0.000000
 51
90.000000
  0
ARC
  8
0
 10
-152.424988
 20
-54.999950
 40
1.000000
 50
270.000000
 51
0.000000
  0
ARC
  8
0
 10
-152.424988
 20
-66.999954
 40
1.000000
 50
0.000000
 51
90.000000
  0
ARC
  8
0
 10
-154.424988
 20
-70.999954
 40
3.000000
 50
270.000000
 51
0.000000
  0
ARC
  8
0
 10
-168.324982
 20
-61.199963
 40
1.865997
 50
270.000000
 51
0.000000
  0
ARC
  8
0
 10
-170.524994
 20
-61.199963
 40
1.865997
 50
179.999878
 51
270.000000
  0
ARC
  8
0
 10
-170.524994
 20
-55.799999
 40
1.865997
 50
90.000000
 51
179.999878
  0
ARC
  8
0
 10
-168.324982
 20
-55.799999
 40
1.865997
 50
0.000000
 51
90.000000
  0
ARC
  8
0
 10
-170.524933
 20
-4.199993
 40
1.865997
 50
179.999878
 51
270.000000
  0
ARC
  8
0
 10
-168.324951
 20
-4.199993
 40
1.865997
 50
270.000000
 51
0.000000
  0
ARC
  8
0
 10
-170.524933
 20
1.200001
 40
1.865997
 50
90.000000
 51
179.999878
  0
ARC
  8
0
 10
-168.324951
 20
1.200001
 40
1.865997
 50
0.000000
 51
90.000000
  0
ARC
  8
0
 10
-181.774994
 20
56.999989
 40
3.000000
 50
90.000000
 51
180.000000
  0
ARC
  8
0
 10
-154.574982
 20
56.999989
 40
3.000000
 50
0.000000
 51
90.000000
  0
CIRCLE
  8
0
 10
-169.424988
 20
-17.500011
 40
6.578499
  0
CIRCLE
  8
0
 10
-169.424988
 20
-17.500011
 40
5.722500
  0
CIRCLE
  8
0
 10
-169.424988
 20
-42.499981
 40
6.578499
  0
CIRCLE
  8
0
 10
-169.424988
 20
-42.499981
 40
5.722500
  0
TEXT
  8
0
 10
-169.864990
 20
-57.721481
 40
1.599999
  1
B
 50
270.000000
 41
1.052632
 51
0.000000
  7
STANDARD
  0
TEXT
  8
0
 10
-169.864960
 20
-0.721496
 40
1.599999
  1
A
 50
270.000000
 41
1.052632
 51
0.000000
  7
STANDARD
  0
POINT
  8
0
 10
174.575012
 20
-60.999981
  0
POINT
  8
0
 10
194.575012
 20
-60.999981
  0
LINE
  8
0
 10
139.575012
 20
8.499958
 11
139.575012
 21
-68.999985
  0
LINE
  8
0
 10
83.975006
 20
-72.499985
 11
83.975006
 21
48.499989
  0
LINE
  8
0
 10
83.975037
 20
-47.999981
 11
113.975037
 21
-47.999981
  0
LINE
  8
0
 10
83.975037
 20
-41.999981
 11
113.975037
 21
-41.999981
  0
LINE
  8
0
 10
113.975006
 20
-48.000011
 11
113.975006
 21
-42.000011
  0
LINE
  8
0
 10
109.975006
 20
-47.500011
 11
109.975006
 21
-42.500011
  0
LINE
  8
0
 10
85.475006
 20
-73.999985
 11
138.975006
 21
-73.999985
  0
LINE
  8
0
 10
83.975067
 20
26.000004
 11
138.975098
 21
26.000004
  0
LINE
  8
0
 10
83.975067
 20
6.000004
 11
138.975098
 21
6.000004
  0
LINE
  8
0
 10
93.975006
 20
-65.999985
 11
93.975006
 21
5.999996
  0
LINE
  8
0
 10
83.975006
 20
-65.999985
 11
138.975006
 21
-65.999985
  0
LINE
  8
0
 10
109.212494
 20
-44.999981
 11
114.675659
 21
-44.999981
  0
LINE
  8
0
 10
109.975037
 20
-42.499981
 11
113.975037
 21
-42.499981
  0
LINE
  8
0
 10
109.975037
 20
-47.499981
 11
113.975037
 21
-47.499981
  0
LINE
  8
0
 10
83.975037
 20
-11.999996
 11
113.975037
 21
-11.999996
  0
LINE
  8
0
 10
83.975037
 20
-18.000011
 11
113.975037
 21
-18.000011
  0
LINE
  8
0
 10
113.975006
 20
-12.000019
 11
113.975006
 21
-18.000011
  0
LINE
  8
0
 10
109.975006
 20
-12.500019
 11
109.975006
 21
-17.500011
  0
LINE
  8
0
 10
109.212494
 20
-15.000011
 11
114.856323
 21
-15.000011
  0
LINE
  8
0
 10
109.975037
 20
-17.500011
 11
113.975037
 21
-17.500011
  0
LINE
  8
0
 10
109.975037
 20
-12.499996
 11
113.975037
 21
-12.499996
  0
LINE
  8
0
 10
138.975006
 20
-73.999985
 11
138.975006
 21
48.499958
  0
LINE
  8
0
 10
135.475006
 20
44.920094
 11
135.475006
 21
50.745808
  0
LINE
  8
0
 10
132.475098
 20
45.999989
 11
138.975098
 21
45.999989
  0
LINE
  8
0
 10
134.475098
 20
48.999989
 11
136.475098
 21
48.999989
  0
LINE
  8
0
 10
132.475006
 20
45.999958
 11
132.475006
 21
49.999958
  0
LINE
  8
0
 10
137.975006
 20
45.999958
 11
137.975006
 21
47.499958
  0
LINE
  8
0
 10
132.975006
 20
45.999958
 11
132.975006
 21
47.499958
  0
LINE
  8
0
 10
132.975098
 20
46.999989
 11
137.975098
 21
46.999989
  0
LINE
  8
0
 10
130.225006
 20
49.999958
 11
130.225006
 21
50.699970
  0
LINE
  8
0
 10
125.924988
 20
49.999958
 11
125.924988
 21
50.699970
  0
LINE
  8
0
 10
125.925110
 20
50.700001
 11
130.225098
 21
50.700001
  0
LINE
  8
0
 10
85.475098
 20
49.999989
 11
137.475098
 21
49.999989
  0
LINE
  8
0
 10
95.375000
 20
49.999989
 11
95.375000
 21
25.999989
  0
LINE
  8
0
 10
97.375000
 20
49.999989
 11
97.375000
 21
25.999989
  0
LINE
  8
0
 10
98.975006
 20
49.999989
 11
98.975006
 21
25.999989
  0
LINE
  8
0
 10
100.975006
 20
49.999989
 11
100.975006
 21
25.999989
  0
LINE
  8
0
 10
102.575012
 20
49.999989
 11
102.575012
 21
25.999989
  0
LINE
  8
0
 10
104.575012
 20
49.999989
 11
104.575012
 21
25.999989
  0
LINE
  8
0
 10
106.174988
 20
49.999989
 11
106.174988
 21
25.999989
  0
LINE
  8
0
 10
108.174988
 20
49.999989
 11
108.174988
 21
25.999989
  0
LINE
  8
0
 10
109.774994
 20
49.999989
 11
109.774994
 21
25.999989
  0
LINE
  8
0
 10
111.774994
 20
49.999989
 11
111.774994
 21
25.999989
  0
LINE
  8
0
 10
113.375000
 20
49.999989
 11
113.375000
 21
25.999989
  0
LINE
  8
0
 10
115.375000
 20
49.999989
 11
115.375000
 21
25.999989
  0
LINE
  8
0
 10
116.975006
 20
49.999989
 11
116.975006
 21
25.999989
  0
LINE
  8
0
 10
118.975006
 20
49.999958
 11
118.975006
 21
25.999973
  0
LINE
  8
0
 10
120.575012
 20
49.999958
 11
120.575012
 21
25.999958
  0
LINE
  8
0
 10
122.575012
 20
49.999958
 11
122.575012
 21
25.999958
  0
LINE
  8
0
 10
93.975006
 20
49.999989
 11
93.975006
 21
25.999989
  0
LINE
  8
0
 10
123.975006
 20
49.999989
 11
123.975006
 21
25.999958
  0
LINE
  8
0
 10
135.275085
 20
47.999989
 11
135.675110
 21
47.999989
  0
LINE
  8
0
 10
135.275024
 20
47.999958
 11
135.275024
 21
48.999958
  0
LINE
  8
0
 10
135.674988
 20
47.999958
 11
135.674988
 21
48.999958
  0
LINE
  8
0
 10
143.575012
 20
-73.999985
 11
174.575012
 21
-73.999985
  0
LINE
  8
0
 10
138.975006
 20
-68.999985
 11
140.575012
 21
-68.999985
  0
LINE
  8
0
 10
140.575012
 20
26.000004
 11
174.575012
 21
26.000004
  0
LINE
  8
0
 10
140.575012
 20
25.999989
 11
140.575012
 21
-71.000015
  0
LINE
  8
0
 10
138.975006
 20
8.500004
 11
140.575012
 21
8.500004
  0
LINE
  8
0
 10
174.575012
 20
25.999989
 11
174.575012
 21
-74.000015
  0
LINE
  8
0
 10
148.575012
 20
17.999989
 11
148.575012
 21
7.999989
  0
LINE
  8
0
 10
141.575012
 20
18.000004
 11
148.575012
 21
18.000004
  0
LINE
  8
0
 10
141.575012
 20
8.000004
 11
148.575012
 21
8.000004
  0
LINE
  8
0
 10
147.620605
 20
-30.000011
 11
170.219299
 21
-30.000011
  0
LINE
  8
0
 10
148.575012
 20
-5.499996
 11
168.575012
 21
-5.499996
  0
LINE
  8
0
 10
135.268005
 20
13.000004
 11
152.780396
 21
13.000004
  0
LINE
  8
0
 10
148.575012
 20
-54.499981
 11
168.575012
 21
-54.499981
  0
LINE
  8
0
 10
158.575012
 20
6.981342
 11
158.575012
 21
-64.500015
  0
LINE
  8
0
 10
165.608948
 20
-16.300030
 11
165.608948
 21
-21.700024
  0
LINE
  8
0
 10
167.474976
 20
-23.565990
 11
169.674988
 21
-23.565990
  0
LINE
  8
0
 10
171.541016
 20
-16.300030
 11
171.541016
 21
-21.700024
  0
LINE
  8
0
 10
167.474976
 20
-14.434002
 11
169.674988
 21
-14.434002
  0
LINE
  8
0
 10
165.608948
 20
-40.799999
 11
165.608948
 21
-46.199993
  0
LINE
  8
0
 10
167.474976
 20
-48.065990
 11
169.674988
 21
-48.065990
  0
LINE
  8
0
 10
171.541016
 20
-40.799999
 11
171.541016
 21
-46.199993
  0
LINE
  8
0
 10
167.474976
 20
-38.934002
 11
169.674988
 21
-38.934002
  0
LINE
  8
0
 10
170.925049
 20
59.999989
 11
143.725037
 21
59.999989
  0
LINE
  8
0
 10
140.725037
 20
56.999989
 11
140.725037
 21
26.000004
  0
LINE
  8
0
 10
173.925049
 20
56.999989
 11
173.925049
 21
26.000004
  0
LINE
  8
0
 10
165.608948
 20
8.199986
 11
165.608948
 21
2.799992
  0
LINE
  8
0
 10
167.474976
 20
0.934010
 11
169.674988
 21
0.934010
  0
LINE
  8
0
 10
171.541016
 20
8.199986
 11
171.541016
 21
2.799992
  0
LINE
  8
0
 10
167.474976
 20
10.065998
 11
169.674988
 21
10.065998
  0
LINE
  8
0
 10
128.075012
 20
53.149952
 11
128.075012
 21
47.549976
  0
ARC
  8
0
 10
137.475098
 20
48.499958
 40
1.500000
 50
0.000000
 51
90.000000
  0
ARC
  8
0
 10
134.475098
 20
47.499958
 40
1.500000
 50
90.000000
 51
180.000000
  0
ARC
  8
0
 10
136.475098
 20
47.499958
 40
1.500000
 50
0.000000
 51
90.000000
  0
ARC
  8
0
 10
85.475098
 20
48.499989
 40
1.500000
 50
90.000000
 51
180.000000
  0
ARC
  8
0
 10
143.575012
 20
-71.000015
 40
3.000000
 50
179.999847
 51
270.000000
  0
ARC
  8
0
 10
141.575012
 20
18.999989
 40
1.000000
 50
180.000000
 51
270.000000
  0
ARC
  8
0
 10
141.575012
 20
6.999989
 40
1.000000
 50
90.000000
 51
180.000000
  0
ARC
  8
0
 10
167.474976
 20
-21.700024
 40
1.865997
 50
180.000000
 51
270.000000
  0
ARC
  8
0
 10
169.674988
 20
-21.700024
 40
1.865997
 50
270.000000
 51
0.000000
  0
ARC
  8
0
 10
167.474976
 20
-16.300030
 40
1.865997
 50
90.000000
 51
179.999878
  0
ARC
  8
0
 10
169.674988
 20
-16.300030
 40
1.865997
 50
0.000117
 51
90.000000
  0
ARC
  8
0
 10
167.474976
 20
-46.199993
 40
1.865997
 50
180.000000
 51
270.000000
  0
ARC
  8
0
 10
169.674988
 20
-46.199993
 40
1.865997
 50
270.000000
 51
0.000000
  0
ARC
  8
0
 10
167.474976
 20
-40.799999
 40
1.865997
 50
90.000000
 51
179.999878
  0
ARC
  8
0
 10
169.674988
 20
-40.799999
 40
1.865997
 50
0.000117
 51
90.000000
  0
ARC
  8
0
 10
158.575012
 20
-42.500011
 40
5.650002
 50
103.231880
 51
105.258369
  0
ARC
  8
0
 10
143.725037
 20
56.999989
 40
3.000000
 50
90.000000
 51
180.000000
  0
ARC
  8
0
 10
170.925049
 20
56.999989
 40
3.000000
 50
0.000000
 51
90.000000
  0
CIRCLE
  8
0
 10
158.575012
 20
-54.499981
 40
5.722500
  0
CIRCLE
  8
0
 10
158.575012
 20
-54.499981
 40
6.578499
  0
CIRCLE
  8
0
 10
158.575012
 20
-5.499996
 40
6.578499
  0
CIRCLE
  8
0
 10
158.575012
 20
-5.499996
 40
5.722500
  0
CIRCLE
  8
0
 10
158.575012
 20
-30.000011
 40
6.578499
  0
CIRCLE
  8
0
 10
158.575012
 20
-30.000011
 40
5.722500
  0
ARC
  8
0
 10
167.474976
 20
2.799992
 40
1.865997
 50
180.000000
 51
270.000000
  0
ARC
  8
0
 10
169.674988
 20
2.799992
 40
1.865997
 50
270.000000
 51
0.000000
  0
ARC
  8
0
 10
167.474976
 20
8.199986
 40
1.865997
 50
90.000000
 51
180.000000
  0
ARC
  8
0
 10
169.674988
 20
8.199986
 40
1.865997
 50
0.000000
 51
90.000000
  0
ARC
  8
0
 10
85.475006
 20
-72.499985
 40
1.500000
 50
179.999710
 51
270.000000
  0
TEXT
  8
0
 10
169.015015
 20
-19.778511
 40
1.599999
  1
P
 50
90.000000
 41
1.052632
 51
0.000000
  7
STANDARD
  0
TEXT
  8
0
 10
169.015015
 20
-45.078510
 40
1.599999
  1
R2
 50
90.000000
 41
1.052632
 51
0.000000
  7
STANDARD
  0
TEXT
  8
0
 10
169.015015
 20
3.921489
 40
1.599999
  1
R1
 50
90.000000
 41
1.052632
 51
0.000000
  7
STANDARD
  0
POINT
  8
0
 10
16.574999
 20
-179.600037
  0
POINT
  8
0
 10
-25.425001
 20
-179.600037
  0
LINE
  8
0
 10
-18.224989
 20
-166.133972
 11
-23.625013
 21
-166.133972
  0
LINE
  8
0
 10
-25.490980
 20
-168.000000
 11
-25.490980
 21
-170.200012
  0
LINE
  8
0
 10
-18.224989
 20
-172.066040
 11
-23.625013
 21
-172.066040
  0
LINE
  8
0
 10
-16.358961
 20
-168.000000
 11
-16.358961
 21
-170.200012
  0
LINE
  8
0
 10
-18.925062
 20
-89.000031
 11
10.074938
 21
-89.000031
  0
LINE
  8
0
 10
-20.425093
 20
-144.000031
 11
11.574907
 21
-144.000031
  0
LINE
  8
0
 10
11.574999
 20
-90.499969
 11
11.574999
 21
-144.599976
  0
LINE
  8
0
 10
-20.425001
 20
-90.500000
 11
-20.425001
 21
-144.600006
  0
LINE
  8
0
 10
-29.925093
 20
-179.600037
 11
21.074907
 21
-179.600037
  0
LINE
  8
0
 10
-26.925093
 20
-145.600037
 11
18.074907
 21
-145.600037
  0
LINE
  8
0
 10
-29.925001
 20
-148.599976
 11
-29.925001
 21
-179.599976
  0
LINE
  8
0
 10
21.074999
 20
-148.600006
 11
21.074999
 21
-179.600006
  0
LINE
  8
0
 10
-20.425001
 20
-144.600006
 11
-20.425001
 21
-145.600006
  0
LINE
  8
0
 10
11.574999
 20
-144.600006
 11
11.574999
 21
-145.600006
  0
LINE
  8
0
 10
-4.425001
 20
-183.600037
 11
-4.425001
 21
-85.000031
  0
LINE
  8
0
 10
-13.425001
 20
-154.100037
 11
-13.425001
 21
-166.100037
  0
LINE
  8
0
 10
-19.425001
 20
-160.100037
 11
-7.425001
 21
-160.100037
  0
LINE
  8
0
 10
7.074816
 20
-105.133972
 11
7.074816
 21
-106.866028
  0
LINE
  8
0
 10
5.574858
 20
-104.267815
 11
7.074862
 21
-105.133842
  0
LINE
  8
0
 10
4.074827
 20
-106.865944
 11
5.574831
 21
-107.731972
  0
LINE
  8
0
 10
5.574751
 20
-107.732002
 11
7.074755
 21
-106.865974
  0
LINE
  8
0
 10
4.074745
 20
-105.133957
 11
5.574747
 21
-104.267929
  0
LINE
  8
0
 10
4.074816
 20
-105.133972
 11
4.074816
 21
-106.866028
  0
LINE
  8
0
 10
-15.425166
 20
-131.267883
 11
-13.925162
 21
-132.133911
  0
LINE
  8
0
 10
-16.925188
 20
-132.133942
 11
-15.425185
 21
-131.267914
  0
LINE
  8
0
 10
-16.925192
 20
-133.865936
 11
-15.425187
 21
-134.731964
  0
LINE
  8
0
 10
-15.425233
 20
-134.731995
 11
-13.925228
 21
-133.865967
  0
LINE
  8
0
 10
-13.925184
 20
-132.133972
 11
-13.925184
 21
-133.866028
  0
LINE
  8
0
 10
-16.925184
 20
-132.133972
 11
-16.925184
 21
-133.866028
  0
LINE
  8
0
 10
-20.425184
 20
-133.000000
 11
-10.425184
 21
-133.000000
  0
LINE
  8
0
 10
0.574816
 20
-106.000000
 11
10.574816
 21
-106.000000
  0
LINE
  8
0
 10
-15.425184
 20
-128.000000
 11
-15.425184
 21
-138.000000
  0
LINE
  8
0
 10
5.574816
 20
-101.000000
 11
5.574816
 21
-111.000000
  0
CIRCLE
  8
0
 10
5.574816
 20
-106.000000
 40
4.000000
  0
ARC
  8
0
 10
-23.625013
 20
-168.000000
 40
1.865997
 50
89.999939
 51
180.000000
  0
ARC
  8
0
 10
-23.625013
 20
-170.200012
 40
1.865997
 50
180.000000
 51
270.000000
  0
ARC
  8
0
 10
-18.225019
 20
-168.000000
 40
1.865997
 50
0.000000
 51
89.999939
  0
ARC
  8
0
 10
-18.225019
 20
-170.200012
 40
1.865997
 50
270.000061
 51
0.000000
  0
ARC
  8
0
 10
10.074907
 20
-90.500000
 40
1.500000
 50
0.000000
 51
90.000000
  0
ARC
  8
0
 10
-18.925093
 20
-90.500000
 40
1.500000
 50
90.000000
 51
180.000000
  0
ARC
  8
0
 10
-26.925123
 20
-148.599976
 40
3.000000
 50
89.999962
 51
180.000000
  0
ARC
  8
0
 10
18.074877
 20
-148.600006
 40
3.000000
 50
0.000000
 51
90.000076
  0
CIRCLE
  8
0
 10
-13.425001
 20
-160.100037
 40
4.282999
  0
CIRCLE
  8
0
 10
-13.425001
 20
-160.100037
 40
4.863998
  0
CIRCLE
  8
0
 10
5.574816
 20
-106.000000
 40
3.500000
  0
CIRCLE
  8
0
 10
-15.425184
 20
-133.000000
 40
3.500000
  0
CIRCLE
  8
0
 10
-15.425184
 20
-133.000000
 40
4.000000
  0
TEXT
  8
0
 10
-22.503500
 20
-169.540039
 40
1.599999
  1
PR
 50
0.000000
 41
1.052632
 51
0.000000
  7
STANDARD
  0
POINT
  8
0
 10
-25.424982
 20
175.599991
  0
POINT
  8
0
 10
16.575018
 20
175.599991
  0
LINE
  8
0
 10
8.075018
 20
132.000015
 11
8.075018
 21
141.000015
  0
LINE
  8
0
 10
10.075079
 20
85.000015
 11
-18.924952
 21
85.000015
  0
LINE
  8
0
 10
11.575018
 20
140.000015
 11
-20.424982
 21
140.000015
  0
LINE
  8
0
 10
11.575048
 20
95.000015
 11
-20.424952
 21
95.000015
  0
LINE
  8
0
 10
11.575048
 20
125.000015
 11
-20.424952
 21
125.000015
  0
LINE
  8
0
 10
-20.424982
 20
86.499985
 11
-20.424982
 21
140.599991
  0
LINE
  8
0
 10
11.575018
 20
86.500015
 11
11.575018
 21
140.600021
  0
LINE
  8
0
 10
11.575048
 20
133.500015
 11
8.075048
 21
133.500015
  0
LINE
  8
0
 10
5.075018
 20
136.500015
 11
5.075018
 21
140.000015
  0
LINE
  8
0
 10
12.575048
 20
136.500015
 11
3.575048
 21
136.500015
  0
LINE
  8
0
 10
-0.924952
 20
129.099991
 11
-7.924952
 21
129.099991
  0
LINE
  8
0
 10
-16.924982
 20
131.999985
 11
-16.924982
 21
140.999985
  0
LINE
  8
0
 10
-20.424982
 20
133.500015
 11
-16.924982
 21
133.500015
  0
LINE
  8
0
 10
-13.924982
 20
136.500015
 11
-13.924982
 21
140.000015
  0
LINE
  8
0
 10
3.575048
 20
136.500015
 11
12.575048
 21
136.500015
  0
LINE
  8
0
 10
11.575048
 20
96.400009
 11
-20.424952
 21
96.400009
  0
LINE
  8
0
 10
11.575048
 20
98.400009
 11
-20.424952
 21
98.400009
  0
LINE
  8
0
 10
11.575048
 20
100.000015
 11
-4.424952
 21
100.000015
  0
LINE
  8
0
 10
11.575048
 20
102.000015
 11
-4.424952
 21
102.000015
  0
LINE
  8
0
 10
11.575048
 20
103.599991
 11
-20.424952
 21
103.599991
  0
LINE
  8
0
 10
11.575048
 20
105.599991
 11
-20.424952
 21
105.599991
  0
LINE
  8
0
 10
11.575048
 20
107.199997
 11
-20.424952
 21
107.199997
  0
LINE
  8
0
 10
11.575048
 20
109.199997
 11
-20.424952
 21
109.199997
  0
LINE
  8
0
 10
11.575048
 20
110.800003
 11
-20.424952
 21
110.800003
  0
LINE
  8
0
 10
11.575048
 20
112.800003
 11
-20.424952
 21
112.800003
  0
LINE
  8
0
 10
11.575048
 20
114.400009
 11
-20.424952
 21
114.400009
  0
LINE
  8
0
 10
11.575048
 20
116.400009
 11
-20.424952
 21
116.400009
  0
LINE
  8
0
 10
11.575048
 20
117.999985
 11
-20.424952
 21
117.999985
  0
LINE
  8
0
 10
11.575048
 20
119.999985
 11
-20.424952
 21
119.999985
  0
LINE
  8
0
 10
11.575048
 20
121.599991
 11
-20.424952
 21
121.599991
  0
LINE
  8
0
 10
11.575048
 20
123.599991
 11
-20.424952
 21
123.599991
  0
LINE
  8
0
 10
-17.424982
 20
99.999985
 11
-17.424982
 21
101.999985
  0
LINE
  8
0
 10
-17.424952
 20
100.000015
 11
-20.424952
 21
100.000015
  0
LINE
  8
0
 10
-17.424952
 20
102.000015
 11
-20.424952
 21
102.000015
  0
LINE
  8
0
 10
-4.424982
 20
100.000015
 11
-4.424982
 21
102.000015
  0
LINE
  8
0
 10
6.085058
 20
136.300003
 11
7.875036
 21
136.300003
  0
LINE
  8
0
 10
6.085058
 20
136.699997
 11
7.875036
 21
136.699997
  0
LINE
  8
0
 10
7.875036
 20
134.510056
 11
7.875036
 21
136.300034
  0
LINE
  8
0
 10
8.275030
 20
134.510056
 11
8.275030
 21
136.300034
  0
LINE
  8
0
 10
8.275030
 20
136.300003
 11
10.065008
 21
136.300003
  0
LINE
  8
0
 10
8.275030
 20
136.700027
 11
8.275030
 21
138.490005
  0
LINE
  8
0
 10
7.875036
 20
136.700027
 11
7.875036
 21
138.490005
  0
LINE
  8
0
 10
8.275030
 20
136.699997
 11
10.065008
 21
136.699997
  0
LINE
  8
0
 10
-21.424982
 20
136.500015
 11
-12.424982
 21
136.500015
  0
LINE
  8
0
 10
-18.914942
 20
136.300003
 11
-17.124964
 21
136.300003
  0
LINE
  8
0
 10
-18.914942
 20
136.699997
 11
-17.124964
 21
136.699997
  0
LINE
  8
0
 10
-17.124964
 20
134.510025
 11
-17.124964
 21
136.300003
  0
LINE
  8
0
 10
-16.724970
 20
134.510025
 11
-16.724970
 21
136.300003
  0
LINE
  8
0
 10
-16.724970
 20
136.300003
 11
-14.934992
 21
136.300003
  0
LINE
  8
0
 10
-16.724970
 20
136.699997
 11
-16.724970
 21
138.489975
  0
LINE
  8
0
 10
-17.124964
 20
136.699997
 11
-17.124964
 21
138.489975
  0
LINE
  8
0
 10
-16.724970
 20
136.699997
 11
-14.934992
 21
136.699997
  0
LINE
  8
0
 10
21.075018
 20
175.599991
 11
-29.924982
 21
175.599991
  0
LINE
  8
0
 10
18.075018
 20
141.599991
 11
-26.924982
 21
141.599991
  0
LINE
  8
0
 10
21.075018
 20
144.599991
 11
21.075018
 21
175.599991
  0
LINE
  8
0
 10
-29.924982
 20
144.599991
 11
-29.924982
 21
175.599991
  0
LINE
  8
0
 10
11.575018
 20
140.599991
 11
11.575018
 21
141.599991
  0
LINE
  8
0
 10
-20.424982
 20
140.599991
 11
-20.424982
 21
141.599991
  0
LINE
  8
0
 10
-4.424982
 20
181.763962
 11
-4.424982
 21
78.292313
  0
LINE
  8
0
 10
-36.760429
 20
158.349991
 11
27.173285
 21
158.349991
  0
LINE
  8
0
 10
-11.496027
 20
160.349991
 11
-11.496027
 21
156.349991
  0
LINE
  8
0
 10
-27.924982
 20
147.599991
 11
-19.924982
 21
147.599991
  0
LINE
  8
0
 10
-27.924982
 20
169.099991
 11
-19.924982
 21
169.099991
  0
LINE
  8
0
 10
11.075018
 20
169.099991
 11
19.075018
 21
169.099991
  0
LINE
  8
0
 10
11.075018
 20
147.599991
 11
19.075018
 21
147.599991
  0
LINE
  8
0
 10
-23.924982
 20
151.599991
 11
-23.924982
 21
143.599991
  0
LINE
  8
0
 10
-23.924982
 20
173.099991
 11
-23.924982
 21
165.099991
  0
LINE
  8
0
 10
15.075018
 20
173.099991
 11
15.075018
 21
165.099991
  0
LINE
  8
0
 10
15.075018
 20
151.599991
 11
15.075018
 21
143.599991
  0
LINE
  8
0
 10
-6.424982
 20
151.278946
 11
-2.424982
 21
151.278946
  0
LINE
  8
0
 10
-6.424982
 20
165.421066
 11
-2.424982
 21
165.421066
  0
LINE
  8
0
 10
2.646093
 20
160.349991
 11
2.646093
 21
156.349991
  0
LINE
  8
0
 10
7.875036
 20
134.510056
 11
8.275030
 21
134.510056
  0
LINE
  8
0
 10
13.802229
 20
169.948517
 11
14.226492
 21
170.372787
  0
LINE
  8
0
 10
15.923552
 20
167.827194
 11
16.347818
 21
168.251465
  0
LINE
  8
0
 10
13.802225
 20
168.251465
 11
14.226492
 21
168.675720
  0
LINE
  8
0
 10
14.226488
 20
167.827194
 11
14.650755
 21
168.251465
  0
LINE
  8
0
 10
13.802229
 20
168.251465
 11
14.226492
 21
167.827209
  0
LINE
  8
0
 10
15.923552
 20
170.372787
 11
16.347815
 21
169.948532
  0
LINE
  8
0
 10
13.802229
 20
169.948517
 11
14.226492
 21
169.524261
  0
LINE
  8
0
 10
14.226492
 20
170.372787
 11
14.650751
 21
169.948517
  0
LINE
  8
0
 10
15.499281
 20
169.948517
 11
15.923548
 21
170.372787
  0
LINE
  8
0
 10
15.923544
 20
169.524261
 11
16.347811
 21
169.948517
  0
LINE
  8
0
 10
15.499285
 20
168.251465
 11
15.923548
 21
167.827194
  0
LINE
  8
0
 10
15.923544
 20
168.675735
 11
16.347811
 21
168.251465
  0
LINE
  8
0
 10
13.802233
 20
148.448517
 11
14.226496
 21
148.872772
  0
LINE
  8
0
 10
15.923555
 20
146.327194
 11
16.347818
 21
146.751450
  0
LINE
  8
0
 10
13.802229
 20
146.751465
 11
14.226492
 21
147.175720
  0
LINE
  8
0
 10
14.226492
 20
146.327194
 11
14.650755
 21
146.751465
  0
LINE
  8
0
 10
13.802229
 20
146.751465
 11
14.226492
 21
146.327194
  0
LINE
  8
0
 10
15.923552
 20
148.872787
 11
16.347815
 21
148.448517
  0
LINE
  8
0
 10
13.802229
 20
148.448517
 11
14.226492
 21
148.024261
  0
LINE
  8
0
 10
14.226492
 20
148.872787
 11
14.650755
 21
148.448517
  0
LINE
  8
0
 10
15.499285
 20
148.448517
 11
15.923548
 21
148.872772
  0
LINE
  8
0
 10
15.923548
 20
148.024246
 11
16.347811
 21
148.448517
  0
LINE
  8
0
 10
15.499285
 20
146.751465
 11
15.923548
 21
146.327194
  0
LINE
  8
0
 10
15.923544
 20
147.175720
 11
16.347811
 21
146.751465
  0
LINE
  8
0
 10
-25.197775
 20
148.448517
 11
-24.773510
 21
148.872787
  0
LINE
  8
0
 10
-23.076452
 20
146.327194
 11
-22.652187
 21
146.751465
  0
LINE
  8
0
 10
-25.197771
 20
146.751465
 11
-24.773508
 21
147.175720
  0
LINE
  8
0
 10
-24.773508
 20
146.327194
 11
-24.349243
 21
146.751465
  0
LINE
  8
0
 10
-25.197773
 20
146.751465
 11
-24.773510
 21
146.327194
  0
LINE
  8
0
 10
-23.076456
 20
148.872772
 11
-22.652191
 21
148.448517
  0
LINE
  8
0
 10
-25.197777
 20
148.448517
 11
-24.773512
 21
148.024246
  0
LINE
  8
0
 10
-24.773510
 20
148.872787
 11
-24.349247
 21
148.448517
  0
LINE
  8
0
 10
-23.500715
 20
148.448517
 11
-23.076452
 21
148.872772
  0
LINE
  8
0
 10
-23.076452
 20
148.024246
 11
-22.652187
 21
148.448517
  0
LINE
  8
0
 10
-23.500721
 20
146.751465
 11
-23.076456
 21
146.327194
  0
LINE
  8
0
 10
-23.076454
 20
147.175720
 11
-22.652189
 21
146.751465
  0
LINE
  8
0
 10
-25.197773
 20
169.948517
 11
-24.773510
 21
170.372787
  0
LINE
  8
0
 10
-23.076452
 20
167.827194
 11
-22.652189
 21
168.251465
  0
LINE
  8
0
 10
-25.197773
 20
168.251465
 11
-24.773510
 21
168.675720
  0
LINE
  8
0
 10
-24.773508
 20
167.827194
 11
-24.349245
 21
168.251465
  0
LINE
  8
0
 10
-25.197775
 20
168.251465
 11
-24.773510
 21
167.827194
  0
LINE
  8
0
 10
-23.076454
 20
170.372787
 11
-22.652189
 21
169.948517
  0
LINE
  8
0
 10
-25.197775
 20
169.948517
 11
-24.773510
 21
169.524261
  0
LINE
  8
0
 10
-24.773510
 20
170.372787
 11
-24.349247
 21
169.948517
  0
LINE
  8
0
 10
-23.500717
 20
169.948517
 11
-23.076454
 21
170.372787
  0
LINE
  8
0
 10
-23.076452
 20
169.524261
 11
-22.652189
 21
169.948517
  0
LINE
  8
0
 10
-23.500719
 20
168.251465
 11
-23.076454
 21
167.827194
  0
LINE
  8
0
 10
-23.076454
 20
168.675720
 11
-22.652191
 21
168.251465
  0
ARC
  8
0
 10
-18.924952
 20
86.499985
 40
1.500000
 50
180.000000
 51
270.000000
  0
ARC
  8
0
 10
10.075079
 20
86.500015
 40
1.500000
 50
270.000000
 51
0.000000
  0
CIRCLE
  8
0
 10
8.075048
 20
136.500015
 40
2.500000
  0
ARC
  8
0
 10
8.075048
 20
136.500015
 40
3.000000
 50
180.000000
 51
270.000000
  0
CIRCLE
  8
0
 10
-4.424952
 20
129.099991
 40
2.150000
  0
CIRCLE
  8
0
 10
-4.424952
 20
129.099991
 40
1.500000
  0
CIRCLE
  8
0
 10
-16.924982
 20
136.499985
 40
2.500000
  0
ARC
  8
0
 10
-16.924982
 20
136.499985
 40
3.000000
 50
270.000031
 51
0.000000
  0
ARC
  8
0
 10
-16.924982
 20
136.499985
 40
2.000000
 50
264.260864
 51
275.739258
  0
ARC
  8
0
 10
8.075048
 20
136.500015
 40
2.000000
 50
354.260925
 51
5.739083
  0
ARC
  8
0
 10
8.075048
 20
136.500015
 40
2.000000
 50
84.260811
 51
95.739189
  0
ARC
  8
0
 10
8.075048
 20
136.500015
 40
2.000000
 50
174.260910
 51
185.739090
  0
ARC
  8
0
 10
-16.924982
 20
136.499985
 40
2.000000
 50
84.260811
 51
95.739136
  0
ARC
  8
0
 10
-16.924982
 20
136.499985
 40
2.000000
 50
354.260925
 51
5.739083
  0
ARC
  8
0
 10
-16.924982
 20
136.499985
 40
2.000000
 50
174.260910
 51
185.739090
  0
ARC
  8
0
 10
18.075018
 20
144.599991
 40
3.000000
 50
270.000000
 51
0.000000
  0
ARC
  8
0
 10
-26.924982
 20
144.599991
 40
3.000000
 50
180.000000
 51
269.999969
  0
CIRCLE
  8
0
 10
-4.424982
 20
158.349991
 40
11.900000
  0
CIRCLE
  8
0
 10
-11.496027
 20
158.349991
 40
1.050000
  0
CIRCLE
  8
0
 10
-11.496027
 20
158.349991
 40
1.350000
  0
CIRCLE
  8
0
 10
-4.424982
 20
165.421066
 40
1.350000
  0
CIRCLE
  8
0
 10
-4.424982
 20
165.421066
 40
1.050000
  0
CIRCLE
  8
0
 10
2.646093
 20
158.349991
 40
1.350000
  0
CIRCLE
  8
0
 10
2.646093
 20
158.349991
 40
1.050000
  0
CIRCLE
  8
0
 10
-4.424982
 20
151.278946
 40
1.350000
  0
CIRCLE
  8
0
 10
-4.424982
 20
151.278946
 40
1.050000
  0
CIRCLE
  8
0
 10
15.075018
 20
169.099991
 40
2.799999
  0
ARC
  8
0
 10
15.075018
 20
170.372787
 40
0.600004
 50
225.000519
 51
314.999481
  0
ARC
  8
0
 10
13.802225
 20
169.099991
 40
0.600004
 50
314.999481
 51
45.000515
  0
ARC
  8
0
 10
16.347811
 20
169.099991
 40
0.600004
 50
134.999481
 51
225.000519
  0
ARC
  8
0
 10
15.075018
 20
167.827194
 40
0.600004
 50
45.000515
 51
134.999481
  0
CIRCLE
  8
0
 10
15.075018
 20
147.599991
 40
2.799999
  0
ARC
  8
0
 10
15.075018
 20
148.872787
 40
0.600004
 50
225.000519
 51
314.999481
  0
ARC
  8
0
 10
13.802225
 20
147.599991
 40
0.600004
 50
314.999481
 51
45.000515
  0
ARC
  8
0
 10
16.347811
 20
147.599991
 40
0.600004
 50
134.999481
 51
225.000519
  0
ARC
  8
0
 10
15.075018
 20
146.327194
 40
0.600004
 50
45.000515
 51
134.999481
  0
CIRCLE
  8
0
 10
-23.924982
 20
147.599991
 40
2.799999
  0
ARC
  8
0
 10
-23.924982
 20
148.872787
 40
0.600005
 50
225.000381
 51
314.999603
  0
ARC
  8
0
 10
-25.197773
 20
147.599991
 40
0.600004
 50
314.999481
 51
45.000515
  0
ARC
  8
0
 10
-22.652191
 20
147.599991
 40
0.600004
 50
134.999481
 51
225.000519
  0
ARC
  8
0
 10
-23.924982
 20
146.327194
 40
0.600005
 50
45.000385
 51
134.999481
  0
CIRCLE
  8
0
 10
-23.924982
 20
169.099991
 40
2.799999
  0
ARC
  8
0
 10
-23.924982
 20
170.372787
 40
0.600005
 50
225.000381
 51
314.999603
  0
ARC
  8
0
 10
-25.197773
 20
169.099991
 40
0.600004
 50
314.999481
 51
45.000515
  0
ARC
  8
0
 10
-22.652191
 20
169.099991
 40
0.600004
 50
134.999481
 51
225.000519
  0
ARC
  8
0
 10
-23.924982
 20
167.827194
 40
0.600005
 50
45.000385
 51
134.999481
  0
TEXT
  8
0
 10
-13.880744
 20
158.507584
 40
1.250000
  1
C
 50
180.000000
 41
1.052632
 51
0.000000
  7
STANDARD
  0
TEXT
  8
0
 10
-3.838141
 20
148.364517
 40
1.250000
  1
B
 50
180.000000
 41
1.052632
 51
0.000000
  7
STANDARD
  0
TEXT
  8
0
 10
-3.099247
 20
168.124344
 40
1.000000
  1
GND
 50
180.000000
 41
1.052632
 51
0.000000
  7
STANDARD
  0
TEXT
  8
0
 10
5.903223
 20
158.507584
 40
1.250000
  1
A
 50
180.000000
 41
1.052632
 51
0.000000
  7
STANDARD
  0
TEXT
  8
0
 10
-7.968368
 20
101.439987
 40
1.599999
  1
DC24V
 50
-180.000000
 41
0.798239
 51
0.000000
  7
STANDARD
  0
ENDSEC
  0
EOF
