  0
SECTION
  2
HEADER
  0
ENDSEC
  0
SECTION
  2
TABLES
  0
TABLE
  2
LTYPE
 70
     4
  0
LTYPE
  2
CONTINUOUS
 70
    64
  3
Solid line
 72
    65
 73
     0
 40
0.000000
  0
LTYPE
  2
DASHED
 70
    64
  3
__ __ __ __ __ __ __ __ __ __ __ __ __ __ __
 72
    65
 73
     2
 40
3.500000
 49
2.000000
 49
-1.500000
  0
LTYPE
  2
CENTER
 70
    64
  3
____ _ ____ _ ____ _ ____ _ ____ _ ____ _ ____
 72
    65
 73
     4
 40
17.500000
 49
13.000000
 49
-1.500000
 49
1.500000
 49
-1.500000
  0
LTYPE
  2
PHANTOM
 70
    64
  3
_____ _ _ _____ _ _ _____ _ _ _____ _ _ ____  
 72
    65
 73
     6
 40
15.500000
 49
8.000000
 49
-1.500000
 49
1.500000
 49
-1.500000
 49
1.500000
 49
-1.500000
  0
LTYPE
  2
DASHED1
 70
    64
  3
__ __ __ __ __ __ __ __ __ __ __ __ __ __ __
 72
    65
 73
     2
 40
1.500000
 49
1.000000
 49
-0.500000
  0
LTYPE
  2
DASHED2
 70
    64
  3
__ __ __ __ __ __ __ __ __ __ __ __ __ __ __
 72
    65
 73
     2
 40
3.500000
 49
2.500000
 49
-1.000000
  0
LTYPE
  2
DASHED3
 70
    64
  3
__ __ __ __ __ __ __ __ __ __ __ __ __ __ __
 72
    65
 73
     2
 40
6.000000
 49
4.000000
 49
-2.000000
  0
LTYPE
  2
DASHED4
 70
    64
  3
__ __ __ __ __ __ __ __ __ __ __ __ __ __ __
 72
    65
 73
     2
 40
12.000000
 49
10.000000
 49
-2.000000
  0
LTYPE
  2
DASHED5
 70
    64
  3
__ __ __ __ __ __ __ __ __ __ __ __ __ __ __
 72
    65
 73
     2
 40
17.000000
 49
15.000000
 49
-2.000000
  0
LTYPE
  2
DASHED6
 70
    64
  3
__ __ __ __ __ __ __ __ __ __ __ __ __ __ __
 72
    65
 73
     2
 40
29.000000
 49
27.000000
 49
-2.000000
  0
LTYPE
  2
PHANTOM1
 70
    64
  3
_____ _ _ _____ _ _ _____ _ _ _____ _ _ ____  
 72
    65
 73
     6
 40
31.000000
 49
25.000000
 49
-1.500000
 49
1.000000
 49
-1.000000
 49
1.000000
 49
-1.500000
  0
LTYPE
  2
PHANTOM2
 70
    64
  3
_____ _ _ _____ _ _ _____ _ _ _____ _ _ ____  
 72
    65
 73
     6
 40
36.000000
 49
27.000000
 49
-1.500000
 49
2.500000
 49
-1.000000
 49
2.500000
 49
-1.500000
  0
LTYPE
  2
PHANTOM3
 70
    64
  3
_____ _ _ _____ _ _ _____ _ _ _____ _ _ ____  
 72
    65
 73
     6
 40
78.000000
 49
64.000000
 49
-2.000000
 49
4.000000
 49
-2.000000
 49
4.000000
 49
-2.000000
  0
LTYPE
  2
CENTER1
 70
    64
  3
____ _ ____ _ ____ _ ____ _ ____ _ ____ _ ____
 72
    65
 73
     4
 40
19.000000
 49
14.000000
 49
-1.000000
 49
3.000000
 49
-1.000000
  0
LTYPE
  2
CENTER2
 70
    64
  3
____ _ ____ _ ____ _ ____ _ ____ _ ____ _ ____
 72
    65
 73
     4
 40
28.500000
 49
25.000000
 49
-1.000000
 49
1.500000
 49
-1.000000
  0
LTYPE
  2
CENTER3
 70
    64
  3
____ _ ____ _ ____ _ ____ _ ____ _ ____ _ ____
 72
    65
 73
     4
 40
31.500000
 49
27.000000
 49
-1.000000
 49
2.500000
 49
-1.000000
  0
LTYPE
  2
CENTER4
 70
    64
  3
____ _ ____ _ ____ _ ____ _ ____ _ ____ _ ____
 72
    65
 73
     4
 40
50.000000
 49
45.000000
 49
-1.000000
 49
3.000000
 49
-1.000000
  0
LTYPE
  2
CENTER5
 70
    64
  3
____ _ ____ _ ____ _ ____ _ ____ _ ____ _ ____
 72
    65
 73
     4
 40
100.000000
 49
92.000000
 49
-2.000000
 49
4.000000
 49
-2.000000
  0
LTYPE
  2
SBK1
 70
    64
  3
______ _ _ _ ______ _ _ _ ______ _ _ _ _____  
 72
    65
 73
     8
 40
60.500000
 49
45.000000
 49
-2.000000
 49
2.500000
 49
-2.000000
 49
2.500000
 49
-2.000000
 49
2.500000
 49
-2.000000
  0
LTYPE
  2
SBK2
 70
    64
  3
______ _ _ _ ______ _ _ _ ______ _ _ _ _____  
 72
    65
 73
     8
 40
84.000000
 49
64.000000
 49
-2.000000
 49
4.000000
 49
-2.000000
 49
4.000000
 49
-2.000000
 49
4.000000
 49
-2.000000
  0
LTYPE
  2
STCH
 70
    64
  3
__ __ __ __ __ __ __ __ __ __ __ __ __ __ __
 72
    65
 73
     2
 40
3.000000
 49
1.000000
 49
-2.000000
  0
LTYPE
  2
MTCH
 70
    64
  3
_____ _ _ _____ _ _ _____ _ _ _____ _ _ ____  
 72
    65
 73
     6
 40
80.000000
 49
66.000000
 49
-2.000000
 49
4.000000
 49
-2.000000
 49
4.000000
 49
-2.000000
  0
ENDTAB
  0
TABLE
  2
LAYER
 70
     1
  0
LAYER
  2
0
 70
     0
 62
     7
  6
CONTINUOUS
  0
ENDTAB
  0
TABLE
  2
STYLE
 70
     1
  0
STYLE
  2
STANDARD
 70
     0
 40
0.000000
 41
1.000000
 50
0.000000
 71
     0
 42
0.200000
  3
txt
  4
BIGFONT
  0
ENDTAB
  0
TABLE
  2
VIEW
 70
     0
  0
ENDTAB
  0
ENDSEC
  0
SECTION
  2
BLOCKS
  0
ENDSEC
  0
SECTION
  2
ENTITIES
  0
LINE
  8
0
 10
182.099976
 20
-175.000000
 11
282.099976
 21
-175.000000
  0
LINE
  8
0
 10
182.099976
 20
-175.000000
 11
182.099976
 21
-195.000000
  0
LINE
  8
0
 10
182.099976
 20
180.500000
 11
282.099976
 21
180.500000
  0
LINE
  8
0
 10
-281.250000
 20
180.500000
 11
-181.250000
 21
180.500000
  0
LINE
  8
0
 10
-181.250000
 20
195.500000
 11
-181.250000
 21
180.500000
  0
LINE
  8
0
 10
182.099976
 20
180.500000
 11
182.099976
 21
195.500000
  0
LINE
  8
0
 10
-297.000000
 20
210.000000
 11
297.000000
 21
210.000000
  0
LINE
  8
0
 10
-297.000000
 20
210.000000
 11
-297.000000
 21
-210.000000
  0
LINE
  8
0
 10
-297.000000
 20
-210.000000
 11
297.000000
 21
-210.000000
  0
LINE
  8
0
 10
-281.250000
 20
-195.000000
 11
282.099976
 21
-195.000000
  0
LINE
  8
0
 10
-281.250000
 20
195.500000
 11
282.099976
 21
195.500000
  0
LINE
  8
0
 10
-281.250000
 20
195.500000
 11
-281.250000
 21
-195.000000
  0
LINE
  8
0
 10
297.000000
 20
210.000015
 11
297.000000
 21
-210.000000
  0
LINE
  8
0
 10
282.099976
 20
195.500000
 11
282.099976
 21
-195.000000
  0
TEXT
  8
0
 10
178.000870
 20
-190.300003
 40
7.000000
  1
ＫＯＧＡＮＥＩ，ＣＯＲＰ．
 50
0.000000
 41
0.902367
 51
15.000000
  7
STANDARD
  0
TEXT
  8
0
 10
188.021667
 20
183.779999
 40
5.800000
  1
DATE: MAY ,1992
 50
0.000000
 41
1.052632
 51
0.000000
  7
STANDARD
  0
TEXT
  8
0
 10
-260.828308
 20
183.779999
 40
5.800000
  1
430-4E2-39
 50
0.000000
 41
1.052632
 51
0.000000
  7
STANDARD
  0
TEXT
  8
0
 10
-272.728302
 20
163.779999
 40
5.800000
  1
MODEL: 430-4E2-262-39
 50
0.000000
 41
1.052632
 51
0.000000
  7
STANDARD
  0
POINT
  8
0
 10
-25.425003
 20
-49.999985
  0
POINT
  8
0
 10
21.074997
 20
-49.999985
  0
LINE
  8
0
 10
-4.425003
 20
-89.881287
 11
-4.425003
 21
85.222565
  0
LINE
  8
0
 10
-9.425003
 20
-47.999985
 11
-9.425003
 21
10.000015
  0
LINE
  8
0
 10
0.574997
 20
-47.999985
 11
0.574997
 21
10.000015
  0
LINE
  8
0
 10
-10.425003
 20
-47.999985
 11
-10.425003
 21
10.000015
  0
LINE
  8
0
 10
1.574997
 20
-47.999985
 11
1.574997
 21
10.000015
  0
LINE
  8
0
 10
-16.925003
 20
-8.499985
 11
-16.925003
 21
0.500015
  0
LINE
  8
0
 10
8.074997
 20
-38.499985
 11
8.074997
 21
-29.499985
  0
LINE
  8
0
 10
11.574997
 20
-84.000015
 11
11.574997
 21
58.000015
  0
LINE
  8
0
 10
-21.425003
 20
-4.000015
 11
-12.425003
 21
-4.000015
  0
LINE
  8
0
 10
3.574997
 20
-33.999985
 11
12.574997
 21
-33.999985
  0
LINE
  8
0
 10
-9.425003
 20
0.999985
 11
0.574997
 21
0.999985
  0
LINE
  8
0
 10
-9.425003
 20
-38.999985
 11
0.574997
 21
-38.999985
  0
LINE
  8
0
 10
-8.425003
 20
10.999985
 11
-0.425003
 21
10.999985
  0
LINE
  8
0
 10
-8.424973
 20
-48.999985
 11
-0.424973
 21
-48.999985
  0
LINE
  8
0
 10
-8.425003
 20
11.999985
 11
-0.425003
 21
11.999985
  0
LINE
  8
0
 10
-8.424973
 20
-49.999985
 11
-0.424973
 21
-49.999985
  0
LINE
  8
0
 10
-20.425003
 20
16.999985
 11
11.574997
 21
16.999985
  0
LINE
  8
0
 10
-20.424973
 20
-54.999985
 11
11.575027
 21
-54.999985
  0
LINE
  8
0
 10
8.074997
 20
-30.999985
 11
11.574997
 21
-30.999985
  0
LINE
  8
0
 10
8.074997
 20
-36.999985
 11
11.574997
 21
-36.999985
  0
LINE
  8
0
 10
-16.925003
 20
-36.999985
 11
-20.425003
 21
-36.999985
  0
LINE
  8
0
 10
-16.925003
 20
-30.999985
 11
-20.425003
 21
-30.999985
  0
LINE
  8
0
 10
8.074997
 20
-1.000015
 11
11.574997
 21
-1.000015
  0
LINE
  8
0
 10
8.074997
 20
-7.000015
 11
11.574997
 21
-7.000015
  0
LINE
  8
0
 10
-16.925003
 20
-1.000015
 11
-20.425003
 21
-1.000015
  0
LINE
  8
0
 10
-16.925003
 20
-7.000015
 11
-20.425003
 21
-7.000015
  0
LINE
  8
0
 10
3.574997
 20
-4.000015
 11
12.574997
 21
-4.000015
  0
LINE
  8
0
 10
8.074997
 20
0.500015
 11
8.074997
 21
-8.499985
  0
LINE
  8
0
 10
-16.925003
 20
-29.499985
 11
-16.925003
 21
-38.499985
  0
LINE
  8
0
 10
-21.425003
 20
-33.999985
 11
-12.425003
 21
-33.999985
  0
LINE
  8
0
 10
10.074997
 20
8.500015
 11
10.074997
 21
15.500015
  0
LINE
  8
0
 10
4.275009
 20
15.499985
 11
10.074997
 21
15.499985
  0
LINE
  8
0
 10
4.275009
 20
8.500015
 11
4.275009
 21
15.500015
  0
LINE
  8
0
 10
4.274979
 20
8.499985
 11
10.074997
 21
8.499985
  0
LINE
  8
0
 10
-13.124985
 20
-46.499985
 11
-18.924973
 21
-46.499985
  0
LINE
  8
0
 10
-13.124985
 20
-46.499985
 11
-13.124985
 21
-53.499985
  0
LINE
  8
0
 10
-13.124985
 20
-53.499985
 11
-18.924973
 21
-53.499985
  0
LINE
  8
0
 10
-18.925003
 20
-46.499985
 11
-18.925003
 21
-53.499985
  0
LINE
  8
0
 10
7.353317
 20
-32.749985
 11
8.796707
 21
-32.749985
  0
LINE
  8
0
 10
7.353317
 20
-35.249985
 11
8.796707
 21
-35.249985
  0
LINE
  8
0
 10
7.353268
 20
-35.249905
 11
6.631588
 21
-33.999916
  0
LINE
  8
0
 10
9.518333
 20
-33.999901
 11
8.796654
 21
-32.749916
  0
LINE
  8
0
 10
8.796955
 20
-35.250164
 11
9.518642
 21
-34.000168
  0
LINE
  8
0
 10
6.631920
 20
-34.000122
 11
7.353607
 21
-32.750122
  0
LINE
  8
0
 10
-17.646683
 20
-35.249985
 11
-16.203293
 21
-35.249985
  0
LINE
  8
0
 10
-17.646698
 20
-35.249958
 11
-18.368378
 21
-33.999973
  0
LINE
  8
0
 10
-15.481635
 20
-33.999958
 11
-16.203316
 21
-32.749973
  0
LINE
  8
0
 10
-16.203239
 20
-35.250023
 11
-15.481561
 21
-34.000038
  0
LINE
  8
0
 10
-18.368315
 20
-34.000046
 11
-17.646620
 21
-32.750031
  0
LINE
  8
0
 10
-17.646683
 20
-32.749985
 11
-16.203293
 21
-32.749985
  0
LINE
  8
0
 10
-17.646683
 20
-5.250015
 11
-16.203293
 21
-5.250015
  0
LINE
  8
0
 10
-17.646694
 20
-5.249977
 11
-18.368376
 21
-3.999992
  0
LINE
  8
0
 10
-15.481606
 20
-3.999962
 11
-16.203300
 21
-2.749950
  0
LINE
  8
0
 10
-16.203245
 20
-5.250023
 11
-15.481550
 21
-4.000011
  0
LINE
  8
0
 10
-18.368313
 20
-4.000034
 11
-17.646626
 21
-2.750034
  0
LINE
  8
0
 10
-17.646683
 20
-2.750015
 11
-16.203293
 21
-2.750015
  0
LINE
  8
0
 10
7.353317
 20
-5.250015
 11
8.796707
 21
-5.250015
  0
LINE
  8
0
 10
7.353302
 20
-5.249966
 11
6.631622
 21
-3.999981
  0
LINE
  8
0
 10
9.518364
 20
-3.999966
 11
8.796669
 21
-2.749954
  0
LINE
  8
0
 10
8.796944
 20
-5.250179
 11
9.518639
 21
-4.000168
  0
LINE
  8
0
 10
6.631905
 20
-4.000141
 11
7.353600
 21
-2.750130
  0
LINE
  8
0
 10
7.353317
 20
-2.750015
 11
8.796707
 21
-2.750015
  0
LINE
  8
0
 10
-20.425003
 20
-84.000015
 11
-20.425003
 21
58.000015
  0
LINE
  8
0
 10
-2.274979
 20
61.699997
 11
-6.574966
 21
61.699997
  0
LINE
  8
0
 10
-2.274979
 20
61.000015
 11
-2.274979
 21
61.699997
  0
LINE
  8
0
 10
-6.574997
 20
61.000015
 11
-6.574997
 21
61.699997
  0
LINE
  8
0
 10
-29.925003
 20
37.000015
 11
-29.925003
 21
-59.999985
  0
LINE
  8
0
 10
21.075027
 20
36.999985
 11
11.574997
 21
36.999985
  0
LINE
  8
0
 10
18.074997
 20
-62.999985
 11
11.574997
 21
-62.999985
  0
LINE
  8
0
 10
21.074997
 20
37.000015
 11
21.074997
 21
-59.999985
  0
LINE
  8
0
 10
-25.425003
 20
-44.999985
 11
-28.925003
 21
-44.999985
  0
LINE
  8
0
 10
-25.425003
 20
-54.999985
 11
-28.925003
 21
-54.999985
  0
LINE
  8
0
 10
16.575027
 20
28.999985
 11
20.075027
 21
28.999985
  0
LINE
  8
0
 10
16.575027
 20
18.999985
 11
20.075027
 21
18.999985
  0
LINE
  8
0
 10
-19.425003
 20
-49.999985
 11
-31.425003
 21
-49.999985
  0
LINE
  8
0
 10
-25.425003
 20
-43.999985
 11
-25.425003
 21
-55.999985
  0
LINE
  8
0
 10
16.574997
 20
30.000015
 11
16.574997
 21
18.000015
  0
LINE
  8
0
 10
22.575027
 20
23.999985
 11
10.575027
 21
23.999985
  0
LINE
  8
0
 10
-26.591019
 20
-3.800003
 11
-26.591019
 21
-9.199997
  0
LINE
  8
0
 10
-24.724991
 20
-11.065994
 11
-22.524979
 21
-11.065994
  0
LINE
  8
0
 10
-20.658951
 20
-3.800003
 11
-20.658951
 21
-9.199997
  0
LINE
  8
0
 10
-24.724991
 20
-1.934006
 11
-22.524979
 21
-1.934006
  0
LINE
  8
0
 10
-26.591019
 20
-28.799973
 11
-26.591019
 21
-34.199966
  0
LINE
  8
0
 10
-24.724991
 20
-36.065994
 11
-22.524979
 21
-36.065994
  0
LINE
  8
0
 10
-20.658951
 20
-28.799973
 11
-20.658951
 21
-34.199966
  0
LINE
  8
0
 10
-24.724991
 20
-26.934006
 11
-22.524979
 21
-26.934006
  0
LINE
  8
0
 10
11.808975
 20
8.199997
 11
11.808975
 21
2.800003
  0
LINE
  8
0
 10
13.675003
 20
0.934006
 11
15.875015
 21
0.934006
  0
LINE
  8
0
 10
17.741043
 20
8.199997
 11
17.741043
 21
2.800003
  0
LINE
  8
0
 10
13.675003
 20
10.065994
 11
15.875015
 21
10.065994
  0
LINE
  8
0
 10
11.808975
 20
-16.300003
 11
11.808975
 21
-21.699966
  0
LINE
  8
0
 10
13.675003
 20
-23.565994
 11
15.875015
 21
-23.565994
  0
LINE
  8
0
 10
17.741043
 20
-16.300003
 11
17.741043
 21
-21.699966
  0
LINE
  8
0
 10
13.675003
 20
-14.434006
 11
15.875015
 21
-14.434006
  0
LINE
  8
0
 10
11.808975
 20
-40.799973
 11
11.808975
 21
-46.199966
  0
LINE
  8
0
 10
13.675003
 20
-48.065994
 11
15.875015
 21
-48.065994
  0
LINE
  8
0
 10
17.741043
 20
-40.799973
 11
17.741043
 21
-46.199966
  0
LINE
  8
0
 10
13.675003
 20
-38.934006
 11
15.875015
 21
-38.934006
  0
LINE
  8
0
 10
20.925003
 20
48.000015
 11
20.925003
 21
36.999985
  0
LINE
  8
0
 10
-29.774979
 20
48.000015
 11
-29.774979
 21
36.999985
  0
LINE
  8
0
 10
-20.425003
 20
-62.999985
 11
-26.925003
 21
-62.999985
  0
LINE
  8
0
 10
-20.425003
 20
36.999985
 11
-29.924973
 21
36.999985
  0
LINE
  8
0
 10
11.574997
 20
36.999985
 11
-20.425003
 21
36.999985
  0
LINE
  8
0
 10
-26.774979
 20
51.000015
 11
-20.425003
 21
51.000015
  0
LINE
  8
0
 10
11.574997
 20
51.000015
 11
17.925003
 21
51.000015
  0
LINE
  8
0
 10
-15.175003
 20
82.400040
 11
23.824997
 21
82.400040
  0
LINE
  8
0
 10
-18.175003
 20
76.400040
 11
9.324997
 21
76.400040
  0
LINE
  8
0
 10
-18.175003
 20
73.400040
 11
9.324997
 21
73.400040
  0
LINE
  8
0
 10
-18.175003
 20
71.900040
 11
9.324997
 21
71.900040
  0
LINE
  8
0
 10
-18.175003
 20
70.400040
 11
9.324997
 21
70.400040
  0
LINE
  8
0
 10
-18.175003
 20
68.900040
 11
9.324997
 21
68.900040
  0
LINE
  8
0
 10
-18.175003
 20
65.900040
 11
9.324997
 21
65.900040
  0
LINE
  8
0
 10
-18.175003
 20
64.400040
 11
9.324997
 21
64.400040
  0
LINE
  8
0
 10
-18.175003
 20
62.900040
 11
9.324997
 21
62.900040
  0
LINE
  8
0
 10
-18.175003
 20
61.400040
 11
-6.574997
 21
61.400040
  0
LINE
  8
0
 10
-18.175003
 20
79.400040
 11
-18.175003
 21
60.904739
  0
LINE
  8
0
 10
9.324997
 20
79.400040
 11
9.324997
 21
60.904739
  0
LINE
  8
0
 10
-18.175003
 20
77.900040
 11
9.324997
 21
77.900040
  0
LINE
  8
0
 10
13.712418
 20
71.150040
 11
39.994553
 21
71.150040
  0
LINE
  8
0
 10
10.896622
 20
59.900040
 11
23.824997
 21
59.900040
  0
LINE
  8
0
 10
24.824997
 20
81.400040
 11
24.824997
 21
60.900040
  0
LINE
  8
0
 10
-2.223526
 20
61.400040
 11
9.324997
 21
61.400040
  0
LINE
  8
0
 10
-17.425003
 20
61.000015
 11
8.574997
 21
61.000015
  0
LINE
  8
0
 10
34.825119
 20
61.623795
 11
34.825119
 21
80.676346
  0
LINE
  8
0
 10
28.825119
 20
61.623795
 11
28.825119
 21
80.676346
  0
LINE
  8
0
 10
24.824997
 20
79.650070
 11
28.825119
 21
79.650070
  0
LINE
  8
0
 10
24.824997
 20
62.650070
 11
28.825119
 21
62.650070
  0
LINE
  8
0
 10
28.825119
 20
69.050064
 11
34.825119
 21
69.050064
  0
LINE
  8
0
 10
28.825119
 20
68.800369
 11
34.825119
 21
68.800369
  0
LINE
  8
0
 10
28.825119
 20
64.346146
 11
34.825119
 21
64.346146
  0
LINE
  8
0
 10
28.825119
 20
63.723770
 11
34.825119
 21
63.723770
  0
LINE
  8
0
 10
28.825119
 20
61.623795
 11
34.825119
 21
61.623795
  0
LINE
  8
0
 10
28.825119
 20
73.250076
 11
34.825119
 21
73.250076
  0
LINE
  8
0
 10
28.825119
 20
73.499771
 11
34.825119
 21
73.499771
  0
LINE
  8
0
 10
28.825119
 20
77.953995
 11
34.825119
 21
77.953995
  0
LINE
  8
0
 10
28.825119
 20
78.576370
 11
34.825119
 21
78.576370
  0
LINE
  8
0
 10
28.825119
 20
80.676346
 11
34.825119
 21
80.676346
  0
LINE
  8
0
 10
28.825119
 20
71.150070
 11
34.825119
 21
71.150070
  0
LINE
  8
0
 10
24.824997
 20
78.150070
 11
28.825119
 21
78.150070
  0
LINE
  8
0
 10
24.824997
 20
64.150070
 11
28.825119
 21
64.150070
  0
LINE
  8
0
 10
11.574997
 20
-13.000000
 11
-20.425003
 21
-13.000000
  0
LINE
  8
0
 10
-17.425003
 20
-87.000015
 11
8.574997
 21
-87.000015
  0
LINE
  8
0
 10
-20.425003
 20
-62.999985
 11
11.574997
 21
-62.999985
  0
ARC
  8
0
 10
8.574997
 20
58.000015
 40
3.000000
 50
0.000000
 51
90.000000
  0
ARC
  8
0
 10
-17.425003
 20
58.000015
 40
3.000000
 50
90.000000
 51
180.000000
  0
ARC
  8
0
 10
-0.425003
 20
10.000015
 40
2.000000
 50
0.000000
 51
90.000000
  0
ARC
  8
0
 10
-8.425003
 20
10.000015
 40
2.000000
 50
90.000000
 51
180.000000
  0
ARC
  8
0
 10
-8.424973
 20
-47.999985
 40
2.000000
 50
180.000000
 51
270.000000
  0
ARC
  8
0
 10
-0.424973
 20
-47.999985
 40
2.000000
 50
270.000000
 51
0.000000
  0
ARC
  8
0
 10
-0.425003
 20
10.000015
 40
1.000000
 50
0.000000
 51
90.000000
  0
ARC
  8
0
 10
-8.425003
 20
10.000015
 40
1.000000
 50
90.000000
 51
180.000000
  0
ARC
  8
0
 10
-8.424973
 20
-47.999985
 40
1.000000
 50
180.000000
 51
270.000000
  0
ARC
  8
0
 10
-0.424973
 20
-47.999985
 40
1.000000
 50
270.000000
 51
0.000000
  0
CIRCLE
  8
0
 10
8.074997
 20
-33.999985
 40
2.500000
  0
ARC
  8
0
 10
8.074997
 20
-33.999985
 40
3.000000
 50
90.000000
 51
270.000000
  0
ARC
  8
0
 10
-16.925003
 20
-33.999985
 40
3.000000
 50
270.000000
 51
90.000000
  0
CIRCLE
  8
0
 10
8.074997
 20
-33.999985
 40
2.500000
  0
ARC
  8
0
 10
8.074997
 20
-3.999985
 40
3.000000
 50
90.000000
 51
270.000000
  0
CIRCLE
  8
0
 10
8.074997
 20
-3.999985
 40
2.500000
  0
ARC
  8
0
 10
-16.925003
 20
-3.999985
 40
3.000000
 50
270.000061
 51
90.000038
  0
CIRCLE
  8
0
 10
-16.925003
 20
-3.999985
 40
2.500000
  0
CIRCLE
  8
0
 10
-16.925003
 20
-33.999985
 40
2.500000
  0
CIRCLE
  8
0
 10
-16.925003
 20
-3.999985
 40
2.500000
  0
CIRCLE
  8
0
 10
8.074997
 20
-3.999985
 40
2.500000
  0
ARC
  8
0
 10
-24.724991
 20
-3.800003
 40
1.865997
 50
89.999939
 51
179.999878
  0
ARC
  8
0
 10
15.875015
 20
-46.199966
 40
1.865997
 50
270.000000
 51
0.000000
  0
ARC
  8
0
 10
15.875015
 20
-40.799973
 40
1.865997
 50
0.000000
 51
90.000000
  0
ARC
  8
0
 10
-24.724991
 20
-28.799973
 40
1.865997
 50
89.999939
 51
179.999878
  0
ARC
  8
0
 10
-22.524979
 20
-28.799973
 40
1.865997
 50
0.000059
 51
90.000061
  0
ARC
  8
0
 10
-22.524979
 20
-34.199966
 40
1.865997
 50
270.000000
 51
0.000000
  0
ARC
  8
0
 10
13.675003
 20
2.800003
 40
1.865997
 50
180.000000
 51
270.000000
  0
ARC
  8
0
 10
15.875015
 20
2.800003
 40
1.865997
 50
270.000000
 51
0.000000
  0
ARC
  8
0
 10
13.675034
 20
8.199997
 40
1.865997
 50
89.999886
 51
179.999878
  0
ARC
  8
0
 10
13.675003
 20
-40.799973
 40
1.865997
 50
89.999886
 51
179.999878
  0
ARC
  8
0
 10
13.675003
 20
-46.199966
 40
1.865997
 50
180.000000
 51
270.000000
  0
ARC
  8
0
 10
13.675003
 20
-16.300003
 40
1.865997
 50
89.999886
 51
179.999878
  0
ARC
  8
0
 10
15.875015
 20
-16.300003
 40
1.865997
 50
0.000117
 51
90.000000
  0
ARC
  8
0
 10
-22.524979
 20
-9.199997
 40
1.865997
 50
270.000000
 51
0.000000
  0
ARC
  8
0
 10
-24.724991
 20
-9.199997
 40
1.865997
 50
180.000000
 51
269.999939
  0
ARC
  8
0
 10
15.875015
 20
8.199997
 40
1.865997
 50
0.000117
 51
90.000000
  0
ARC
  8
0
 10
13.675003
 20
-21.699966
 40
1.865997
 50
179.999939
 51
270.000000
  0
ARC
  8
0
 10
-22.524979
 20
-3.800003
 40
1.865997
 50
0.000117
 51
90.000061
  0
ARC
  8
0
 10
15.875015
 20
-21.699966
 40
1.865997
 50
270.000000
 51
0.000000
  0
ARC
  8
0
 10
-24.724991
 20
-34.199966
 40
1.865997
 50
180.000000
 51
269.999939
  0
ARC
  8
0
 10
18.074997
 20
-59.999985
 40
3.000000
 50
270.000000
 51
0.000000
  0
ARC
  8
0
 10
-26.925003
 20
-59.999985
 40
3.000000
 50
180.000000
 51
270.000000
  0
ARC
  8
0
 10
16.575027
 20
24.000015
 40
5.000000
 50
90.000000
 51
270.000000
  0
CIRCLE
  8
0
 10
16.575027
 20
24.000015
 40
2.750000
  0
CIRCLE
  8
0
 10
-25.425003
 20
-49.999985
 40
2.750000
  0
ARC
  8
0
 10
-25.425003
 20
-49.999985
 40
5.000000
 50
270.000031
 51
89.999977
  0
ARC
  8
0
 10
20.075027
 20
18.000015
 40
1.000000
 50
0.000000
 51
90.000000
  0
ARC
  8
0
 10
20.075027
 20
30.000015
 40
1.000000
 50
270.000000
 51
0.000000
  0
ARC
  8
0
 10
-28.925003
 20
-43.999985
 40
1.000000
 50
180.000000
 51
270.000000
  0
ARC
  8
0
 10
-28.925003
 20
-55.999985
 40
1.000000
 50
90.000000
 51
180.000000
  0
ARC
  8
0
 10
17.925003
 20
48.000015
 40
3.000000
 50
0.000000
 51
90.000000
  0
ARC
  8
0
 10
-26.774979
 20
48.000015
 40
3.000000
 50
90.000000
 51
180.000000
  0
ARC
  8
0
 10
-15.175003
 20
79.400040
 40
3.000000
 50
89.999985
 51
180.000000
  0
ARC
  8
0
 10
6.324997
 20
79.400040
 40
3.000000
 50
0.000000
 51
90.000000
  0
ARC
  8
0
 10
23.824997
 20
81.400040
 40
1.000000
 50
0.000000
 51
90.000000
  0
ARC
  8
0
 10
23.824997
 20
60.900040
 40
1.000000
 50
270.000000
 51
0.000000
  0
ARC
  8
0
 10
-17.425003
 20
-84.000015
 40
3.000000
 50
180.000000
 51
270.000000
  0
ARC
  8
0
 10
8.574997
 20
-84.000015
 40
3.000000
 50
270.000000
 51
0.000000
  0
TEXT
  8
0
 10
-14.217977
 20
-48.119987
 40
3.200000
  1
B
 50
180.000000
 41
1.052632
 51
0.000000
  7
STANDARD
  0
TEXT
  8
0
 10
5.368003
 20
10.120015
 40
3.200000
  1
A
 50
0.000000
 41
1.052632
 51
0.000000
  7
STANDARD
  0
TEXT
  8
0
 10
15.215008
 20
3.921516
 40
1.599999
  1
R1
 50
90.000000
 41
1.052632
 51
0.000000
  7
STANDARD
  0
TEXT
  8
0
 10
15.215008
 20
-45.078484
 40
1.599999
  1
R2
 50
90.000000
 41
1.052632
 51
0.000000
  7
STANDARD
  0
TEXT
  8
0
 10
-24.064983
 20
-30.721485
 40
1.599999
  1
B
 50
270.000000
 41
1.052632
 51
0.000000
  7
STANDARD
  0
TEXT
  8
0
 10
15.215008
 20
-19.778484
 40
1.599999
  1
P
 50
90.000000
 41
1.052632
 51
0.000000
  7
STANDARD
  0
TEXT
  8
0
 10
-24.064983
 20
-5.721485
 40
1.599999
  1
A
 50
270.000000
 41
1.052632
 51
0.000000
  7
STANDARD
  0
POINT
  8
0
 10
-25.425003
 20
178.599960
  0
POINT
  8
0
 10
16.574997
 20
178.599960
  0
LINE
  8
0
 10
8.074997
 20
134.999985
 11
8.074997
 21
143.999985
  0
LINE
  8
0
 10
10.075058
 20
87.999985
 11
-18.924942
 21
87.999985
  0
LINE
  8
0
 10
11.574997
 20
142.999985
 11
-20.425003
 21
142.999985
  0
LINE
  8
0
 10
11.575027
 20
97.999985
 11
-20.424973
 21
97.999985
  0
LINE
  8
0
 10
11.575027
 20
127.999985
 11
-20.424973
 21
127.999985
  0
LINE
  8
0
 10
-20.425003
 20
89.499954
 11
-20.425003
 21
143.599960
  0
LINE
  8
0
 10
11.574997
 20
89.499985
 11
11.574997
 21
143.599991
  0
LINE
  8
0
 10
11.575027
 20
136.499985
 11
8.075027
 21
136.499985
  0
LINE
  8
0
 10
5.074997
 20
139.499985
 11
5.074997
 21
142.999985
  0
LINE
  8
0
 10
12.575027
 20
139.499985
 11
3.575027
 21
139.499985
  0
LINE
  8
0
 10
-0.924973
 20
132.099960
 11
-7.924973
 21
132.099960
  0
LINE
  8
0
 10
-16.925003
 20
134.999954
 11
-16.925003
 21
143.999954
  0
LINE
  8
0
 10
-20.424973
 20
136.499985
 11
-16.924973
 21
136.499985
  0
LINE
  8
0
 10
-13.925003
 20
139.499985
 11
-13.925003
 21
142.999985
  0
LINE
  8
0
 10
3.575027
 20
139.499985
 11
12.575027
 21
139.499985
  0
LINE
  8
0
 10
11.575027
 20
99.399979
 11
-20.424973
 21
99.399979
  0
LINE
  8
0
 10
11.575027
 20
101.399979
 11
-20.424973
 21
101.399979
  0
LINE
  8
0
 10
11.575027
 20
102.999985
 11
-4.424973
 21
102.999985
  0
LINE
  8
0
 10
11.575027
 20
104.999985
 11
-4.424973
 21
104.999985
  0
LINE
  8
0
 10
11.575027
 20
106.599960
 11
-20.424973
 21
106.599960
  0
LINE
  8
0
 10
11.575027
 20
108.599960
 11
-20.424973
 21
108.599960
  0
LINE
  8
0
 10
11.575027
 20
110.199966
 11
-20.424973
 21
110.199966
  0
LINE
  8
0
 10
11.575027
 20
112.199966
 11
-20.424973
 21
112.199966
  0
LINE
  8
0
 10
11.575027
 20
113.799973
 11
-20.424973
 21
113.799973
  0
LINE
  8
0
 10
11.575027
 20
115.799973
 11
-20.424973
 21
115.799973
  0
LINE
  8
0
 10
11.575027
 20
117.399979
 11
-20.424973
 21
117.399979
  0
LINE
  8
0
 10
11.575027
 20
119.399979
 11
-20.424973
 21
119.399979
  0
LINE
  8
0
 10
11.575027
 20
120.999954
 11
-20.424973
 21
120.999954
  0
LINE
  8
0
 10
11.575027
 20
122.999954
 11
-20.424973
 21
122.999954
  0
LINE
  8
0
 10
11.575027
 20
124.599960
 11
-20.424973
 21
124.599960
  0
LINE
  8
0
 10
11.575027
 20
126.599960
 11
-20.424973
 21
126.599960
  0
LINE
  8
0
 10
-17.425003
 20
102.999954
 11
-17.425003
 21
104.999954
  0
LINE
  8
0
 10
-17.424973
 20
102.999985
 11
-20.424973
 21
102.999985
  0
LINE
  8
0
 10
-17.424973
 20
104.999985
 11
-20.424973
 21
104.999985
  0
LINE
  8
0
 10
-4.425003
 20
102.999985
 11
-4.425003
 21
104.999985
  0
LINE
  8
0
 10
6.085037
 20
139.299973
 11
7.875015
 21
139.299973
  0
LINE
  8
0
 10
6.085037
 20
139.699966
 11
7.875015
 21
139.699966
  0
LINE
  8
0
 10
7.875015
 20
137.510025
 11
7.875015
 21
139.300003
  0
LINE
  8
0
 10
8.275009
 20
137.510025
 11
8.275009
 21
139.300003
  0
LINE
  8
0
 10
8.275009
 20
139.299973
 11
10.064987
 21
139.299973
  0
LINE
  8
0
 10
8.275009
 20
139.699997
 11
8.275009
 21
141.489975
  0
LINE
  8
0
 10
7.875015
 20
139.699997
 11
7.875015
 21
141.489975
  0
LINE
  8
0
 10
8.275009
 20
139.699966
 11
10.064987
 21
139.699966
  0
LINE
  8
0
 10
-21.424973
 20
139.499985
 11
-12.424973
 21
139.499985
  0
LINE
  8
0
 10
-18.914963
 20
139.299973
 11
-17.124985
 21
139.299973
  0
LINE
  8
0
 10
-18.914963
 20
139.699966
 11
-17.124985
 21
139.699966
  0
LINE
  8
0
 10
-17.124985
 20
137.509995
 11
-17.124985
 21
139.299973
  0
LINE
  8
0
 10
-16.724991
 20
137.509995
 11
-16.724991
 21
139.299973
  0
LINE
  8
0
 10
-16.724991
 20
139.299973
 11
-14.935013
 21
139.299973
  0
LINE
  8
0
 10
-16.724991
 20
139.699966
 11
-16.724991
 21
141.489944
  0
LINE
  8
0
 10
-17.124985
 20
139.699966
 11
-17.124985
 21
141.489944
  0
LINE
  8
0
 10
-16.724991
 20
139.699966
 11
-14.935013
 21
139.699966
  0
LINE
  8
0
 10
21.074997
 20
178.599960
 11
-29.925003
 21
178.599960
  0
LINE
  8
0
 10
18.074997
 20
144.599960
 11
-26.925003
 21
144.599960
  0
LINE
  8
0
 10
21.074997
 20
147.599960
 11
21.074997
 21
150.099960
  0
LINE
  8
0
 10
-29.925003
 20
147.599960
 11
-29.925003
 21
178.599960
  0
LINE
  8
0
 10
11.574997
 20
143.599960
 11
11.574997
 21
144.599960
  0
LINE
  8
0
 10
-20.425003
 20
143.599960
 11
-20.425003
 21
144.599960
  0
LINE
  8
0
 10
-4.425003
 20
184.763931
 11
-4.425003
 21
81.292282
  0
LINE
  8
0
 10
-27.925003
 20
150.599960
 11
-19.925003
 21
150.599960
  0
LINE
  8
0
 10
-27.925003
 20
172.099960
 11
-19.925003
 21
172.099960
  0
LINE
  8
0
 10
-23.925003
 20
154.599960
 11
-23.925003
 21
146.599960
  0
LINE
  8
0
 10
-23.925003
 20
176.099960
 11
-23.925003
 21
168.099960
  0
LINE
  8
0
 10
34.825119
 20
150.349991
 11
34.825119
 21
172.349991
  0
LINE
  8
0
 10
28.825119
 20
150.349991
 11
28.825119
 21
172.349991
  0
LINE
  8
0
 10
28.825119
 20
172.349991
 11
34.825119
 21
172.349991
  0
LINE
  8
0
 10
28.825119
 20
150.349991
 11
34.825119
 21
150.349991
  0
LINE
  8
0
 10
24.824997
 20
169.849991
 11
28.825119
 21
169.849991
  0
LINE
  8
0
 10
24.824997
 20
152.849991
 11
28.825119
 21
152.849991
  0
LINE
  8
0
 10
28.825119
 20
166.849991
 11
34.825119
 21
166.849991
  0
LINE
  8
0
 10
28.825119
 20
155.849991
 11
34.825119
 21
155.849991
  0
LINE
  8
0
 10
28.825119
 20
152.214676
 11
34.825119
 21
152.214676
  0
LINE
  8
0
 10
28.825119
 20
151.562424
 11
34.825119
 21
151.562424
  0
LINE
  8
0
 10
28.825119
 20
154.637558
 11
34.825119
 21
154.637558
  0
LINE
  8
0
 10
28.825119
 20
158.274857
 11
34.825119
 21
158.274857
  0
LINE
  8
0
 10
28.825119
 20
158.700577
 11
34.825119
 21
158.700577
  0
LINE
  8
0
 10
28.825119
 20
170.485306
 11
34.825119
 21
170.485306
  0
LINE
  8
0
 10
28.825119
 20
171.137558
 11
34.825119
 21
171.137558
  0
LINE
  8
0
 10
28.825119
 20
168.062424
 11
34.825119
 21
168.062424
  0
LINE
  8
0
 10
28.825119
 20
164.425125
 11
34.825119
 21
164.425125
  0
LINE
  8
0
 10
28.825119
 20
163.999405
 11
34.825119
 21
163.999405
  0
LINE
  8
0
 10
-18.175003
 20
172.099960
 11
-18.175003
 21
150.599960
  0
LINE
  8
0
 10
9.324997
 20
172.099960
 11
9.324997
 21
150.599960
  0
LINE
  8
0
 10
-15.175003
 20
147.599960
 11
6.324997
 21
147.599960
  0
LINE
  8
0
 10
-15.175003
 20
175.099960
 11
6.324997
 21
175.099960
  0
LINE
  8
0
 10
-5.697796
 20
160.501450
 11
-5.273548
 21
160.925705
  0
LINE
  8
0
 10
-5.273523
 20
160.077179
 11
-4.849277
 21
160.501434
  0
LINE
  8
0
 10
-5.697765
 20
160.501465
 11
-5.273497
 21
160.077194
  0
LINE
  8
0
 10
-3.576447
 20
162.622787
 11
-3.152178
 21
162.198517
  0
LINE
  8
0
 10
-6.392117
 20
162.892807
 11
-5.273537
 21
161.774231
  0
LINE
  8
0
 10
-5.967819
 20
163.317108
 11
-4.849241
 21
162.198532
  0
LINE
  8
0
 10
-4.000742
 20
162.198502
 11
-3.576475
 21
162.622772
  0
LINE
  8
0
 10
-3.576471
 20
161.774231
 11
-3.152203
 21
162.198502
  0
LINE
  8
0
 10
-4.000732
 20
160.501419
 11
-2.882132
 21
159.382828
  0
LINE
  8
0
 10
-3.576437
 20
160.925735
 11
-2.457836
 21
159.807129
  0
LINE
  8
0
 10
9.324997
 20
172.599960
 11
23.824997
 21
172.599960
  0
LINE
  8
0
 10
9.283035
 20
150.099960
 11
23.824997
 21
150.099960
  0
LINE
  8
0
 10
24.824997
 20
171.599960
 11
24.824997
 21
151.099960
  0
LINE
  8
0
 10
15.923538
 20
149.327164
 11
16.347805
 21
149.751434
  0
LINE
  8
0
 10
13.802200
 20
149.751434
 11
14.150723
 21
150.099960
  0
LINE
  8
0
 10
14.226456
 20
149.327179
 11
14.650726
 21
149.751434
  0
LINE
  8
0
 10
13.802223
 20
149.751450
 11
14.226490
 21
149.327179
  0
LINE
  8
0
 10
15.499283
 20
149.751434
 11
15.923553
 21
149.327164
  0
LINE
  8
0
 10
15.999294
 20
150.099976
 11
16.347820
 21
149.751450
  0
LINE
  8
0
 10
13.802197
 20
172.948502
 11
14.226467
 21
173.372772
  0
LINE
  8
0
 10
15.923561
 20
173.372787
 11
16.347828
 21
172.948517
  0
LINE
  8
0
 10
13.802200
 20
172.948502
 11
14.150723
 21
172.599976
  0
LINE
  8
0
 10
14.226471
 20
173.372772
 11
14.650738
 21
172.948502
  0
LINE
  8
0
 10
15.499260
 20
172.948486
 11
15.923527
 21
173.372757
  0
LINE
  8
0
 10
15.999271
 20
172.599960
 11
16.347797
 21
172.948486
  0
LINE
  8
0
 10
21.074997
 20
172.599960
 11
21.074997
 21
178.599960
  0
LINE
  8
0
 10
24.824997
 20
154.349991
 11
28.825119
 21
154.349991
  0
LINE
  8
0
 10
24.824997
 20
168.349991
 11
28.825119
 21
168.349991
  0
LINE
  8
0
 10
15.074997
 20
176.099960
 11
15.074997
 21
172.599960
  0
LINE
  8
0
 10
15.074997
 20
150.099960
 11
15.074997
 21
146.599960
  0
LINE
  8
0
 10
-25.197823
 20
172.948502
 11
-24.773554
 21
173.372772
  0
LINE
  8
0
 10
-23.076485
 20
170.827164
 11
-22.652216
 21
171.251434
  0
LINE
  8
0
 10
-25.197803
 20
171.251450
 11
-24.773535
 21
171.675720
  0
LINE
  8
0
 10
-24.773552
 20
170.827179
 11
-24.349283
 21
171.251450
  0
LINE
  8
0
 10
-25.197784
 20
171.251450
 11
-24.773516
 21
170.827179
  0
LINE
  8
0
 10
-23.076466
 20
173.372757
 11
-22.652197
 21
172.948486
  0
LINE
  8
0
 10
-25.197783
 20
172.948502
 11
-24.773520
 21
172.524246
  0
LINE
  8
0
 10
-24.773518
 20
173.372757
 11
-24.349255
 21
172.948486
  0
LINE
  8
0
 10
-23.500751
 20
172.948502
 11
-23.076483
 21
173.372772
  0
LINE
  8
0
 10
-23.076498
 20
172.524231
 11
-22.652229
 21
172.948502
  0
LINE
  8
0
 10
-23.500727
 20
171.251450
 11
-23.076464
 21
170.827179
  0
LINE
  8
0
 10
-23.076460
 20
171.675690
 11
-22.652197
 21
171.251434
  0
LINE
  8
0
 10
-25.197811
 20
151.448486
 11
-24.773542
 21
151.872757
  0
LINE
  8
0
 10
-23.076496
 20
149.327179
 11
-22.652227
 21
149.751450
  0
LINE
  8
0
 10
-25.197813
 20
149.751419
 11
-24.773544
 21
150.175690
  0
LINE
  8
0
 10
-24.773548
 20
149.327179
 11
-24.349279
 21
149.751450
  0
LINE
  8
0
 10
-25.197769
 20
149.751465
 11
-24.773500
 21
149.327194
  0
LINE
  8
0
 10
-23.076454
 20
151.872772
 11
-22.652187
 21
151.448502
  0
LINE
  8
0
 10
-25.197769
 20
151.448517
 11
-24.773506
 21
151.024261
  0
LINE
  8
0
 10
-24.773506
 20
151.872772
 11
-24.349243
 21
151.448502
  0
LINE
  8
0
 10
-23.500761
 20
151.448471
 11
-23.076492
 21
151.872742
  0
LINE
  8
0
 10
-23.076496
 20
151.024231
 11
-22.652227
 21
151.448502
  0
LINE
  8
0
 10
-23.500711
 20
149.751465
 11
-23.076448
 21
149.327194
  0
LINE
  8
0
 10
-23.076450
 20
150.175720
 11
-22.652187
 21
149.751450
  0
ARC
  8
0
 10
-23.925003
 20
149.327164
 40
0.600005
 50
45.000385
 51
134.999481
  0
ARC
  8
0
 10
-18.924942
 20
89.499954
 40
1.500000
 50
180.000000
 51
270.000000
  0
ARC
  8
0
 10
10.075058
 20
89.499985
 40
1.500000
 50
270.000000
 51
0.000000
  0
CIRCLE
  8
0
 10
8.075027
 20
139.499985
 40
2.500000
  0
ARC
  8
0
 10
8.075027
 20
139.499985
 40
3.000000
 50
180.000000
 51
270.000000
  0
CIRCLE
  8
0
 10
-4.424973
 20
132.099960
 40
2.150000
  0
CIRCLE
  8
0
 10
-4.424973
 20
132.099960
 40
1.500000
  0
CIRCLE
  8
0
 10
-16.924973
 20
139.499954
 40
2.500000
  0
ARC
  8
0
 10
-16.924973
 20
139.499954
 40
3.000000
 50
270.000000
 51
0.000000
  0
ARC
  8
0
 10
-16.924973
 20
139.499954
 40
2.000000
 50
264.260864
 51
275.739258
  0
ARC
  8
0
 10
8.075027
 20
139.499985
 40
2.000000
 50
354.260925
 51
5.739083
  0
ARC
  8
0
 10
8.075027
 20
139.499985
 40
2.000000
 50
84.260811
 51
95.739189
  0
ARC
  8
0
 10
8.075027
 20
139.499985
 40
2.000000
 50
174.260910
 51
185.739090
  0
ARC
  8
0
 10
-16.924973
 20
139.499954
 40
2.000000
 50
84.260811
 51
95.739136
  0
ARC
  8
0
 10
-16.924973
 20
139.499954
 40
2.000000
 50
354.260925
 51
5.739083
  0
ARC
  8
0
 10
-16.924973
 20
139.499954
 40
2.000000
 50
174.260910
 51
185.739090
  0
ARC
  8
0
 10
18.074997
 20
147.599960
 40
3.000000
 50
270.000000
 51
0.000000
  0
ARC
  8
0
 10
-26.925003
 20
147.599960
 40
3.000000
 50
180.000000
 51
269.999939
  0
ARC
  8
0
 10
6.324997
 20
172.099960
 40
3.000000
 50
0.000000
 51
90.000000
  0
ARC
  8
0
 10
6.324997
 20
150.599960
 40
3.000000
 50
270.000000
 51
0.000000
  0
ARC
  8
0
 10
-15.175003
 20
150.599960
 40
3.000000
 50
180.000000
 51
270.000000
  0
ARC
  8
0
 10
-15.175003
 20
172.099960
 40
3.000000
 50
89.999985
 51
180.000000
  0
CIRCLE
  8
0
 10
-4.425003
 20
161.349960
 40
2.799999
  0
ARC
  8
0
 10
-4.425003
 20
162.622757
 40
0.600005
 50
225.000381
 51
314.999603
  0
ARC
  8
0
 10
-5.697800
 20
161.349960
 40
0.600005
 50
314.999603
 51
45.000385
  0
ARC
  8
0
 10
-3.152206
 20
161.349960
 40
0.600004
 50
134.999481
 51
225.000381
  0
ARC
  8
0
 10
-4.425003
 20
160.077164
 40
0.600005
 50
45.000385
 51
134.999481
  0
CIRCLE
  8
0
 10
-4.425003
 20
161.349960
 40
3.500000
  0
ARC
  8
0
 10
-4.425003
 20
161.349960
 40
2.499995
 50
128.108032
 51
141.892136
  0
ARC
  8
0
 10
-4.425003
 20
161.349960
 40
2.500002
 50
308.107666
 51
321.892059
  0
ARC
  8
0
 10
23.824997
 20
171.599960
 40
1.000000
 50
0.000000
 51
90.000000
  0
ARC
  8
0
 10
23.824997
 20
151.099960
 40
1.000000
 50
270.000000
 51
0.000000
  0
ARC
  8
0
 10
15.074997
 20
149.327164
 40
0.600004
 50
45.000515
 51
134.999481
  0
ARC
  8
0
 10
15.074997
 20
172.099960
 40
2.799998
 50
10.286568
 51
169.713425
  0
ARC
  8
0
 10
15.074997
 20
173.372757
 40
0.600004
 50
225.000519
 51
314.999481
  0
ARC
  8
0
 10
15.074997
 20
150.599960
 40
2.999999
 50
189.594070
 51
350.405914
  0
ARC
  8
0
 10
8.075027
 20
139.499985
 40
2.000000
 50
264.260803
 51
275.739197
  0
CIRCLE
  8
0
 10
-23.925003
 20
172.099960
 40
2.799999
  0
ARC
  8
0
 10
-23.925003
 20
173.372757
 40
0.600005
 50
225.000381
 51
314.999603
  0
ARC
  8
0
 10
-25.197792
 20
172.099960
 40
0.600005
 50
314.999603
 51
45.000385
  0
ARC
  8
0
 10
-22.652214
 20
172.099960
 40
0.600004
 50
134.999481
 51
225.000381
  0
ARC
  8
0
 10
-23.925003
 20
170.827164
 40
0.600005
 50
45.000385
 51
134.999481
  0
CIRCLE
  8
0
 10
-23.925003
 20
150.599960
 40
2.799999
  0
ARC
  8
0
 10
-23.925003
 20
151.872757
 40
0.600005
 50
225.000381
 51
314.999603
  0
ARC
  8
0
 10
-25.197792
 20
150.599960
 40
0.600005
 50
314.999603
 51
45.000385
  0
ARC
  8
0
 10
-22.652214
 20
150.599960
 40
0.600004
 50
134.999481
 51
225.000381
  0
TEXT
  8
0
 10
-7.968401
 20
104.439949
 40
1.599999
  1
DC24V
 50
180.000000
 41
0.798236
 51
0.000000
  7
STANDARD
  0
POINT
  8
0
 10
-185.425003
 20
-49.999985
  0
POINT
  8
0
 10
-94.824997
 20
-49.999985
  0
LINE
  8
0
 10
-149.825027
 20
19.499985
 11
-150.424973
 21
19.499985
  0
LINE
  8
0
 10
-94.824997
 20
-85.500046
 11
-94.824997
 21
59.500015
  0
LINE
  8
0
 10
-94.825027
 20
-36.999985
 11
-124.825027
 21
-36.999985
  0
LINE
  8
0
 10
-94.825027
 20
-30.999985
 11
-124.825027
 21
-30.999985
  0
LINE
  8
0
 10
-124.824997
 20
-36.999954
 11
-124.824997
 21
-30.999954
  0
LINE
  8
0
 10
-120.824997
 20
-36.499954
 11
-120.824997
 21
-31.499954
  0
LINE
  8
0
 10
-94.824997
 20
-62.999985
 11
-149.824997
 21
-62.999985
  0
LINE
  8
0
 10
-94.825027
 20
36.999985
 11
-149.825027
 21
36.999985
  0
LINE
  8
0
 10
-94.825027
 20
16.999985
 11
-149.825027
 21
16.999985
  0
LINE
  8
0
 10
-104.824997
 20
-54.999954
 11
-104.824997
 21
17.000046
  0
LINE
  8
0
 10
-94.824997
 20
-54.999985
 11
-149.824997
 21
-54.999985
  0
LINE
  8
0
 10
-120.062485
 20
-33.999985
 11
-125.525650
 21
-33.999985
  0
LINE
  8
0
 10
-120.825027
 20
-31.499985
 11
-124.825027
 21
-31.499985
  0
LINE
  8
0
 10
-120.825027
 20
-36.499985
 11
-124.825027
 21
-36.499985
  0
LINE
  8
0
 10
-94.825027
 20
-1.000015
 11
-124.825027
 21
-1.000015
  0
LINE
  8
0
 10
-94.825027
 20
-7.000015
 11
-124.825027
 21
-7.000015
  0
LINE
  8
0
 10
-124.824997
 20
-0.999985
 11
-124.824997
 21
-6.999985
  0
LINE
  8
0
 10
-120.824997
 20
-1.499985
 11
-120.824997
 21
-6.499985
  0
LINE
  8
0
 10
-120.062485
 20
-4.000015
 11
-125.706314
 21
-4.000015
  0
LINE
  8
0
 10
-120.825027
 20
-6.500015
 11
-124.825027
 21
-6.500015
  0
LINE
  8
0
 10
-120.825027
 20
-1.500015
 11
-124.825027
 21
-1.500015
  0
LINE
  8
0
 10
-149.824997
 20
-85.500015
 11
-149.824997
 21
59.500015
  0
LINE
  8
0
 10
-146.324997
 20
55.920151
 11
-146.324997
 21
61.745865
  0
LINE
  8
0
 10
-143.325058
 20
56.999985
 11
-149.825058
 21
56.999985
  0
LINE
  8
0
 10
-145.325058
 20
59.999985
 11
-147.325058
 21
59.999985
  0
LINE
  8
0
 10
-143.324997
 20
57.000015
 11
-143.324997
 21
61.000015
  0
LINE
  8
0
 10
-148.824997
 20
57.000015
 11
-148.824997
 21
58.500015
  0
LINE
  8
0
 10
-143.824997
 20
57.000015
 11
-143.824997
 21
58.500015
  0
LINE
  8
0
 10
-143.825058
 20
57.999985
 11
-148.825058
 21
57.999985
  0
LINE
  8
0
 10
-141.074997
 20
61.000015
 11
-141.074997
 21
61.700027
  0
LINE
  8
0
 10
-136.774979
 20
61.000015
 11
-136.774979
 21
61.700027
  0
LINE
  8
0
 10
-136.775070
 20
61.699997
 11
-141.075058
 21
61.699997
  0
LINE
  8
0
 10
-96.325058
 20
60.999985
 11
-148.325058
 21
60.999985
  0
LINE
  8
0
 10
-106.224991
 20
61.000046
 11
-106.224991
 21
37.000046
  0
LINE
  8
0
 10
-108.224991
 20
61.000015
 11
-108.224991
 21
37.000015
  0
LINE
  8
0
 10
-109.824997
 20
61.000015
 11
-109.824997
 21
37.000015
  0
LINE
  8
0
 10
-111.824997
 20
61.000015
 11
-111.824997
 21
37.000015
  0
LINE
  8
0
 10
-113.425003
 20
61.000015
 11
-113.425003
 21
37.000015
  0
LINE
  8
0
 10
-115.425003
 20
61.000015
 11
-115.425003
 21
37.000015
  0
LINE
  8
0
 10
-117.024979
 20
61.000015
 11
-117.024979
 21
37.000015
  0
LINE
  8
0
 10
-119.024979
 20
61.000015
 11
-119.024979
 21
37.000015
  0
LINE
  8
0
 10
-120.624985
 20
61.000015
 11
-120.624985
 21
37.000015
  0
LINE
  8
0
 10
-122.624985
 20
61.000015
 11
-122.624985
 21
37.000015
  0
LINE
  8
0
 10
-124.224991
 20
61.000015
 11
-124.224991
 21
37.000015
  0
LINE
  8
0
 10
-126.224991
 20
61.000015
 11
-126.224991
 21
37.000015
  0
LINE
  8
0
 10
-127.824997
 20
61.000015
 11
-127.824997
 21
37.000015
  0
LINE
  8
0
 10
-129.824997
 20
61.000015
 11
-129.824997
 21
37.000015
  0
LINE
  8
0
 10
-131.425003
 20
61.000015
 11
-131.425003
 21
37.000015
  0
LINE
  8
0
 10
-133.425003
 20
61.000015
 11
-133.425003
 21
37.000015
  0
LINE
  8
0
 10
-104.824997
 20
61.000046
 11
-104.824997
 21
37.000046
  0
LINE
  8
0
 10
-134.824997
 20
61.000015
 11
-134.824997
 21
37.000015
  0
LINE
  8
0
 10
-146.125046
 20
58.999985
 11
-146.525070
 21
58.999985
  0
LINE
  8
0
 10
-146.125015
 20
59.000015
 11
-146.125015
 21
60.000015
  0
LINE
  8
0
 10
-146.524979
 20
59.000015
 11
-146.524979
 21
60.000015
  0
LINE
  8
0
 10
-159.425003
 20
-44.999954
 11
-159.425003
 21
-54.999954
  0
LINE
  8
0
 10
-152.425003
 20
-44.999985
 11
-159.425003
 21
-44.999985
  0
LINE
  8
0
 10
-152.425003
 20
-54.999985
 11
-159.425003
 21
-54.999985
  0
LINE
  8
0
 10
-146.117996
 20
-49.999985
 11
-163.630386
 21
-49.999985
  0
LINE
  8
0
 10
-154.425003
 20
-62.999985
 11
-185.425003
 21
-62.999985
  0
LINE
  8
0
 10
-170.525009
 20
-52.066025
 11
-168.324997
 21
-52.066025
  0
LINE
  8
0
 10
-172.391037
 20
-44.800003
 11
-172.391037
 21
-50.199966
  0
LINE
  8
0
 10
-166.458969
 20
-44.800003
 11
-166.458969
 21
-50.199966
  0
LINE
  8
0
 10
-170.525009
 20
-42.934036
 11
-168.324997
 21
-42.934036
  0
LINE
  8
0
 10
-151.425003
 20
36.999985
 11
-185.424942
 21
36.999985
  0
LINE
  8
0
 10
-151.425003
 20
48.000015
 11
-151.425003
 21
36.999985
  0
LINE
  8
0
 10
-150.424942
 20
19.499985
 11
-151.424942
 21
19.499985
  0
LINE
  8
0
 10
-172.391037
 20
12.199997
 11
-172.391037
 21
6.800003
  0
LINE
  8
0
 10
-170.525009
 20
4.933945
 11
-168.324997
 21
4.933945
  0
LINE
  8
0
 10
-166.458969
 20
12.199997
 11
-166.458969
 21
6.800003
  0
LINE
  8
0
 10
-170.525009
 20
14.065933
 11
-168.324997
 21
14.065933
  0
LINE
  8
0
 10
-185.425003
 20
37.000046
 11
-185.425003
 21
-62.999954
  0
LINE
  8
0
 10
-159.425003
 20
-31.499985
 11
-179.425003
 21
-31.499985
  0
LINE
  8
0
 10
-169.425003
 20
3.499985
 11
-169.425003
 21
-42.333321
  0
LINE
  8
0
 10
-184.625015
 20
49.500015
 11
-184.625015
 21
36.999985
  0
LINE
  8
0
 10
-154.425003
 20
51.000015
 11
-183.125015
 21
51.000015
  0
LINE
  8
0
 10
-151.425003
 20
36.999985
 11
-151.425003
 21
-59.999954
  0
LINE
  8
0
 10
-168.025009
 20
91.512985
 11
-168.025009
 21
44.899643
  0
LINE
  8
0
 10
-178.775009
 20
82.400040
 11
-157.275009
 21
82.400040
  0
LINE
  8
0
 10
-154.275009
 20
79.400040
 11
-154.275009
 21
51.900040
  0
LINE
  8
0
 10
-181.775009
 20
77.900040
 11
-176.025009
 21
77.900040
  0
LINE
  8
0
 10
-181.775009
 20
76.400040
 11
-176.025009
 21
76.400040
  0
LINE
  8
0
 10
-181.775009
 20
73.400040
 11
-176.025009
 21
73.400040
  0
LINE
  8
0
 10
-181.775009
 20
71.900040
 11
-176.025009
 21
71.900040
  0
LINE
  8
0
 10
-181.775009
 20
70.400040
 11
-176.025009
 21
70.400040
  0
LINE
  8
0
 10
-181.775009
 20
68.900040
 11
-176.025009
 21
68.900040
  0
LINE
  8
0
 10
-181.775009
 20
65.900040
 11
-176.025009
 21
65.900040
  0
LINE
  8
0
 10
-181.775009
 20
64.400040
 11
-176.025009
 21
64.400040
  0
LINE
  8
0
 10
-181.775009
 20
62.900040
 11
-176.025009
 21
62.900040
  0
LINE
  8
0
 10
-181.775009
 20
61.400040
 11
-176.025009
 21
61.400040
  0
LINE
  8
0
 10
-181.775009
 20
51.900040
 11
-154.275009
 21
51.900040
  0
LINE
  8
0
 10
-181.525009
 20
51.900040
 11
-181.525009
 21
51.000015
  0
LINE
  8
0
 10
-154.525009
 20
51.900040
 11
-154.525009
 21
51.000015
  0
LINE
  8
0
 10
-181.775009
 20
79.400040
 11
-181.775009
 21
51.900040
  0
LINE
  8
0
 10
-161.775009
 20
76.900040
 11
-161.775009
 21
62.400040
  0
LINE
  8
0
 10
-174.275009
 20
76.900040
 11
-174.275009
 21
62.400040
  0
LINE
  8
0
 10
-160.025009
 20
77.900040
 11
-160.025009
 21
76.400040
  0
LINE
  8
0
 10
-176.025009
 20
77.900040
 11
-176.025009
 21
76.400040
  0
LINE
  8
0
 10
-158.025009
 20
58.400040
 11
-158.025009
 21
54.400040
  0
LINE
  8
0
 10
-178.025009
 20
58.400040
 11
-178.025009
 21
54.400040
  0
LINE
  8
0
 10
-177.025009
 20
59.400040
 11
-159.025009
 21
59.400040
  0
LINE
  8
0
 10
-177.025009
 20
53.400040
 11
-159.025009
 21
53.400040
  0
LINE
  8
0
 10
-176.025009
 20
73.400040
 11
-176.025009
 21
71.900040
  0
LINE
  8
0
 10
-160.025009
 20
73.400040
 11
-160.025009
 21
71.900040
  0
LINE
  8
0
 10
-176.025009
 20
70.400040
 11
-176.025009
 21
68.900040
  0
LINE
  8
0
 10
-160.025009
 20
70.400040
 11
-160.025009
 21
68.900040
  0
LINE
  8
0
 10
-176.025009
 20
65.900040
 11
-176.025009
 21
64.400040
  0
LINE
  8
0
 10
-160.025009
 20
65.900040
 11
-160.025009
 21
64.400040
  0
LINE
  8
0
 10
-176.025009
 20
62.900040
 11
-176.025009
 21
61.400040
  0
LINE
  8
0
 10
-160.025009
 20
62.900040
 11
-160.025009
 21
61.400040
  0
LINE
  8
0
 10
-173.275009
 20
77.900040
 11
-162.775009
 21
77.900040
  0
LINE
  8
0
 10
-160.025009
 20
77.900040
 11
-154.275009
 21
77.900040
  0
LINE
  8
0
 10
-173.275009
 20
61.400040
 11
-162.775009
 21
61.400040
  0
LINE
  8
0
 10
-160.025009
 20
61.400040
 11
-154.275009
 21
61.400040
  0
LINE
  8
0
 10
-160.025009
 20
76.400040
 11
-154.275009
 21
76.400040
  0
LINE
  8
0
 10
-160.025009
 20
73.400040
 11
-154.275009
 21
73.400040
  0
LINE
  8
0
 10
-160.025009
 20
71.900040
 11
-154.275009
 21
71.900040
  0
LINE
  8
0
 10
-160.025009
 20
70.400040
 11
-154.275009
 21
70.400040
  0
LINE
  8
0
 10
-160.025009
 20
68.900040
 11
-154.275009
 21
68.900040
  0
LINE
  8
0
 10
-160.025009
 20
65.900040
 11
-154.275009
 21
65.900040
  0
LINE
  8
0
 10
-160.025009
 20
62.900040
 11
-154.275009
 21
62.900040
  0
LINE
  8
0
 10
-138.925064
 20
58.787125
 11
-138.925064
 21
64.612839
  0
LINE
  8
0
 10
-149.824997
 20
-57.499985
 11
-151.425003
 21
-57.499985
  0
LINE
  8
0
 10
-159.425003
 20
-6.500015
 11
-179.425003
 21
-6.500015
  0
LINE
  8
0
 10
-146.324997
 20
-81.920151
 11
-146.324997
 21
-87.745865
  0
LINE
  8
0
 10
-143.325058
 20
-82.999985
 11
-149.825058
 21
-82.999985
  0
LINE
  8
0
 10
-145.325058
 20
-85.999985
 11
-147.325058
 21
-85.999985
  0
LINE
  8
0
 10
-143.324997
 20
-83.000015
 11
-143.324997
 21
-87.000015
  0
LINE
  8
0
 10
-148.824997
 20
-83.000015
 11
-148.824997
 21
-84.500015
  0
LINE
  8
0
 10
-143.824997
 20
-83.000015
 11
-143.824997
 21
-84.500015
  0
LINE
  8
0
 10
-143.825058
 20
-83.999985
 11
-148.825058
 21
-83.999985
  0
LINE
  8
0
 10
-141.074997
 20
-87.000015
 11
-141.074997
 21
-87.700027
  0
LINE
  8
0
 10
-136.774979
 20
-87.000015
 11
-136.774979
 21
-87.700027
  0
LINE
  8
0
 10
-136.775070
 20
-87.699997
 11
-141.075058
 21
-87.699997
  0
LINE
  8
0
 10
-96.325058
 20
-86.999985
 11
-148.325058
 21
-86.999985
  0
LINE
  8
0
 10
-106.224991
 20
-87.000046
 11
-106.224991
 21
-63.000046
  0
LINE
  8
0
 10
-108.224991
 20
-87.000015
 11
-108.224991
 21
-63.000015
  0
LINE
  8
0
 10
-109.824997
 20
-87.000015
 11
-109.824997
 21
-63.000015
  0
LINE
  8
0
 10
-111.824997
 20
-87.000015
 11
-111.824997
 21
-63.000015
  0
LINE
  8
0
 10
-113.425003
 20
-87.000015
 11
-113.425003
 21
-63.000015
  0
LINE
  8
0
 10
-115.425003
 20
-87.000015
 11
-115.425003
 21
-63.000015
  0
LINE
  8
0
 10
-117.024979
 20
-87.000015
 11
-117.024979
 21
-63.000015
  0
LINE
  8
0
 10
-119.024979
 20
-87.000015
 11
-119.024979
 21
-63.000015
  0
LINE
  8
0
 10
-120.624985
 20
-87.000015
 11
-120.624985
 21
-63.000015
  0
LINE
  8
0
 10
-122.624985
 20
-87.000015
 11
-122.624985
 21
-63.000015
  0
LINE
  8
0
 10
-124.224991
 20
-87.000015
 11
-124.224991
 21
-63.000015
  0
LINE
  8
0
 10
-126.224991
 20
-87.000015
 11
-126.224991
 21
-63.000015
  0
LINE
  8
0
 10
-127.824997
 20
-87.000015
 11
-127.824997
 21
-63.000015
  0
LINE
  8
0
 10
-129.824997
 20
-87.000015
 11
-129.824997
 21
-63.000015
  0
LINE
  8
0
 10
-131.425003
 20
-87.000015
 11
-131.425003
 21
-63.000015
  0
LINE
  8
0
 10
-133.425003
 20
-87.000015
 11
-133.425003
 21
-63.000015
  0
LINE
  8
0
 10
-104.824997
 20
-87.000046
 11
-104.824997
 21
-63.000046
  0
LINE
  8
0
 10
-134.824997
 20
-87.000015
 11
-134.824997
 21
-63.000015
  0
LINE
  8
0
 10
-146.125046
 20
-84.999985
 11
-146.525070
 21
-84.999985
  0
LINE
  8
0
 10
-146.125015
 20
-85.000015
 11
-146.125015
 21
-86.000015
  0
LINE
  8
0
 10
-146.524979
 20
-85.000015
 11
-146.524979
 21
-86.000015
  0
LINE
  8
0
 10
-138.925064
 20
-84.787125
 11
-138.925064
 21
-90.612839
  0
ARC
  8
0
 10
-148.325058
 20
59.500015
 40
1.500000
 50
90.000000
 51
180.000000
  0
ARC
  8
0
 10
-145.325058
 20
58.500015
 40
1.500000
 50
0.000000
 51
90.000000
  0
ARC
  8
0
 10
-147.325058
 20
58.500015
 40
1.500000
 50
90.000000
 51
180.000000
  0
ARC
  8
0
 10
-96.325058
 20
59.500046
 40
1.500000
 50
0.000000
 51
90.000000
  0
ARC
  8
0
 10
-152.425003
 20
-43.999954
 40
1.000000
 50
270.000000
 51
0.000000
  0
ARC
  8
0
 10
-152.425003
 20
-55.999954
 40
1.000000
 50
0.000000
 51
90.000000
  0
ARC
  8
0
 10
-154.425003
 20
-59.999954
 40
3.000000
 50
270.000000
 51
0.000000
  0
ARC
  8
0
 10
-168.324997
 20
-50.199966
 40
1.865997
 50
270.000000
 51
0.000000
  0
ARC
  8
0
 10
-170.525009
 20
-50.199966
 40
1.865997
 50
179.999878
 51
270.000000
  0
ARC
  8
0
 10
-170.525009
 20
-44.800003
 40
1.865997
 50
90.000000
 51
179.999878
  0
ARC
  8
0
 10
-168.324997
 20
-44.800003
 40
1.865997
 50
0.000000
 51
90.000000
  0
ARC
  8
0
 10
-170.524948
 20
6.800003
 40
1.865997
 50
179.999878
 51
270.000000
  0
ARC
  8
0
 10
-168.324966
 20
6.800003
 40
1.865997
 50
270.000000
 51
0.000000
  0
ARC
  8
0
 10
-170.524948
 20
12.199997
 40
1.865997
 50
90.000000
 51
179.999878
  0
ARC
  8
0
 10
-168.324966
 20
12.199997
 40
1.865997
 50
0.000000
 51
90.000000
  0
ARC
  8
0
 10
-183.125015
 20
49.500015
 40
1.500000
 50
90.000000
 51
180.000000
  0
ARC
  8
0
 10
-154.425003
 20
48.000015
 40
3.000000
 50
0.000000
 51
90.000000
  0
ARC
  8
0
 10
-178.775009
 20
79.400040
 40
3.000000
 50
90.000000
 51
180.000000
  0
ARC
  8
0
 10
-157.275009
 20
79.400040
 40
3.000000
 50
0.000000
 51
90.000000
  0
ARC
  8
0
 10
-177.025009
 20
58.400040
 40
1.000000
 50
90.000000
 51
180.000000
  0
ARC
  8
0
 10
-159.025009
 20
58.400040
 40
1.000000
 50
0.000000
 51
90.000000
  0
ARC
  8
0
 10
-159.025009
 20
54.400040
 40
1.000000
 50
270.000000
 51
0.000000
  0
ARC
  8
0
 10
-177.025009
 20
54.400040
 40
1.000000
 50
180.000000
 51
270.000000
  0
ARC
  8
0
 10
-173.275009
 20
62.400040
 40
1.000000
 50
180.000000
 51
270.000000
  0
ARC
  8
0
 10
-162.775009
 20
62.400040
 40
1.000000
 50
270.000000
 51
0.000000
  0
ARC
  8
0
 10
-162.775009
 20
76.900040
 40
1.000000
 50
0.000000
 51
90.000000
  0
ARC
  8
0
 10
-173.275009
 20
76.900040
 40
1.000000
 50
90.000000
 51
180.000000
  0
ARC
  8
0
 10
-147.325058
 20
-84.500015
 40
1.500000
 50
180.000000
 51
270.000000
  0
ARC
  8
0
 10
-96.325058
 20
-85.500046
 40
1.500000
 50
270.000000
 51
0.000000
  0
ARC
  8
0
 10
-148.325058
 20
-85.500015
 40
1.500000
 50
180.000000
 51
270.000000
  0
ARC
  8
0
 10
-145.325058
 20
-84.500015
 40
1.500000
 50
270.000000
 51
0.000000
  0
CIRCLE
  8
0
 10
-169.425003
 20
-31.500015
 40
5.678500
  0
CIRCLE
  8
0
 10
-169.425003
 20
-31.500015
 40
6.578500
  0
CIRCLE
  8
0
 10
-169.425003
 20
-6.500015
 40
6.578500
  0
CIRCLE
  8
0
 10
-169.425003
 20
-6.500015
 40
5.678500
  0
TEXT
  8
0
 10
-169.944733
 20
75.258881
 40
1.200000
  1
１２
 50
0.000000
 41
0.833333
 51
0.000000
  7
STANDARD
  0
TEXT
  8
0
 10
-169.830399
 20
68.608116
 40
3.199999
  1
Ｂ
 50
0.000000
 41
0.833333
 51
0.000000
  7
STANDARD
  0
TEXT
  8
0
 10
-169.865005
 20
-46.721485
 40
1.599999
  1
B
 50
270.000000
 41
1.052632
 51
0.000000
  7
STANDARD
  0
TEXT
  8
0
 10
-169.864975
 20
10.278485
 40
1.599999
  1
A
 50
270.000000
 41
1.052632
 51
0.000000
  7
STANDARD
  0
TEXT
  8
0
 10
-172.858917
 20
64.188110
 40
2.000000
  1
ＧＤＢ
 50
0.000000
 41
0.833333
 51
0.000000
  7
STANDARD
  0
POINT
  8
0
 10
174.574997
 20
-49.999985
  0
POINT
  8
0
 10
194.574997
 20
-49.999985
  0
LINE
  8
0
 10
138.974899
 20
19.499985
 11
139.574997
 21
19.499985
  0
LINE
  8
0
 10
83.974899
 20
-85.499985
 11
83.974899
 21
59.499985
  0
LINE
  8
0
 10
83.974899
 20
-36.999985
 11
113.974899
 21
-36.999985
  0
LINE
  8
0
 10
83.974899
 20
-30.999985
 11
113.974899
 21
-30.999985
  0
LINE
  8
0
 10
113.974899
 20
-37.000015
 11
113.974899
 21
-31.000015
  0
LINE
  8
0
 10
109.974899
 20
-36.500015
 11
109.974899
 21
-31.500015
  0
LINE
  8
0
 10
83.974899
 20
-62.999985
 11
138.974899
 21
-62.999985
  0
LINE
  8
0
 10
83.974899
 20
36.999985
 11
138.974899
 21
36.999985
  0
LINE
  8
0
 10
83.974899
 20
16.999985
 11
138.974899
 21
16.999985
  0
LINE
  8
0
 10
93.974899
 20
-54.999985
 11
93.974899
 21
16.999985
  0
LINE
  8
0
 10
83.974899
 20
-54.999985
 11
138.974899
 21
-54.999985
  0
LINE
  8
0
 10
109.212204
 20
-33.999985
 11
114.675583
 21
-33.999985
  0
LINE
  8
0
 10
109.974899
 20
-31.499985
 11
113.974899
 21
-31.499985
  0
LINE
  8
0
 10
109.974899
 20
-36.499985
 11
113.974899
 21
-36.499985
  0
LINE
  8
0
 10
83.974899
 20
-1.000015
 11
113.974899
 21
-1.000015
  0
LINE
  8
0
 10
83.974899
 20
-7.000015
 11
113.974899
 21
-7.000015
  0
LINE
  8
0
 10
113.974899
 20
-1.000015
 11
113.974899
 21
-7.000015
  0
LINE
  8
0
 10
109.974899
 20
-1.500015
 11
109.974899
 21
-6.500015
  0
LINE
  8
0
 10
109.212204
 20
-4.000015
 11
114.856247
 21
-4.000015
  0
LINE
  8
0
 10
109.974899
 20
-6.500015
 11
113.974899
 21
-6.500015
  0
LINE
  8
0
 10
109.974899
 20
-1.500015
 11
113.974899
 21
-1.500015
  0
LINE
  8
0
 10
138.974899
 20
-85.499954
 11
138.974899
 21
59.499954
  0
LINE
  8
0
 10
85.474899
 20
60.999985
 11
137.474899
 21
60.999985
  0
LINE
  8
0
 10
135.474899
 20
55.920090
 11
135.474899
 21
61.745804
  0
LINE
  8
0
 10
132.474899
 20
56.999985
 11
138.974899
 21
56.999985
  0
LINE
  8
0
 10
134.474899
 20
59.999985
 11
136.474899
 21
59.999985
  0
LINE
  8
0
 10
132.474899
 20
56.999954
 11
132.474899
 21
60.999954
  0
LINE
  8
0
 10
137.974899
 20
56.999954
 11
137.974899
 21
58.499954
  0
LINE
  8
0
 10
132.974899
 20
56.999954
 11
132.974899
 21
58.499954
  0
LINE
  8
0
 10
132.974899
 20
57.999985
 11
137.974899
 21
57.999985
  0
LINE
  8
0
 10
130.224899
 20
60.999954
 11
130.224899
 21
61.699966
  0
LINE
  8
0
 10
125.925095
 20
60.999954
 11
125.925095
 21
61.699966
  0
LINE
  8
0
 10
125.925095
 20
61.699997
 11
130.224899
 21
61.699997
  0
LINE
  8
0
 10
95.374802
 20
60.999985
 11
95.374802
 21
36.999985
  0
LINE
  8
0
 10
97.374802
 20
60.999985
 11
97.374802
 21
36.999985
  0
LINE
  8
0
 10
98.974899
 20
60.999985
 11
98.974899
 21
36.999985
  0
LINE
  8
0
 10
100.974899
 20
60.999985
 11
100.974899
 21
36.999985
  0
LINE
  8
0
 10
102.574997
 20
60.999985
 11
102.574997
 21
36.999985
  0
LINE
  8
0
 10
104.574997
 20
60.999985
 11
104.574997
 21
36.999985
  0
LINE
  8
0
 10
106.175095
 20
60.999985
 11
106.175095
 21
36.999985
  0
LINE
  8
0
 10
108.175095
 20
60.999985
 11
108.175095
 21
36.999985
  0
LINE
  8
0
 10
109.774704
 20
60.999985
 11
109.774704
 21
36.999985
  0
LINE
  8
0
 10
111.774704
 20
60.999985
 11
111.774704
 21
36.999985
  0
LINE
  8
0
 10
113.374802
 20
60.999985
 11
113.374802
 21
36.999985
  0
LINE
  8
0
 10
115.374802
 20
60.999985
 11
115.374802
 21
36.999985
  0
LINE
  8
0
 10
116.974899
 20
60.999985
 11
116.974899
 21
36.999985
  0
LINE
  8
0
 10
118.974899
 20
60.999954
 11
118.974899
 21
36.999954
  0
LINE
  8
0
 10
120.574997
 20
60.999954
 11
120.574997
 21
36.999954
  0
LINE
  8
0
 10
122.574997
 20
60.999954
 11
122.574997
 21
36.999954
  0
LINE
  8
0
 10
93.974899
 20
60.999985
 11
93.974899
 21
36.999985
  0
LINE
  8
0
 10
123.974899
 20
60.999954
 11
123.974899
 21
36.999954
  0
LINE
  8
0
 10
135.275192
 20
58.999985
 11
135.675095
 21
58.999985
  0
LINE
  8
0
 10
135.275192
 20
58.999954
 11
135.275192
 21
59.999954
  0
LINE
  8
0
 10
135.675095
 20
58.999954
 11
135.675095
 21
59.999954
  0
LINE
  8
0
 10
143.574997
 20
-62.999985
 11
174.574997
 21
-62.999985
  0
LINE
  8
0
 10
140.574997
 20
36.999985
 11
174.574997
 21
36.999985
  0
LINE
  8
0
 10
140.574997
 20
36.999985
 11
140.574997
 21
-60.000015
  0
LINE
  8
0
 10
139.574997
 20
19.499985
 11
140.574997
 21
19.499985
  0
LINE
  8
0
 10
174.574997
 20
36.999985
 11
174.574997
 21
-63.000015
  0
LINE
  8
0
 10
148.574997
 20
28.999985
 11
148.574997
 21
18.999985
  0
LINE
  8
0
 10
141.574997
 20
28.999985
 11
148.574997
 21
28.999985
  0
LINE
  8
0
 10
141.574997
 20
18.999985
 11
148.574997
 21
18.999985
  0
LINE
  8
0
 10
147.620407
 20
-19.000015
 11
170.219040
 21
-19.000015
  0
LINE
  8
0
 10
148.574997
 20
5.499985
 11
168.574997
 21
5.499985
  0
LINE
  8
0
 10
135.267868
 20
23.999985
 11
152.780563
 21
23.999985
  0
LINE
  8
0
 10
148.574997
 20
-43.499985
 11
168.574997
 21
-43.499985
  0
LINE
  8
0
 10
158.574997
 20
17.981339
 11
158.574997
 21
-53.500015
  0
LINE
  8
0
 10
165.608688
 20
-5.300034
 11
165.608688
 21
-10.700027
  0
LINE
  8
0
 10
167.474899
 20
-12.565994
 11
169.675095
 21
-12.565994
  0
LINE
  8
0
 10
171.540817
 20
-5.300034
 11
171.540817
 21
-10.700027
  0
LINE
  8
0
 10
167.474899
 20
-3.434006
 11
169.675095
 21
-3.434006
  0
LINE
  8
0
 10
165.608688
 20
-29.800003
 11
165.608688
 21
-35.199997
  0
LINE
  8
0
 10
167.474899
 20
-37.065994
 11
169.675095
 21
-37.065994
  0
LINE
  8
0
 10
171.540817
 20
-29.800003
 11
171.540817
 21
-35.199997
  0
LINE
  8
0
 10
167.474899
 20
-27.934006
 11
169.675095
 21
-27.934006
  0
LINE
  8
0
 10
140.724899
 20
48.000015
 11
140.724899
 21
36.999985
  0
LINE
  8
0
 10
173.925095
 20
49.500015
 11
173.925095
 21
36.999985
  0
LINE
  8
0
 10
165.608688
 20
19.199966
 11
165.608688
 21
13.799973
  0
LINE
  8
0
 10
167.474899
 20
11.934006
 11
169.675095
 21
11.934006
  0
LINE
  8
0
 10
171.540817
 20
19.199966
 11
171.540817
 21
13.799973
  0
LINE
  8
0
 10
167.474899
 20
21.065994
 11
169.675095
 21
21.065994
  0
LINE
  8
0
 10
157.324997
 20
91.247116
 11
157.324997
 21
44.812759
  0
LINE
  8
0
 10
143.724899
 20
51.000015
 11
172.425095
 21
51.000015
  0
LINE
  8
0
 10
146.574997
 20
82.400040
 11
168.074997
 21
82.400040
  0
LINE
  8
0
 10
171.074997
 20
79.400040
 11
171.074997
 21
51.900040
  0
LINE
  8
0
 10
143.574997
 20
79.400040
 11
143.574997
 21
51.900040
  0
LINE
  8
0
 10
143.574997
 20
76.400040
 11
147.658493
 21
76.400040
  0
LINE
  8
0
 10
143.574997
 20
73.400040
 11
146.557419
 21
73.400040
  0
LINE
  8
0
 10
143.574997
 20
71.900040
 11
146.350388
 21
71.900040
  0
LINE
  8
0
 10
143.574997
 20
70.400040
 11
146.350388
 21
70.400040
  0
LINE
  8
0
 10
143.574997
 20
68.900040
 11
146.557419
 21
68.900040
  0
LINE
  8
0
 10
143.574997
 20
65.900040
 11
147.658493
 21
65.900040
  0
LINE
  8
0
 10
143.574997
 20
64.400040
 11
148.639450
 21
64.400040
  0
LINE
  8
0
 10
143.574997
 20
62.900040
 11
150.049118
 21
62.900040
  0
LINE
  8
0
 10
143.574997
 20
61.400040
 11
152.232224
 21
61.400040
  0
LINE
  8
0
 10
143.574997
 20
51.900040
 11
171.074997
 21
51.900040
  0
LINE
  8
0
 10
143.824997
 20
51.900040
 11
143.824997
 21
51.000015
  0
LINE
  8
0
 10
170.824997
 20
51.900040
 11
170.824997
 21
51.000015
  0
LINE
  8
0
 10
143.574997
 20
77.900040
 11
148.639450
 21
77.900040
  0
LINE
  8
0
 10
146.325165
 20
71.149956
 11
147.537582
 21
73.249924
  0
LINE
  8
0
 10
147.537384
 20
69.050095
 11
146.324966
 21
71.150063
  0
LINE
  8
0
 10
148.223221
 20
73.499680
 11
147.537262
 21
73.250008
  0
LINE
  8
0
 10
148.189667
 20
68.934998
 11
147.537613
 21
69.049965
  0
LINE
  8
0
 10
151.824997
 20
80.676315
 11
154.249802
 21
80.676315
  0
LINE
  8
0
 10
150.612717
 20
78.576218
 11
151.825150
 21
80.676208
  0
LINE
  8
0
 10
154.809128
 20
80.207001
 11
154.249939
 21
80.676224
  0
LINE
  8
0
 10
150.838974
 20
77.953880
 11
150.612442
 21
78.576263
  0
LINE
  8
0
 10
162.824951
 20
80.676331
 11
164.037369
 21
78.576370
  0
LINE
  8
0
 10
160.400192
 20
80.676315
 11
162.824997
 21
80.676315
  0
LINE
  8
0
 10
163.910477
 20
77.857407
 11
164.037231
 21
78.576324
  0
LINE
  8
0
 10
159.974503
 20
80.168823
 11
160.400238
 21
80.676193
  0
LINE
  8
0
 10
168.324890
 20
71.150085
 11
167.112457
 21
69.050087
  0
LINE
  8
0
 10
167.112564
 20
73.249977
 11
168.324966
 21
71.150032
  0
LINE
  8
0
 10
166.426315
 20
68.800247
 11
167.112732
 21
69.050087
  0
LINE
  8
0
 10
166.460129
 20
73.365036
 11
167.112656
 21
73.249977
  0
LINE
  8
0
 10
162.824997
 20
61.623764
 11
160.400192
 21
61.623764
  0
LINE
  8
0
 10
164.037323
 20
63.723801
 11
162.824905
 21
61.623833
  0
LINE
  8
0
 10
159.840881
 20
62.092941
 11
160.400085
 21
61.623718
  0
LINE
  8
0
 10
163.811005
 20
64.346230
 11
164.037537
 21
63.723854
  0
LINE
  8
0
 10
151.824982
 20
61.623756
 11
150.612579
 21
63.723701
  0
LINE
  8
0
 10
154.249802
 20
61.623764
 11
151.824997
 21
61.623764
  0
LINE
  8
0
 10
150.739212
 20
64.442696
 11
150.612457
 21
63.723778
  0
LINE
  8
0
 10
154.675522
 20
62.131180
 11
154.249786
 21
61.623817
  0
LINE
  8
0
 10
166.010544
 20
77.900040
 11
171.074997
 21
77.900040
  0
LINE
  8
0
 10
166.991501
 20
76.400040
 11
171.074997
 21
76.400040
  0
LINE
  8
0
 10
168.092575
 20
73.400040
 11
171.074997
 21
73.400040
  0
LINE
  8
0
 10
168.299606
 20
71.900040
 11
171.074997
 21
71.900040
  0
LINE
  8
0
 10
168.299606
 20
70.400040
 11
171.074997
 21
70.400040
  0
LINE
  8
0
 10
168.092575
 20
68.900040
 11
171.074997
 21
68.900040
  0
LINE
  8
0
 10
166.991501
 20
65.900040
 11
171.074997
 21
65.900040
  0
LINE
  8
0
 10
166.010544
 20
64.400040
 11
171.074997
 21
64.400040
  0
LINE
  8
0
 10
164.600876
 20
62.900040
 11
171.074997
 21
62.900040
  0
LINE
  8
0
 10
162.417770
 20
61.400040
 11
171.074997
 21
61.400040
  0
LINE
  8
0
 10
144.466599
 20
71.150040
 11
169.776169
 21
71.150040
  0
LINE
  8
0
 10
128.074997
 20
58.787125
 11
128.074997
 21
64.612839
  0
LINE
  8
0
 10
138.974899
 20
-57.499985
 11
140.574997
 21
-57.499985
  0
LINE
  8
0
 10
83.974899
 20
-13.000000
 11
138.974899
 21
-13.000000
  0
LINE
  8
0
 10
85.474899
 20
-86.999985
 11
137.474899
 21
-86.999985
  0
LINE
  8
0
 10
135.474899
 20
-81.920090
 11
135.474899
 21
-87.745804
  0
LINE
  8
0
 10
132.474899
 20
-82.999985
 11
138.974899
 21
-82.999985
  0
LINE
  8
0
 10
134.474899
 20
-85.999985
 11
136.474899
 21
-85.999985
  0
LINE
  8
0
 10
132.474899
 20
-82.999954
 11
132.474899
 21
-86.999954
  0
LINE
  8
0
 10
137.974899
 20
-82.999954
 11
137.974899
 21
-84.499954
  0
LINE
  8
0
 10
132.974899
 20
-82.999954
 11
132.974899
 21
-84.499954
  0
LINE
  8
0
 10
132.974899
 20
-83.999985
 11
137.974899
 21
-83.999985
  0
LINE
  8
0
 10
130.224899
 20
-86.999954
 11
130.224899
 21
-87.699966
  0
LINE
  8
0
 10
125.925095
 20
-86.999954
 11
125.925095
 21
-87.699966
  0
LINE
  8
0
 10
125.925095
 20
-87.699997
 11
130.224899
 21
-87.699997
  0
LINE
  8
0
 10
95.374802
 20
-86.999985
 11
95.374802
 21
-62.999985
  0
LINE
  8
0
 10
97.374802
 20
-86.999985
 11
97.374802
 21
-62.999985
  0
LINE
  8
0
 10
98.974899
 20
-86.999985
 11
98.974899
 21
-62.999985
  0
LINE
  8
0
 10
100.974899
 20
-86.999985
 11
100.974899
 21
-62.999985
  0
LINE
  8
0
 10
102.574997
 20
-86.999985
 11
102.574997
 21
-62.999985
  0
LINE
  8
0
 10
104.574997
 20
-86.999985
 11
104.574997
 21
-62.999985
  0
LINE
  8
0
 10
106.175095
 20
-86.999985
 11
106.175095
 21
-62.999985
  0
LINE
  8
0
 10
108.175095
 20
-86.999985
 11
108.175095
 21
-62.999985
  0
LINE
  8
0
 10
109.774704
 20
-86.999985
 11
109.774704
 21
-62.999985
  0
LINE
  8
0
 10
111.774704
 20
-86.999985
 11
111.774704
 21
-62.999985
  0
LINE
  8
0
 10
113.374802
 20
-86.999985
 11
113.374802
 21
-62.999985
  0
LINE
  8
0
 10
115.374802
 20
-86.999985
 11
115.374802
 21
-62.999985
  0
LINE
  8
0
 10
116.974899
 20
-86.999985
 11
116.974899
 21
-62.999985
  0
LINE
  8
0
 10
118.974899
 20
-86.999954
 11
118.974899
 21
-62.999954
  0
LINE
  8
0
 10
120.574997
 20
-86.999954
 11
120.574997
 21
-62.999954
  0
LINE
  8
0
 10
122.574997
 20
-86.999954
 11
122.574997
 21
-62.999954
  0
LINE
  8
0
 10
93.974899
 20
-86.999985
 11
93.974899
 21
-62.999985
  0
LINE
  8
0
 10
123.974899
 20
-86.999954
 11
123.974899
 21
-62.999954
  0
LINE
  8
0
 10
135.275192
 20
-84.999985
 11
135.675095
 21
-84.999985
  0
LINE
  8
0
 10
135.275192
 20
-84.999954
 11
135.275192
 21
-85.999954
  0
LINE
  8
0
 10
135.675095
 20
-84.999954
 11
135.675095
 21
-85.999954
  0
LINE
  8
0
 10
128.074997
 20
-84.787125
 11
128.074997
 21
-90.612839
  0
ARC
  8
0
 10
137.474899
 20
59.499954
 40
1.500000
 50
0.000000
 51
90.000000
  0
ARC
  8
0
 10
134.474899
 20
58.499954
 40
1.500000
 50
90.000000
 51
180.000000
  0
ARC
  8
0
 10
136.474899
 20
58.499954
 40
1.500000
 50
0.000000
 51
90.000000
  0
ARC
  8
0
 10
85.474899
 20
59.499985
 40
1.500000
 50
90.000000
 51
180.000000
  0
ARC
  8
0
 10
143.574997
 20
-60.000015
 40
3.000000
 50
180.000000
 51
270.000000
  0
ARC
  8
0
 10
141.574997
 20
29.999985
 40
1.000000
 50
180.000000
 51
270.000000
  0
ARC
  8
0
 10
141.574997
 20
17.999985
 40
1.000000
 50
90.000000
 51
180.000000
  0
ARC
  8
0
 10
167.474899
 20
-10.700027
 40
1.865997
 50
180.000000
 51
270.000000
  0
ARC
  8
0
 10
169.675095
 20
-10.700027
 40
1.865997
 50
270.000000
 51
0.000000
  0
ARC
  8
0
 10
167.474899
 20
-5.300034
 40
1.865997
 50
90.000000
 51
179.999878
  0
ARC
  8
0
 10
169.675095
 20
-5.300034
 40
1.865997
 50
0.000117
 51
90.000000
  0
ARC
  8
0
 10
167.474899
 20
-35.199997
 40
1.865997
 50
180.000000
 51
270.000000
  0
ARC
  8
0
 10
169.675095
 20
-35.199997
 40
1.865997
 50
270.000000
 51
0.000000
  0
ARC
  8
0
 10
167.474899
 20
-29.800003
 40
1.865997
 50
90.000000
 51
179.999878
  0
ARC
  8
0
 10
169.675095
 20
-29.800003
 40
1.865997
 50
0.000059
 51
90.000000
  0
ARC
  8
0
 10
167.474899
 20
13.799973
 40
1.865997
 50
180.000000
 51
270.000000
  0
ARC
  8
0
 10
169.675095
 20
13.799973
 40
1.865997
 50
270.000000
 51
0.000000
  0
ARC
  8
0
 10
167.474899
 20
19.199966
 40
1.865997
 50
90.000000
 51
180.000000
  0
ARC
  8
0
 10
169.675095
 20
19.199966
 40
1.865997
 50
0.000000
 51
90.000000
  0
ARC
  8
0
 10
143.724899
 20
48.000015
 40
3.000000
 50
90.000000
 51
180.000000
  0
ARC
  8
0
 10
172.425095
 20
49.500015
 40
1.500000
 50
0.000000
 51
90.000000
  0
ARC
  8
0
 10
146.574997
 20
79.400040
 40
3.000000
 50
90.000000
 51
180.000000
  0
ARC
  8
0
 10
168.074997
 20
79.400040
 40
3.000000
 50
0.000000
 51
90.000000
  0
CIRCLE
  8
0
 10
157.324997
 20
71.150040
 40
11.000000
  0
CIRCLE
  8
0
 10
157.324997
 20
71.150040
 40
6.500000
  0
ARC
  8
0
 10
157.324997
 20
71.150040
 40
9.399994
 50
90.000000
 51
104.887909
  0
CIRCLE
  8
0
 10
157.324997
 20
71.150040
 40
3.799999
  0
ARC
  8
0
 10
157.324997
 20
71.150040
 40
9.399995
 50
193.629242
 51
225.524521
  0
ARC
  8
0
 10
157.324997
 20
71.150040
 40
9.399994
 50
133.629181
 51
165.524338
  0
ARC
  8
0
 10
157.324997
 20
71.150040
 40
9.400002
 50
73.629204
 51
90.000000
  0
ARC
  8
0
 10
157.324997
 20
71.150040
 40
9.399993
 50
13.629190
 51
45.524227
  0
ARC
  8
0
 10
157.324997
 20
71.150040
 40
9.399994
 50
313.629181
 51
345.524323
  0
ARC
  8
0
 10
157.324997
 20
71.150040
 40
9.400002
 50
253.629196
 51
285.524323
  0
ARC
  8
0
 10
85.474899
 20
-85.499985
 40
1.500000
 50
180.000000
 51
270.000000
  0
ARC
  8
0
 10
136.474899
 20
-84.499954
 40
1.500000
 50
270.000000
 51
0.000000
  0
ARC
  8
0
 10
137.474899
 20
-85.499954
 40
1.500000
 50
270.000000
 51
0.000000
  0
ARC
  8
0
 10
134.474899
 20
-84.499954
 40
1.500000
 50
180.000000
 51
270.000000
  0
CIRCLE
  8
0
 10
158.574997
 20
-43.500015
 40
5.722500
  0
CIRCLE
  8
0
 10
158.574997
 20
-43.500015
 40
6.578500
  0
CIRCLE
  8
0
 10
158.574997
 20
5.499985
 40
6.578500
  0
CIRCLE
  8
0
 10
158.574997
 20
5.499985
 40
5.722500
  0
CIRCLE
  8
0
 10
158.574997
 20
-19.000015
 40
6.578500
  0
CIRCLE
  8
0
 10
158.574997
 20
-19.000015
 40
5.722500
  0
TEXT
  8
0
 10
169.014999
 20
14.921485
 40
1.599999
  1
R1
 50
90.000000
 41
1.052632
 51
0.000000
  7
STANDARD
  0
TEXT
  8
0
 10
169.014999
 20
-34.078514
 40
1.599999
  1
R2
 50
90.000000
 41
1.052632
 51
0.000000
  7
STANDARD
  0
TEXT
  8
0
 10
169.014999
 20
-8.778515
 40
1.599999
  1
P
 50
90.000000
 41
1.052632
 51
0.000000
  7
STANDARD
  0
POINT
  8
0
 10
-25.425003
 20
-184.599991
  0
POINT
  8
0
 10
16.574997
 20
-184.599991
  0
POINT
  8
0
 10
-4.425003
 20
-150.599991
  0
POINT
  8
0
 10
-4.425003
 20
-150.599991
  0
LINE
  8
0
 10
-18.224991
 20
-171.133926
 11
-23.625015
 21
-171.133926
  0
LINE
  8
0
 10
-25.490982
 20
-172.999954
 11
-25.490982
 21
-175.199966
  0
LINE
  8
0
 10
-18.224991
 20
-177.065994
 11
-23.625015
 21
-177.065994
  0
LINE
  8
0
 10
-16.358963
 20
-172.999954
 11
-16.358963
 21
-175.199966
  0
LINE
  8
0
 10
-29.925095
 20
-184.599991
 11
21.074905
 21
-184.599991
  0
LINE
  8
0
 10
-26.925095
 20
-150.599991
 11
18.074905
 21
-150.599991
  0
LINE
  8
0
 10
-29.925003
 20
-153.599930
 11
-29.925003
 21
-184.599930
  0
LINE
  8
0
 10
21.074997
 20
-153.599960
 11
21.074997
 21
-184.599960
  0
LINE
  8
0
 10
-4.425003
 20
-188.599991
 11
-4.425003
 21
-89.999985
  0
LINE
  8
0
 10
-13.425003
 20
-159.099991
 11
-13.425003
 21
-171.099991
  0
LINE
  8
0
 10
-19.425003
 20
-165.099991
 11
-7.425003
 21
-165.099991
  0
LINE
  8
0
 10
24.824997
 20
-157.099991
 11
24.824997
 21
-177.599991
  0
LINE
  8
0
 10
28.824997
 20
-167.349991
 11
34.824997
 21
-167.349991
  0
LINE
  8
0
 10
21.074997
 20
-178.599991
 11
23.824997
 21
-178.599991
  0
LINE
  8
0
 10
21.074997
 20
-156.099991
 11
23.824997
 21
-156.099991
  0
LINE
  8
0
 10
22.390854
 20
-167.349991
 11
37.884445
 21
-167.349991
  0
LINE
  8
0
 10
34.824997
 20
-178.349960
 11
34.824997
 21
-156.349960
  0
LINE
  8
0
 10
28.824997
 20
-178.349960
 11
28.824997
 21
-156.349960
  0
LINE
  8
0
 10
28.824997
 20
-156.349960
 11
34.824997
 21
-156.349960
  0
LINE
  8
0
 10
28.824997
 20
-178.349960
 11
34.824997
 21
-178.349960
  0
LINE
  8
0
 10
24.824997
 20
-158.849960
 11
28.824997
 21
-158.849960
  0
LINE
  8
0
 10
24.824997
 20
-175.849960
 11
28.824997
 21
-175.849960
  0
LINE
  8
0
 10
28.824997
 20
-161.849960
 11
34.824997
 21
-161.849960
  0
LINE
  8
0
 10
28.824997
 20
-172.849960
 11
34.824997
 21
-172.849960
  0
LINE
  8
0
 10
28.824997
 20
-176.485275
 11
34.824997
 21
-176.485275
  0
LINE
  8
0
 10
28.824997
 20
-177.137527
 11
34.824997
 21
-177.137527
  0
LINE
  8
0
 10
28.824997
 20
-174.062393
 11
34.824997
 21
-174.062393
  0
LINE
  8
0
 10
28.824997
 20
-170.425095
 11
34.824997
 21
-170.425095
  0
LINE
  8
0
 10
28.824997
 20
-169.999374
 11
34.824997
 21
-169.999374
  0
LINE
  8
0
 10
28.824997
 20
-158.214645
 11
34.824997
 21
-158.214645
  0
LINE
  8
0
 10
28.824997
 20
-157.562393
 11
34.824997
 21
-157.562393
  0
LINE
  8
0
 10
28.824997
 20
-160.637527
 11
34.824997
 21
-160.637527
  0
LINE
  8
0
 10
28.824997
 20
-164.274826
 11
34.824997
 21
-164.274826
  0
LINE
  8
0
 10
28.824997
 20
-164.700546
 11
34.824997
 21
-164.700546
  0
LINE
  8
0
 10
24.824997
 20
-174.349960
 11
28.824997
 21
-174.349960
  0
LINE
  8
0
 10
24.824997
 20
-160.349960
 11
28.824997
 21
-160.349960
  0
LINE
  8
0
 10
-16.924995
 20
-141.000015
 11
-16.924995
 21
-150.000015
  0
LINE
  8
0
 10
-18.925064
 20
-94.000031
 11
10.074936
 21
-94.000031
  0
LINE
  8
0
 10
-20.425003
 20
-149.000031
 11
11.574997
 21
-149.000031
  0
LINE
  8
0
 10
-20.425034
 20
-104.000031
 11
11.574966
 21
-104.000031
  0
LINE
  8
0
 10
-20.425034
 20
-134.000031
 11
11.574966
 21
-134.000031
  0
LINE
  8
0
 10
11.575005
 20
-95.499985
 11
11.575005
 21
-149.599991
  0
LINE
  8
0
 10
-20.424995
 20
-95.500015
 11
-20.424995
 21
-149.600021
  0
LINE
  8
0
 10
-20.425034
 20
-142.500031
 11
-16.925034
 21
-142.500031
  0
LINE
  8
0
 10
-13.924995
 20
-145.500015
 11
-13.924995
 21
-149.000015
  0
LINE
  8
0
 10
-21.425034
 20
-145.500031
 11
-12.425034
 21
-145.500031
  0
LINE
  8
0
 10
-7.925034
 20
-138.100006
 11
-0.925034
 21
-138.100006
  0
LINE
  8
0
 10
8.075005
 20
-140.999985
 11
8.075005
 21
-149.999985
  0
LINE
  8
0
 10
11.574966
 20
-142.500031
 11
8.074966
 21
-142.500031
  0
LINE
  8
0
 10
5.075005
 20
-145.500015
 11
5.075005
 21
-149.000015
  0
LINE
  8
0
 10
-12.425034
 20
-145.500031
 11
-21.425034
 21
-145.500031
  0
LINE
  8
0
 10
-20.425034
 20
-105.400024
 11
11.574966
 21
-105.400024
  0
LINE
  8
0
 10
-20.425034
 20
-107.400024
 11
11.574966
 21
-107.400024
  0
LINE
  8
0
 10
-20.425034
 20
-109.000031
 11
-4.425034
 21
-109.000031
  0
LINE
  8
0
 10
-20.425034
 20
-111.000031
 11
-4.425034
 21
-111.000031
  0
LINE
  8
0
 10
-20.425034
 20
-112.600006
 11
11.574966
 21
-112.600006
  0
LINE
  8
0
 10
-20.425034
 20
-114.600006
 11
11.574966
 21
-114.600006
  0
LINE
  8
0
 10
-20.425034
 20
-116.200012
 11
11.574966
 21
-116.200012
  0
LINE
  8
0
 10
-20.425034
 20
-118.200012
 11
11.574966
 21
-118.200012
  0
LINE
  8
0
 10
-20.425034
 20
-119.800018
 11
11.574966
 21
-119.800018
  0
LINE
  8
0
 10
-20.425034
 20
-121.800018
 11
11.574966
 21
-121.800018
  0
LINE
  8
0
 10
-20.425034
 20
-123.400024
 11
11.574966
 21
-123.400024
  0
LINE
  8
0
 10
-20.425034
 20
-125.400024
 11
11.574966
 21
-125.400024
  0
LINE
  8
0
 10
-20.425034
 20
-127.000000
 11
11.574966
 21
-127.000000
  0
LINE
  8
0
 10
-20.425034
 20
-129.000000
 11
11.574966
 21
-129.000000
  0
LINE
  8
0
 10
-20.425034
 20
-130.600006
 11
11.574966
 21
-130.600006
  0
LINE
  8
0
 10
-20.425034
 20
-132.600006
 11
11.574966
 21
-132.600006
  0
LINE
  8
0
 10
8.575005
 20
-108.999985
 11
8.575005
 21
-110.999985
  0
LINE
  8
0
 10
8.574966
 20
-109.000031
 11
11.574966
 21
-109.000031
  0
LINE
  8
0
 10
8.574966
 20
-111.000031
 11
11.574966
 21
-111.000031
  0
LINE
  8
0
 10
-4.424995
 20
-109.000015
 11
-4.424995
 21
-111.000015
  0
LINE
  8
0
 10
-14.935043
 20
-145.300018
 11
-16.725021
 21
-145.300018
  0
LINE
  8
0
 10
-14.935043
 20
-145.700012
 11
-16.725021
 21
-145.700012
  0
LINE
  8
0
 10
-16.725014
 20
-143.510056
 11
-16.725014
 21
-145.300034
  0
LINE
  8
0
 10
-17.125008
 20
-143.510056
 11
-17.125008
 21
-145.300034
  0
LINE
  8
0
 10
-17.125015
 20
-145.300018
 11
-18.914993
 21
-145.300018
  0
LINE
  8
0
 10
-17.125008
 20
-145.700027
 11
-17.125008
 21
-147.490005
  0
LINE
  8
0
 10
-16.725014
 20
-145.700027
 11
-16.725014
 21
-147.490005
  0
LINE
  8
0
 10
-17.125015
 20
-145.700012
 11
-18.914993
 21
-145.700012
  0
LINE
  8
0
 10
12.574966
 20
-145.500031
 11
3.574966
 21
-145.500031
  0
LINE
  8
0
 10
10.064957
 20
-145.300018
 11
8.274979
 21
-145.300018
  0
LINE
  8
0
 10
10.064957
 20
-145.700012
 11
8.274979
 21
-145.700012
  0
LINE
  8
0
 10
8.274986
 20
-143.510025
 11
8.274986
 21
-145.300003
  0
LINE
  8
0
 10
7.874992
 20
-143.510025
 11
7.874992
 21
-145.300003
  0
LINE
  8
0
 10
7.874985
 20
-145.300018
 11
6.085007
 21
-145.300018
  0
LINE
  8
0
 10
7.874992
 20
-145.699997
 11
7.874992
 21
-147.489975
  0
LINE
  8
0
 10
8.274986
 20
-145.699997
 11
8.274986
 21
-147.489975
  0
LINE
  8
0
 10
7.874985
 20
-145.700012
 11
6.085007
 21
-145.700012
  0
LINE
  8
0
 10
-20.424995
 20
-149.599991
 11
-20.424995
 21
-150.599991
  0
LINE
  8
0
 10
11.575005
 20
-149.599991
 11
11.575005
 21
-150.599991
  0
ARC
  8
0
 10
-23.625015
 20
-172.999954
 40
1.865997
 50
89.999939
 51
180.000000
  0
ARC
  8
0
 10
-23.625015
 20
-175.199966
 40
1.865997
 50
180.000000
 51
270.000000
  0
ARC
  8
0
 10
-18.225021
 20
-172.999954
 40
1.865997
 50
0.000000
 51
89.999939
  0
ARC
  8
0
 10
-18.225021
 20
-175.199966
 40
1.865997
 50
270.000061
 51
0.000000
  0
ARC
  8
0
 10
-26.925125
 20
-153.599930
 40
3.000000
 50
90.000000
 51
180.000000
  0
ARC
  8
0
 10
18.074875
 20
-153.599960
 40
3.000000
 50
0.000000
 51
90.000076
  0
CIRCLE
  8
0
 10
-13.425003
 20
-165.099991
 40
4.282999
  0
CIRCLE
  8
0
 10
-13.425003
 20
-165.099991
 40
4.863998
  0
ARC
  8
0
 10
23.824997
 20
-157.099991
 40
1.000000
 50
0.000000
 51
90.000000
  0
ARC
  8
0
 10
23.824997
 20
-177.599991
 40
1.000000
 50
270.000000
 51
0.000000
  0
ARC
  8
0
 10
10.074944
 20
-95.499992
 40
1.500000
 50
0.000000
 51
90.000000
  0
ARC
  8
0
 10
-18.925056
 20
-95.500008
 40
1.500000
 50
90.000000
 51
180.000000
  0
CIRCLE
  8
0
 10
-16.925034
 20
-145.500015
 40
2.500000
  0
ARC
  8
0
 10
-16.925034
 20
-145.500015
 40
3.000000
 50
0.000000
 51
90.000000
  0
CIRCLE
  8
0
 10
-4.425034
 20
-138.099991
 40
2.150000
  0
CIRCLE
  8
0
 10
-4.425034
 20
-138.099991
 40
1.500000
  0
CIRCLE
  8
0
 10
8.074966
 20
-145.499985
 40
2.500000
  0
ARC
  8
0
 10
8.074966
 20
-145.499985
 40
3.000000
 50
90.000000
 51
180.000000
  0
ARC
  8
0
 10
8.074966
 20
-145.499985
 40
2.000000
 50
84.260811
 51
95.739189
  0
ARC
  8
0
 10
-16.925034
 20
-145.500015
 40
2.000000
 50
174.260910
 51
185.739090
  0
ARC
  8
0
 10
-16.925034
 20
-145.500015
 40
2.000000
 50
264.260864
 51
275.739197
  0
ARC
  8
0
 10
-16.925034
 20
-145.500015
 40
2.000000
 50
354.260925
 51
5.739083
  0
ARC
  8
0
 10
8.074966
 20
-145.499985
 40
2.000000
 50
264.260803
 51
275.739197
  0
ARC
  8
0
 10
8.074966
 20
-145.499985
 40
2.000000
 50
174.260910
 51
185.739090
  0
ARC
  8
0
 10
8.074966
 20
-145.499985
 40
2.000000
 50
354.260925
 51
5.739083
  0
ARC
  8
0
 10
-16.925034
 20
-145.500015
 40
2.000000
 50
84.260864
 51
95.739189
  0
TEXT
  8
0
 10
-22.503502
 20
-174.539993
 40
1.599999
  1
PR
 50
0.000000
 41
1.052632
 51
0.000000
  7
STANDARD
  0
TEXT
  8
0
 10
-0.881597
 20
-110.439987
 40
1.599999
  1
DC24V
 50
0.000000
 41
0.798236
 51
0.000000
  7
STANDARD
  0
ENDSEC
  0
EOF
