  0
SECTION
  2
HEADER
  9
$ACADVER
  1
AC1012
  9
$DWGCODEPAGE
  3
dos932
  9
$INSBASE
 10
0.0
 20
0.0
 30
0.0
  9
$EXTMIN
 10
-138.39999389648437
 20
-94.800003051757812
 30
0.0
  9
$EXTMAX
 10
138.35000610351562
 20
94.5
 30
0.0
  9
$LIMMIN
 10
-148.5
 20
-105.00000000000001
  9
$LIMMAX
 10
148.5
 20
105.00000000000001
  9
$ORTHOMODE
 70
               0
  9
$REGENMODE
 70
               1
  9
$FILLMODE
 70
               1
  9
$QTEXTMODE
 70
               0
  9
$MIRRTEXT
 70
               1
  9
$DRAGMODE
 70
               2
  9
$LTSCALE
 40
1.0
  9
$OSMODE
 70
               0
  9
$ATTMODE
 70
               1
  9
$TEXTSIZE
 40
3.2000000476837158
  9
$TRACEWID
 40
0.05
  9
$TEXTSTYLE
  7
MX_NOTE_STANDARD
  9
$CLAYER
  8
0
  9
$CELTYPE
  6
CONTINUOUS
  9
$CECOLOR
 62
             256
  9
$CELTSCALE
 40
1.0
  9
$DELOBJ
 70
               1
  9
$DISPSILH
 70
               0
  9
$DIMSCALE
 40
1.0
  9
$DIMASZ
 40
2.5
  9
$DIMEXO
 40
1.5
  9
$DIMDLI
 40
3.75
  9
$DIMRND
 40
0.0
  9
$DIMDLE
 40
0.0
  9
$DIMEXE
 40
1.5
  9
$DIMTP
 40
0.0
  9
$DIMTM
 40
0.0
  9
$DIMTXT
 40
3.2000000476837158
  9
$DIMCEN
 40
2.5
  9
$DIMTSZ
 40
0.0
  9
$DIMTOL
 70
               0
  9
$DIMLIM
 70
               0
  9
$DIMTIH
 70
               0
  9
$DIMTOH
 70
               0
  9
$DIMSE1
 70
               0
  9
$DIMSE2
 70
               0
  9
$DIMTAD
 70
               1
  9
$DIMZIN
 70
               8
  9
$DIMBLK
  1

  9
$DIMASO
 70
               1
  9
$DIMSHO
 70
               1
  9
$DIMPOST
  1

  9
$DIMAPOST
  1

  9
$DIMALT
 70
               0
  9
$DIMALTD
 70
               4
  9
$DIMALTF
 40
0.03937007874016
  9
$DIMLFAC
 40
1.0
  9
$DIMTOFL
 70
               1
  9
$DIMTVP
 40
0.0
  9
$DIMTIX
 70
               0
  9
$DIMSOXD
 70
               0
  9
$DIMSAH
 70
               1
  9
$DIMBLK1
  1
_OPEN30
  9
$DIMBLK2
  1
_OPEN30
  9
$DIMSTYLE
  2
MXDIMSTYLE
  9
$DIMCLRD
 70
               0
  9
$DIMCLRE
 70
               0
  9
$DIMCLRT
 70
               0
  9
$DIMTFAC
 40
1.0
  9
$DIMGAP
 40
1.0
  9
$DIMJUST
 70
               0
  9
$DIMSD1
 70
               0
  9
$DIMSD2
 70
               0
  9
$DIMTOLJ
 70
               0
  9
$DIMTZIN
 70
               0
  9
$DIMALTZ
 70
               0
  9
$DIMALTTZ
 70
               0
  9
$DIMFIT
 70
               3
  9
$DIMUPT
 70
               1
  9
$DIMUNIT
 70
               2
  9
$DIMDEC
 70
               2
  9
$DIMTDEC
 70
               2
  9
$DIMALTU
 70
               2
  9
$DIMALTTD
 70
               4
  9
$DIMTXSTY
  7
MX_NOTE_STANDARD
  9
$DIMAUNIT
 70
               0
  9
$LUNITS
 70
               2
  9
$LUPREC
 70
               4
  9
$SKETCHINC
 40
0.1
  9
$FILLETRAD
 40
0.0
  9
$AUNITS
 70
               0
  9
$AUPREC
 70
               0
  9
$MENU
  1
acad
  9
$ELEVATION
 40
0.0
  9
$PELEVATION
 40
0.0
  9
$THICKNESS
 40
0.0
  9
$LIMCHECK
 70
               0
  9
$BLIPMODE
 70
               1
  9
$CHAMFERA
 40
0.0
  9
$CHAMFERB
 40
0.0
  9
$CHAMFERC
 40
0.0
  9
$CHAMFERD
 40
0.0
  9
$SKPOLY
 70
               0
  9
$TDCREATE
 40
2454085.536608796
  9
$TDUPDATE
 40
2454085.536608796
  9
$TDINDWG
 40
0.0000000000
  9
$TDUSRTIMER
 40
0.0000000000
  9
$USRTIMER
 70
               1
  9
$ANGBASE
 50
0.0
  9
$ANGDIR
 70
               0
  9
$PDMODE
 70
               0
  9
$PDSIZE
 40
0.0
  9
$PLINEWID
 40
0.0
  9
$COORDS
 70
               1
  9
$SPLFRAME
 70
               0
  9
$SPLINETYPE
 70
               6
  9
$SPLINESEGS
 70
               8
  9
$ATTDIA
 70
               0
  9
$ATTREQ
 70
               1
  9
$HANDLING
 70
               1
  9
$HANDSEED
  5
156
  9
$SURFTAB1
 70
               6
  9
$SURFTAB2
 70
               6
  9
$SURFTYPE
 70
               6
  9
$SURFU
 70
               6
  9
$SURFV
 70
               6
  9
$UCSNAME
  2

  9
$UCSORG
 10
0.0
 20
0.0
 30
0.0
  9
$UCSXDIR
 10
1.0
 20
0.0
 30
0.0
  9
$UCSYDIR
 10
0.0
 20
1.0
 30
0.0
  9
$PUCSNAME
  2

  9
$PUCSORG
 10
0.0
 20
0.0
 30
0.0
  9
$PUCSXDIR
 10
1.0
 20
0.0
 30
0.0
  9
$PUCSYDIR
 10
0.0
 20
1.0
 30
0.0
  9
$USERI1
 70
               0
  9
$USERI2
 70
               0
  9
$USERI3
 70
               0
  9
$USERI4
 70
               0
  9
$USERI5
 70
               0
  9
$USERR1
 40
0.0
  9
$USERR2
 40
0.0
  9
$USERR3
 40
0.0
  9
$USERR4
 40
0.0
  9
$USERR5
 40
0.0
  9
$WORLDVIEW
 70
               1
  9
$SHADEDGE
 70
               3
  9
$SHADEDIF
 70
              70
  9
$TILEMODE
 70
               1
  9
$MAXACTVP
 70
              16
  9
$PINSBASE
 10
0.0
 20
0.0
 30
0.0
  9
$PLIMCHECK
 70
               0
  9
$PEXTMIN
 10
1.0000000000000000E+20
 20
1.0000000000000000E+20
 30
1.0000000000000000E+20
  9
$PEXTMAX
 10
-1.0000000000000000E+20
 20
-1.0000000000000000E+20
 30
-1.0000000000000000E+20
  9
$PLIMMIN
 10
0.0
 20
0.0
  9
$PLIMMAX
 10
12.0
 20
9.0
  9
$UNITMODE
 70
               0
  9
$VISRETAIN
 70
               0
  9
$PLINEGEN
 70
               1
  9
$PSLTSCALE
 70
               0
  9
$TREEDEPTH
 70
            3020
  9
$PICKSTYLE
 70
               1
  9
$CMLSTYLE
  2
Standard
  9
$CMLJUST
 70
               0
  9
$CMLSCALE
 40
1.0
  9
$SAVEIMAGES
 70
               0
  0
ENDSEC
  0
SECTION
  2
CLASSES
  0
CLASS
  1
LWPOLYLINE
  2
AcDbPolyline
  3
"AutoCAD"
 90
    32768
280
               0
281
               1
  0
CLASS
  1
IMAGE
  2
AcDbRasterImage
  3
ISM
 90
    32895
280
               0
281
               1
  0
CLASS
  1
OLE2FRAME
  2
AcDbOle2Frame
  3
""
 90
    32768
280
               0
281
               1
  0
CLASS
  1
HATCH
  2
AcDbHatch
  3
"ACAD_SEDONA"
 90
    32768
280
               0
281
               1
  0
CLASS
  1
DICTIONARYVAR
  2
AcDbDictionaryVar
  3
"AutoCAD"
 90
    32768
280
               0
281
               0
  0
CLASS
  1
RASTERVARIABLES
  2
AcDbRasterVariables
  3
ISM
 90
    32768
280
               0
281
               0
  0
CLASS
  1
IMAGEDEF
  2
AcDbRasterImageDef
  3
ISM
 90
    32768
280
               0
281
               0
  0
CLASS
  1
IMAGEDEF_REACTOR
  2
AcDbRasterImageDefReactor
  3
ISM
 90
    32769
280
               0
281
               0
  0
CLASS
  1
IDBUFFER
  2
AcDbIdBuffer
  3
"Acad"
 90
    32768
280
               0
281
               0
  0
CLASS
  1
SPATIAL_FILTER
  2
AcDbSpatialFilter
  3
"Acad"
 90
    32768
280
               0
281
               0
  0
CLASS
  1
XRECORD
  2
AcDbXrecord
  3
"<Built In>"
 90
    32768
280
               0
281
               0
  0
CLASS
  1
SORTENTSTABLE
  2
AcDbSortentsTable
  3
"AutoCAD"
 90
    32768
280
               0
281
               0
  0
CLASS
  1
LAYER_INDEX
  2
AcDbLayerIndex
  3
"Acad"
 90
    32768
280
               0
281
               0
  0
CLASS
  1
SPATIAL_INDEX
  2
AcDbSpatialIndex
  3
"Acad"
 90
    32768
280
               0
281
               0
  0
CLASS
  1
OBJECT_PTR
  2
CAseDLPNTableRecord
  3
"ASE-LPNTableRecord"
 90
    32769
280
               0
281
               0
  0
CLASS
  1
LAYOUT
  2
AcDbLayout
  3
"AutoCAD 2000"
 90
    32768
280
               0
281
               0
  0
CLASS
  1
PLOTSETTINGS
  2
AcDbPlotSettings
  3
"AutoCAD 2000"
 90
    32768
280
               0
281
               0
  0
CLASS
  1
ACDBDICTIONARYWDFLT
  2
AcDbDictionaryWithDefault
  3
"AutoCAD 2000"
 90
    32768
280
               0
281
               0
  0
CLASS
  1
ACDBPLACEHOLDER
  2
AcDbPlaceHolder
  3
"AutoCAD 2000"
 90
    32768
280
               0
281
               0
  0
ENDSEC
  0
SECTION
  2
TABLES
  0
TABLE
  2
VPORT
  5
7
100
AcDbSymbolTable
 70
               1
  0
VPORT
  5
15
100
AcDbSymbolTableRecord
100
AcDbViewportTableRecord
  2
*ACTIVE
 70
               0
 10
0.0
 20
0.0
 11
1.0
 21
1.0
 12
0.0
 22
0.0
 13
0.0
 23
0.0
 14
1.0
 24
1.0
 15
0.0
 25
0.0
 16
0.0
 26
0.0
 36
1.0
 17
0.0
 27
0.0
 37
0.0
 40
212.10000000000002
 41
1.7320508075688772
 42
50.0
 43
0.0
 44
0.0
 50
0.0
 51
0.0
 71
               0
 72
             100
 73
               1
 74
               1
 75
               0
 76
               0
 77
               0
 78
               0
  0
ENDTAB
  0
TABLE
  2
LTYPE
  5
4
100
AcDbSymbolTable
 70
               4
  0
LTYPE
  5
11
100
AcDbSymbolTableRecord
100
AcDbLinetypeTableRecord
  2
BYBLOCK
 70
              64
  3

 72
              65
 73
               0
 40
0.0
  0
LTYPE
  5
12
100
AcDbSymbolTableRecord
100
AcDbLinetypeTableRecord
  2
BYLAYER
 70
              64
  3

 72
              65
 73
               0
 40
0.0
  0
LTYPE
  5
13
100
AcDbSymbolTableRecord
100
AcDbLinetypeTableRecord
  2
CONTINUOUS
 70
              64
  3
Solid line
 72
              65
 73
               0
 40
0.0
  0
LTYPE
  5
6A
100
AcDbSymbolTableRecord
100
AcDbLinetypeTableRecord
  2
CENTER
 70
              64
  3
Center ____ _ ____ _ ____ _ ____ _ ____ _ ____
 72
              65
 73
               4
 40
50.800000000000004
 49
31.75
 74
               0
 49
-6.3499999999999996
 74
               0
 49
6.3499999999999996
 74
               0
 49
-6.3499999999999996
 74
               0
  0
ENDTAB
  0
TABLE
  2
LAYER
  5
2
100
AcDbSymbolTable
 70
               2
  0
LAYER
  5
14
100
AcDbSymbolTableRecord
100
AcDbLayerTableRecord
  2
0
 70
               0
 62
               7
  6
CONTINUOUS
  0
LAYER
  5
1D
100
AcDbSymbolTableRecord
100
AcDbLayerTableRecord
  2
DEFPOINTS
 70
               0
 62
               7
  6
CONTINUOUS
  0
ENDTAB
  0
TABLE
  2
STYLE
  5
3
100
AcDbSymbolTable
 70
               1
  0
STYLE
  5
17
100
AcDbSymbolTableRecord
100
AcDbTextStyleTableRecord
  2
MX_NOTE_STANDARD
 70
               0
 40
0.0
 41
1.0
 50
0.0
 71
               0
 42
3.2000000476837158
  3
txt.shx
  4
extfont.shx
  0
ENDTAB
  0
TABLE
  2
VIEW
  5
5
100
AcDbSymbolTable
 70
               0
  0
ENDTAB
  0
TABLE
  2
UCS
  5
6
100
AcDbSymbolTable
 70
               0
  0
ENDTAB
  0
TABLE
  2
APPID
  5
8
100
AcDbSymbolTable
 70
               1
  0
APPID
  5
16
100
AcDbSymbolTableRecord
100
AcDbRegAppTableRecord
  2
ACAD
 70
               0
  0
ENDTAB
  0
TABLE
  2
DIMSTYLE
  5
9
100
AcDbSymbolTable
 70
               1
  0
DIMSTYLE
105
18
100
AcDbSymbolTableRecord
100
AcDbDimStyleTableRecord
  2
MXDIMSTYLE
 70
               0
  3

  4

  5

  6
_OPEN30
  7
_OPEN30
 40
1.0
 41
2.5
 42
1.5
 43
3.75
 44
1.5
 45
0.0
 46
0.0
 47
0.0
 48
0.0
 71
               0
 72
               0
 73
               0
 74
               0
 75
               0
 76
               0
 77
               1
 78
               8
140
3.2000000476837158
141
2.5
142
0.0
143
0.03937007874016
144
1.0
145
0.0
146
1.0
147
1.0
170
               0
171
               4
172
               1
173
               1
174
               0
175
               0
176
               0
177
               0
178
               0
270
               2
271
               2
272
               2
273
               2
274
               4
275
               0
280
               0
281
               0
282
               0
283
               0
284
               0
285
               0
286
               0
287
               3
288
               1
340
17
  0
ENDTAB
  0
TABLE
  2
BLOCK_RECORD
  5
1
100
AcDbSymbolTable
 70
               5
  0
BLOCK_RECORD
  5
A
100
AcDbSymbolTableRecord
100
AcDbBlockTableRecord
  2
*MODEL_SPACE
  0
BLOCK_RECORD
  5
B
100
AcDbSymbolTableRecord
100
AcDbBlockTableRecord
  2
*PAPER_SPACE
  0
BLOCK_RECORD
  5
1E
100
AcDbSymbolTableRecord
100
AcDbBlockTableRecord
  2
41PP-1
  0
BLOCK_RECORD
  5
1F
100
AcDbSymbolTableRecord
100
AcDbBlockTableRecord
  2
41PP-2
  0
BLOCK_RECORD
  5
20
100
AcDbSymbolTableRecord
100
AcDbBlockTableRecord
  2
41PP-3
  0
BLOCK_RECORD
  5
21
100
AcDbSymbolTableRecord
100
AcDbBlockTableRecord
  2
41PP-4
  0
BLOCK_RECORD
  5
22
100
AcDbSymbolTableRecord
100
AcDbBlockTableRecord
  2
_OPEN30
  0
ENDTAB
  0
ENDSEC
  0
SECTION
  2
BLOCKS
  0
BLOCK
  5
D
100
AcDbEntity
  8
0
100
AcDbBlockBegin
  2
*MODEL_SPACE
 70
               0
 10
0.0
 20
0.0
 30
0.0
  3
*MODEL_SPACE
  1

  0
ENDBLK
  5
E
100
AcDbEntity
  8
0
100
AcDbBlockEnd
  0
BLOCK
  5
F
100
AcDbEntity
 67
               1
  8
0
100
AcDbBlockBegin
  2
*PAPER_SPACE
 70
               0
 10
0.0
 20
0.0
 30
0.0
  3
*PAPER_SPACE
  1

  0
ENDBLK
  5
10
100
AcDbEntity
 67
               1
  8
0
100
AcDbBlockEnd
  0
BLOCK
  5
28
100
AcDbEntity
  8
0
100
AcDbBlockBegin
  2
41PP-1
 70
               0
 10
0.0
 20
0.0
 30
0.0
  3
41PP-1
  1

  0
LINE
  5
29
100
AcDbEntity
  8
0
  6
CONTINUOUS
 62
               7
100
AcDbLine
 10
-7.5
 20
-0.9999999999999503
 30
0.0
 11
7.5
 21
-0.9999999999999503
 31
0.0
  0
LINE
  5
2A
100
AcDbEntity
  8
0
  6
CONTINUOUS
 62
               7
100
AcDbLine
 10
4.0414518853777039
 20
-1.2899999999999991
 30
0.0
 11
4.0414518853777039
 21
-2.7100000000000009
 31
0.0
  0
LINE
  5
2B
100
AcDbEntity
  8
0
  6
CONTINUOUS
 62
               7
100
AcDbLine
 10
8.0699689014039926
 20
-1.2899916494125279
 30
0.0
 11
8.0699689014039926
 21
-2.7100083505874721
 31
0.0
  0
LINE
  5
2C
100
AcDbEntity
  8
0
  6
CONTINUOUS
 62
               7
100
AcDbLine
 10
8.0699689012604559
 20
-1.2899916494125279
 30
0.0
 11
6.990000000000002
 21
-1.0
 31
0.0
  0
LINE
  5
2D
100
AcDbEntity
  8
0
  6
CONTINUOUS
 62
               7
100
AcDbLine
 10
-6.990000000000002
 20
-1.0
 30
0.0
 11
-8.0829037874937057
 21
-1.2934649059010859
 31
0.0
  0
LINE
  5
2E
100
AcDbEntity
  8
0
  6
CONTINUOUS
 62
               7
100
AcDbLine
 10
-8.0829037874937057
 20
-1.2934649059010859
 30
0.0
 11
-8.0829037874937057
 21
-2.7067686813605647
 31
0.0
  0
LINE
  5
2F
100
AcDbEntity
  8
0
  6
CONTINUOUS
 62
               7
100
AcDbLine
 10
-4.0414519151800281
 20
-1.2899999999999991
 30
0.0
 11
-4.0414519151800281
 21
-2.7100000000000009
 31
0.0
  0
LINE
  5
30
100
AcDbEntity
  8
0
  6
CONTINUOUS
 62
               7
100
AcDbLine
 10
-6.990000000000002
 20
-3.0
 30
0.0
 11
6.990000000000002
 21
-3.0
 31
0.0
  0
LINE
  5
31
100
AcDbEntity
  8
0
  6
CONTINUOUS
 62
               7
100
AcDbLine
 10
-8.0829037874937057
 20
-2.7065350940989177
 30
0.0
 11
-6.990000000000002
 21
-3.0
 31
0.0
  0
LINE
  5
32
100
AcDbEntity
  8
0
  6
CONTINUOUS
 62
               7
100
AcDbLine
 10
6.990000000000002
 20
-3.0
 30
0.0
 11
8.0699689012604559
 21
-2.7100083505874721
 31
0.0
  0
LINE
  5
33
100
AcDbEntity
  8
0
  6
CONTINUOUS
 62
               7
100
AcDbLine
 10
-6.0
 20
-3.0000000000000639
 30
0.0
 11
-6.0
 21
-6.6000000000000014
 31
0.0
  0
LINE
  5
34
100
AcDbEntity
  8
0
  6
CONTINUOUS
 62
               7
100
AcDbLine
 10
6.0
 20
-6.6000000000000014
 30
0.0
 11
6.0
 21
-3.0000000000000639
 31
0.0
  0
LINE
  5
35
100
AcDbEntity
  8
0
  6
CONTINUOUS
 62
               7
100
AcDbLine
 10
-6.0
 20
-6.6000000000000014
 30
0.0
 11
6.0
 21
-6.6000000000000014
 31
0.0
  0
LINE
  5
36
100
AcDbEntity
  8
0
  6
CONTINUOUS
 62
               7
100
AcDbLine
 10
5.5000000000000391
 20
-7.1000000000000156
 30
0.0
 11
-5.5000000000000373
 21
-7.1000000000000156
 31
0.0
  0
LINE
  5
37
100
AcDbEntity
  8
0
  6
CONTINUOUS
 62
               7
100
AcDbLine
 10
-6.0
 20
-6.6000000000000014
 30
0.0
 11
-5.5000000000000373
 21
-7.1000000000000156
 31
0.0
  0
LINE
  5
38
100
AcDbEntity
  8
0
  6
CONTINUOUS
 62
               7
100
AcDbLine
 10
5.5000000000000391
 20
-7.1000000000000156
 30
0.0
 11
6.0
 21
-6.6000000000000014
 31
0.0
  0
ARC
  5
39
100
AcDbEntity
  8
0
  6
CONTINUOUS
 62
               7
100
AcDbCircle
 10
-6.05170627292601
 20
-8.1124527290276021
 30
0.0
 40
7.1124527290276562
100
AcDbArc
 50
73.582246406747544
 51
105.03043052343321
  0
ARC
  5
3A
100
AcDbEntity
  8
0
  6
CONTINUOUS
 62
               7
100
AcDbCircle
 10
-6.051706272926026
 20
4.1124527290289343
 30
0.0
 40
7.1124527290289352
100
AcDbArc
 50
254.96956947656679
 51
286.41775359324959
  0
ARC
  5
3B
100
AcDbEntity
  8
0
  6
CONTINUOUS
 62
               7
100
AcDbCircle
 10
6.0517062586905137
 20
-8.1124528369354962
 30
0.0
 40
7.1124528369355433
100
AcDbArc
 50
74.969569476566832
 51
106.41775346785076
  0
ARC
  5
3C
100
AcDbEntity
  8
0
  6
CONTINUOUS
 62
               7
100
AcDbCircle
 10
6.0517062586905297
 20
4.112452836936825
 30
0.0
 40
7.112452836936825
100
AcDbArc
 50
253.58224653215217
 51
285.03043052343321
  0
ARC
  5
3D
100
AcDbEntity
  8
0
  6
CONTINUOUS
 62
               7
100
AcDbCircle
 10
-0.0000000149011621
 20
-29.305919762525669
 30
0.0
 40
28.305919762525718
100
AcDbArc
 50
81.791392721352693
 51
98.208607278647321
  0
ARC
  5
3E
100
AcDbEntity
  8
0
  6
CONTINUOUS
 62
               7
100
AcDbCircle
 10
-0.0000000149011701
 20
25.305919762530294
 30
0.0
 40
28.305919762530294
100
AcDbArc
 50
261.79139272135399
 51
278.20860727864601
  0
LINE
  5
3F
100
AcDbEntity
  8
0
  6
CONTINUOUS
 62
               7
100
AcDbLine
 10
-5.2999999999996685
 20
-7.7367343237735327
 30
0.0
 11
-5.2999999999996685
 21
-7.1000000000000227
 31
0.0
  0
ARC
  5
40
100
AcDbEntity
  8
0
  6
CONTINUOUS
 62
               7
100
AcDbCircle
 10
0.006865430262367
 20
1.9832322552625357
 30
0.0
 40
11.993234220292821
100
AcDbArc
 50
249.72920289182824
 51
290.82173918532754
  0
ARC
  5
41
100
AcDbEntity
  8
0
  6
CONTINUOUS
 62
               7
100
AcDbCircle
 10
-3.7025297488301576
 20
-7.7331848244240931
 30
0.0
 40
1.5974741945700446
100
AcDbArc
 50
179.87269184056868
 51
253.79736318301457
  0
ARC
  5
42
100
AcDbEntity
  8
0
  6
CONTINUOUS
 62
               7
100
AcDbCircle
 10
3.7021472292269961
 20
-7.7331850929705865
 30
0.0
 40
1.5978567126333107
100
AcDbArc
 50
290.82247024845447
 51
359.87273194702078
  0
LINE
  5
43
100
AcDbEntity
  8
0
  6
CONTINUOUS
 62
               7
100
AcDbLine
 10
5.3000000000003258
 20
-7.7367343237780375
 30
0.0
 11
5.3000000000003258
 21
-7.1000000000000227
 31
0.0
  0
LINE
  5
44
100
AcDbEntity
  8
0
  6
CONTINUOUS
 62
               7
100
AcDbLine
 10
0.0017362686790076
 20
44.989999942179807
 30
0.0
 11
-0.0000000000096367
 21
44.989999985209202
 31
0.0
  0
LINE
  5
45
100
AcDbEntity
  8
0
  6
CONTINUOUS
 62
               7
100
AcDbLine
 10
8.0829038054117142
 20
44.990000000000023
 30
0.0
 11
-8.0829037756286617
 21
44.990000000000023
 31
0.0
  0
LINE
  5
46
100
AcDbEntity
  8
0
  6
CONTINUOUS
 62
               7
100
AcDbLine
 10
6.1351618109641883
 20
44.989591380652023
 30
0.0
 11
6.0621778294444102
 21
44.990000000000023
 31
0.0
  0
LINE
  5
47
100
AcDbEntity
  8
0
  6
CONTINUOUS
 62
               7
100
AcDbLine
 10
6.1698021054321135
 20
44.989111570813328
 30
0.0
 11
6.1351624477263282
 21
44.989591380609617
 31
0.0
  0
LINE
  5
48
100
AcDbEntity
  8
0
  6
CONTINUOUS
 62
               7
100
AcDbLine
 10
6.0
 20
44.990000000000023
 30
0.0
 11
6.0
 21
48.589999999999961
 31
0.0
  0
LINE
  5
49
100
AcDbEntity
  8
0
  6
CONTINUOUS
 62
               7
100
AcDbLine
 10
-6.0
 20
48.589999999999961
 30
0.0
 11
-6.0
 21
44.990000000000023
 31
0.0
  0
LINE
  5
4A
100
AcDbEntity
  8
0
  6
CONTINUOUS
 62
               7
100
AcDbLine
 10
6.0
 20
48.589999999999961
 30
0.0
 11
-6.0
 21
48.589999999999961
 31
0.0
  0
LINE
  5
4B
100
AcDbEntity
  8
0
  6
CONTINUOUS
 62
               7
100
AcDbLine
 10
-5.5000000000000124
 20
49.090000000000003
 30
0.0
 11
5.5000000000000142
 21
49.090000000000003
 31
0.0
  0
LINE
  5
4C
100
AcDbEntity
  8
0
  6
CONTINUOUS
 62
               7
100
AcDbLine
 10
6.0
 20
48.589999999999961
 30
0.0
 11
5.5000000000000142
 21
49.090000000000003
 31
0.0
  0
LINE
  5
4D
100
AcDbEntity
  8
0
  6
CONTINUOUS
 62
               7
100
AcDbLine
 10
-5.5000000000000124
 20
49.090000000000003
 30
0.0
 11
-6.0
 21
48.589999999999961
 31
0.0
  0
LINE
  5
4E
100
AcDbEntity
  8
0
  6
CONTINUOUS
 62
               7
100
AcDbLine
 10
7.0017366985338452
 20
44.989533664282604
 30
0.0
 11
7.0
 21
44.990000000000023
 31
0.0
  0
LINE
  5
4F
100
AcDbEntity
  8
0
  6
CONTINUOUS
 62
               7
100
AcDbLine
 10
2.6000000000000001
 20
49.090000000000018
 30
0.0
 11
2.6000000000000001
 21
51.489999999999974
 31
0.0
  0
LINE
  5
50
100
AcDbEntity
  8
0
  6
CONTINUOUS
 62
               7
100
AcDbLine
 10
-2.6000000000000001
 20
51.489999999999974
 30
0.0
 11
-2.6000000000000001
 21
49.090000000000018
 31
0.0
  0
ARC
  5
51
100
AcDbEntity
  8
0
  6
CONTINUOUS
 62
               7
100
AcDbCircle
 10
6.0621725677068472
 20
37.813329831050723
 30
0.0
 40
7.1762664094319986
100
AcDbArc
 50
73.645317074406151
 51
106.35475650475266
  0
ARC
  5
52
100
AcDbEntity
  8
0
  6
CONTINUOUS
 62
               7
100
AcDbCircle
 10
-6.0647425927341558
 20
37.828214824594731
 30
0.0
 40
7.1617851754052877
100
AcDbArc
 50
73.632430053897792
 51
106.36757579349275
  0
ARC
  5
53
100
AcDbEntity
  8
0
  6
CONTINUOUS
 62
               7
100
AcDbCircle
 10
-0.0044189345923744
 20
16.697752367497277
 30
0.0
 40
28.292247632502747
100
AcDbArc
 50
81.778356860046898
 51
98.214015817865501
  0
LINE
  5
54
100
AcDbEntity
  8
0
  6
CONTINUOUS
 62
               2
100
AcDbLine
 10
-5.5000000000000142
 20
49.090000000000003
 30
0.0
 11
-5.5000000000000142
 21
44.990000000000023
 31
0.0
  0
LINE
  5
55
100
AcDbEntity
  8
0
  6
CONTINUOUS
 62
               2
100
AcDbLine
 10
5.5000000000000142
 20
49.090000000000003
 30
0.0
 11
5.5000000000000142
 21
44.990000000000023
 31
0.0
  0
ARC
  5
56
100
AcDbEntity
  8
0
  6
CONTINUOUS
 62
               7
100
AcDbCircle
 10
0.0068654461747157
 20
42.49676454145721
 30
0.0
 40
11.993237423581604
100
AcDbArc
 50
69.178266715790414
 51
111.35286069296993
  0
ARC
  5
57
100
AcDbEntity
  8
0
  6
CONTINUOUS
 62
               7
100
AcDbCircle
 10
3.702142958901065
 20
52.213182370882187
 30
0.0
 40
1.5978609895081108
100
AcDbArc
 50
0.1273735637414109
 51
69.182911473307925
  0
LINE
  5
58
100
AcDbEntity
  8
0
  6
CONTINUOUS
 62
               7
100
AcDbLine
 10
5.2999999999999847
 20
52.206734553655252
 30
0.0
 11
5.2999999999999847
 21
51.489999999999995
 31
0.0
  0
LINE
  5
59
100
AcDbEntity
  8
0
  6
CONTINUOUS
 62
               7
100
AcDbLine
 10
5.2999999999999847
 20
51.489999999999995
 30
0.0
 11
-5.3000000000000096
 21
51.489999999999995
 31
0.0
  0
ARC
  5
5A
100
AcDbEntity
  8
0
  6
CONTINUOUS
 62
               7
100
AcDbCircle
 10
-3.7025252770816324
 20
52.213181413843508
 30
0.0
 40
1.5974786744008997
100
AcDbArc
 50
101.82919103840995
 51
179.8725616270487
  0
LINE
  5
5B
100
AcDbEntity
  8
0
  6
CONTINUOUS
 62
               7
100
AcDbLine
 10
-5.3000000000000096
 20
52.206734553655252
 30
0.0
 11
-5.3000000000000096
 21
51.489999999999995
 31
0.0
  0
LINE
  5
5C
100
AcDbEntity
  8
0
  6
CONTINUOUS
 62
               7
100
AcDbLine
 10
15.390000000000001
 20
0.0
 30
0.0
 11
15.390000000000001
 21
41.990000000000002
 31
0.0
  0
LINE
  5
5D
100
AcDbEntity
  8
0
  6
CONTINUOUS
 62
               7
100
AcDbLine
 10
15.890000000000001
 20
41.490000000000002
 30
0.0
 11
15.390000000000001
 21
41.990000000000002
 31
0.0
  0
LINE
  5
5E
100
AcDbEntity
  8
0
  6
CONTINUOUS
 62
               7
100
AcDbLine
 10
15.890000000000001
 20
41.490000000000002
 30
0.0
 11
15.890000000000001
 21
0.5
 31
0.0
  0
LINE
  5
5F
100
AcDbEntity
  8
0
  6
CONTINUOUS
 62
               7
100
AcDbLine
 10
15.390000000000001
 20
0.0
 30
0.0
 11
15.890000000000001
 21
0.5
 31
0.0
  0
LINE
  5
60
100
AcDbEntity
  8
0
  6
CONTINUOUS
 62
               7
100
AcDbLine
 10
-15.400000000000004
 20
41.990000000000002
 30
0.0
 11
-15.900000000000004
 21
41.490000000000002
 31
0.0
  0
LINE
  5
61
100
AcDbEntity
  8
0
  6
CONTINUOUS
 62
               7
100
AcDbLine
 10
-15.400000000000004
 20
41.990000000000002
 30
0.0
 11
0.0
 21
41.990000000000016
 31
0.0
  0
LINE
  5
62
100
AcDbEntity
  8
0
  6
CONTINUOUS
 62
               7
100
AcDbLine
 10
-15.400000000000004
 20
0.0
 30
0.0
 11
-15.400000000000004
 21
41.990000000000002
 31
0.0
  0
LINE
  5
63
100
AcDbEntity
  8
0
  6
CONTINUOUS
 62
               7
100
AcDbLine
 10
-15.400000000000004
 20
0.0
 30
0.0
 11
-15.900000000000004
 21
0.5000000000000036
 31
0.0
  0
LINE
  5
64
100
AcDbEntity
  8
0
  6
CONTINUOUS
 62
               7
100
AcDbLine
 10
-15.900000000000004
 20
0.5000000000000036
 30
0.0
 11
-15.900000000000004
 21
41.490000000000002
 31
0.0
  0
LINE
  5
65
100
AcDbEntity
  8
0
  6
CONTINUOUS
 62
               7
100
AcDbLine
 10
-8.083036945501167
 20
42.990000000000023
 30
0.0
 11
8.0827705996836272
 21
42.990000000000023
 31
0.0
  0
LINE
  5
66
100
AcDbEntity
  8
0
  6
CONTINUOUS
 62
               7
100
AcDbLine
 10
7.4999999999999929
 20
41.990000000000016
 30
0.0
 11
7.4999999999999929
 21
42.990000000000023
 31
0.0
  0
LINE
  5
67
100
AcDbEntity
  8
0
  6
CONTINUOUS
 62
               7
100
AcDbLine
 10
-7.4999999999999929
 20
42.990000000000023
 30
0.0
 11
-7.4999999999999929
 21
41.990000000000016
 31
0.0
  0
LINE
  5
68
100
AcDbEntity
  8
0
  6
CONTINUOUS
 62
               7
100
AcDbLine
 10
7.4085190476606684
 20
42.990000000000023
 30
0.0
 11
7.4085190600035613
 21
42.989506566976338
 31
0.0
  0
LINE
  5
69
100
AcDbEntity
  8
0
  6
CONTINUOUS
 62
               7
100
AcDbLine
 10
4.7156368215366413
 20
42.989685920645954
 30
0.0
 11
4.7156368607710029
 21
42.990000000000023
 31
0.0
  0
LINE
  5
6B
100
AcDbEntity
  8
0
  6
CENTER
 62
               2
100
AcDbLine
 10
8.6999999999999957
 20
9.8499996566772481
 30
0.0
 11
8.6999999999999957
 21
16.330000343322755
 31
0.0
  0
LINE
  5
6C
100
AcDbEntity
  8
0
  6
CENTER
 62
               2
100
AcDbLine
 10
5.4599996566772422
 20
13.090000000000003
 30
0.0
 11
11.940000343322749
 21
13.090000000000003
 31
0.0
  0
LINE
  5
6D
100
AcDbEntity
  8
0
  6
CENTER
 62
               2
100
AcDbLine
 10
8.6999999999999957
 20
25.649999656677245
 30
0.0
 11
8.6999999999999957
 21
32.130000343322756
 31
0.0
  0
LINE
  5
6E
100
AcDbEntity
  8
0
  6
CENTER
 62
               2
100
AcDbLine
 10
5.4599996566772422
 20
28.890000000000001
 30
0.0
 11
11.940000343322749
 21
28.890000000000001
 31
0.0
  0
LINE
  5
6F
100
AcDbEntity
  8
0
  6
CENTER
 62
               2
100
AcDbLine
 10
-8.6999999999999957
 20
17.749999656677247
 30
0.0
 11
-8.6999999999999957
 21
24.230000343322757
 31
0.0
  0
LINE
  5
70
100
AcDbEntity
  8
0
  6
CENTER
 62
               2
100
AcDbLine
 10
-11.940000343322749
 20
20.990000000000002
 30
0.0
 11
-5.4599996566772422
 21
20.990000000000002
 31
0.0
  0
CIRCLE
  5
71
100
AcDbEntity
  8
0
  6
CONTINUOUS
 62
               7
100
AcDbCircle
 10
8.6999999999999957
 20
28.890000000000001
 30
0.0
 40
1.8000001907348633
  0
CIRCLE
  5
72
100
AcDbEntity
  8
0
  6
CONTINUOUS
 62
               7
100
AcDbCircle
 10
8.6999999999999957
 20
13.090000000000003
 30
0.0
 40
1.8000001907348633
  0
CIRCLE
  5
73
100
AcDbEntity
  8
0
  6
CONTINUOUS
 62
               7
100
AcDbCircle
 10
-8.6999999999999957
 20
20.990000000000002
 30
0.0
 40
1.8000001907348633
  0
ARC
  5
74
100
AcDbEntity
  8
0
  6
CONTINUOUS
 62
               7
100
AcDbCircle
 10
-6.0624578377284326
 20
49.927127194166879
 30
0.0
 40
6.9365888496280066
100
AcDbArc
 50
253.06479699941696
 51
286.89494269098066
  0
ARC
  5
75
100
AcDbEntity
  8
0
  6
CONTINUOUS
 62
               7
100
AcDbCircle
 10
-0.0055041137679943
 20
70.36352233028515
 30
0.0
 40
27.373522330285141
100
AcDbArc
 50
261.51059486222448
 51
278.5018869951889
  0
ARC
  5
76
100
AcDbEntity
  8
0
  6
CONTINUOUS
 62
               7
100
AcDbCircle
 10
6.061954301681963
 20
49.926208463307745
 30
0.0
 40
6.9362084633077234
100
AcDbArc
 50
253.06432943986243
 51
286.93855409830928
  0
LINE
  5
77
100
AcDbEntity
  8
0
  6
CONTINUOUS
 62
               7
100
AcDbLine
 10
-15.900000000000004
 20
0.5000000000000036
 30
0.0
 11
15.890000000000001
 21
0.5
 31
0.0
  0
LINE
  5
78
100
AcDbEntity
  8
0
  6
CONTINUOUS
 62
               7
100
AcDbLine
 10
-15.400000000000004
 20
0.0
 30
0.0
 11
15.390000000000001
 21
0.0
 31
0.0
  0
LINE
  5
79
100
AcDbEntity
  8
0
  6
CONTINUOUS
 62
               7
100
AcDbLine
 10
0.0
 20
41.990000000000016
 30
0.0
 11
15.390000000000001
 21
41.990000000000002
 31
0.0
  0
LINE
  5
7A
100
AcDbEntity
  8
0
  6
CONTINUOUS
 62
               7
100
AcDbLine
 10
-15.900000000000004
 20
41.490000000000002
 30
0.0
 11
15.890000000000001
 21
41.490000000000002
 31
0.0
  0
LINE
  5
7B
100
AcDbEntity
  8
0
  6
CENTER
 62
               2
100
AcDbLine
 10
7.2099999999999831
 20
20.990000000000002
 30
0.0
 11
18.369999999999955
 21
20.990000000000002
 31
0.0
  0
LINE
  5
7C
100
AcDbEntity
  8
0
  6
CONTINUOUS
 62
               7
100
AcDbLine
 10
-4.0465620789333521
 20
44.699761226826453
 30
0.0
 11
-4.0465620789333521
 21
43.289926793511832
 31
0.0
  0
LINE
  5
7D
100
AcDbEntity
  8
0
  6
CENTER
 62
               2
100
AcDbLine
 10
-18.380000000000017
 20
8.3900000000000006
 30
0.0
 11
-7.2200000000000486
 21
8.3900000000000006
 31
0.0
  0
LINE
  5
7E
100
AcDbEntity
  8
0
  6
CENTER
 62
               2
100
AcDbLine
 10
-18.380000000000017
 20
33.590000000000003
 30
0.0
 11
-7.2200000000000486
 21
33.590000000000003
 31
0.0
  0
LINE
  5
7F
100
AcDbEntity
  8
0
  6
CONTINUOUS
 62
               7
100
AcDbLine
 10
8.0827705996836272
 20
42.990000000000023
 30
0.0
 11
8.0829038054117142
 21
44.990000000000023
 31
0.0
  0
LINE
  5
80
100
AcDbEntity
  8
0
  6
CONTINUOUS
 62
               7
100
AcDbLine
 10
-8.0829037756286635
 20
44.990000000000023
 30
0.0
 11
-8.0830369813567504
 21
42.990000000000023
 31
0.0
  0
LINE
  5
81
100
AcDbEntity
  8
0
  6
CONTINUOUS
 62
               7
100
AcDbLine
 10
4.0414518537382467
 20
44.6992202872866
 30
0.0
 11
4.041451901197437
 21
43.290806599358739
 31
0.0
  0
LINE
  5
82
100
AcDbEntity
  8
0
  6
CONTINUOUS
 62
               7
100
AcDbLine
 10
7.5
 20
-0.9999999999999503
 30
0.0
 11
7.5
 21
-0.0000000000000639
 31
0.0
  0
LINE
  5
83
100
AcDbEntity
  8
0
  6
CONTINUOUS
 62
               7
100
AcDbLine
 10
-7.5
 20
-0.0000000000000639
 30
0.0
 11
-7.5
 21
-0.9999999999999503
 31
0.0
  0
LINE
  5
84
100
AcDbEntity
  8
0
  6
CENTER
 62
               2
100
AcDbLine
 10
0.0
 20
-13.100000000000016
 30
0.0
 11
0.0
 21
57.489999999999988
 31
0.0
  0
LINE
  5
85
100
AcDbEntity
  8
0
  6
CENTER
 62
               2
100
AcDbLine
 10
7.2099999999999831
 20
7.990000000000002
 30
0.0
 11
18.769999999999953
 21
7.990000000000002
 31
0.0
  0
LINE
  5
86
100
AcDbEntity
  8
0
  6
CENTER
 62
               2
100
AcDbLine
 10
7.2099999999999831
 20
33.990000000000002
 30
0.0
 11
18.769999999999953
 21
33.990000000000002
 31
0.0
  0
ENDBLK
  5
87
100
AcDbEntity
  8
0
100
AcDbBlockEnd
  0
BLOCK
  5
88
100
AcDbEntity
  8
0
100
AcDbBlockBegin
  2
41PP-2
 70
               0
 10
0.0
 20
0.0
 30
0.0
  3
41PP-2
  1

  0
LINE
  5
89
100
AcDbEntity
  8
0
  6
CONTINUOUS
 62
               7
100
AcDbLine
 10
-2.6000000000001222
 20
51.489999999999966
 30
0.0
 11
-2.6000000000001222
 21
49.090000000000018
 31
0.0
  0
LINE
  5
8A
100
AcDbEntity
  8
0
  6
CONTINUOUS
 62
               7
100
AcDbLine
 10
2.5999999999998664
 20
49.090000000000018
 30
0.0
 11
2.5999999999998664
 21
51.489999999999966
 31
0.0
  0
LINE
  5
8B
100
AcDbEntity
  8
0
  6
CONTINUOUS
 62
               7
100
AcDbLine
 10
5.2999999999997129
 20
51.489999999999995
 30
0.0
 11
-5.3000000000002814
 21
51.489999999999995
 31
0.0
  0
LINE
  5
8C
100
AcDbEntity
  8
0
  6
CONTINUOUS
 62
               7
100
AcDbLine
 10
5.9999999999998863
 20
-6.600000000000005
 30
0.0
 11
5.9999999999998863
 21
-3.0000000000000675
 31
0.0
  0
LINE
  5
8D
100
AcDbEntity
  8
0
  6
CONTINUOUS
 62
               7
100
AcDbLine
 10
-6.0000000000001279
 20
-3.0000000000000675
 30
0.0
 11
-6.0000000000001279
 21
-6.600000000000005
 31
0.0
  0
LINE
  5
8E
100
AcDbEntity
  8
0
  6
CONTINUOUS
 62
               7
100
AcDbLine
 10
-5.5000000000001563
 20
-7.1000000000000192
 30
0.0
 11
5.4999999999999289
 21
-7.1000000000000192
 31
0.0
  0
LINE
  5
8F
100
AcDbEntity
  8
0
  6
CONTINUOUS
 62
               7
100
AcDbLine
 10
5.4999999999999289
 20
-7.1000000000000192
 30
0.0
 11
5.9999999999998863
 21
-6.600000000000005
 31
0.0
  0
LINE
  5
90
100
AcDbEntity
  8
0
  6
CONTINUOUS
 62
               7
100
AcDbLine
 10
-6.0000000000001279
 20
-6.600000000000005
 30
0.0
 11
-5.5000000000001563
 21
-7.1000000000000192
 31
0.0
  0
LINE
  5
91
100
AcDbEntity
  8
0
  6
CONTINUOUS
 62
               7
100
AcDbLine
 10
-6.0000000000001279
 20
-6.600000000000005
 30
0.0
 11
5.9999999999998863
 21
-6.600000000000005
 31
0.0
  0
LINE
  5
92
100
AcDbEntity
  8
0
  6
CONTINUOUS
 62
               7
100
AcDbLine
 10
-5.5000000000001279
 20
49.090000000000003
 30
0.0
 11
-6.0000000000001279
 21
48.589999999999961
 31
0.0
  0
LINE
  5
93
100
AcDbEntity
  8
0
  6
CONTINUOUS
 62
               7
100
AcDbLine
 10
5.9999999999998721
 20
48.589999999999961
 30
0.0
 11
5.4999999999998863
 21
49.090000000000003
 31
0.0
  0
LINE
  5
94
100
AcDbEntity
  8
0
  6
CONTINUOUS
 62
               7
100
AcDbLine
 10
-5.5000000000001279
 20
49.090000000000003
 30
0.0
 11
5.4999999999998863
 21
49.090000000000003
 31
0.0
  0
LINE
  5
95
100
AcDbEntity
  8
0
  6
CONTINUOUS
 62
               7
100
AcDbLine
 10
-6.0000000000001279
 20
48.589999999999961
 30
0.0
 11
-6.0000000000001279
 21
44.990769063624569
 31
0.0
  0
LINE
  5
96
100
AcDbEntity
  8
0
  6
CONTINUOUS
 62
               7
100
AcDbLine
 10
5.9999999999998721
 20
44.990307625451138
 30
0.0
 11
5.9999999999998721
 21
48.589999999999961
 31
0.0
  0
LINE
  5
97
100
AcDbEntity
  8
0
  6
CONTINUOUS
 62
               7
100
AcDbLine
 10
5.9999999999998721
 20
48.589999999999961
 30
0.0
 11
-6.0000000000001279
 21
48.589999999999961
 31
0.0
  0
LINE
  5
98
100
AcDbEntity
  8
0
  6
CONTINUOUS
 62
               7
100
AcDbLine
 10
-7.5000000000001279
 20
-0.9999999999999503
 30
0.0
 11
7.4999999999998863
 21
-0.9999999999999503
 31
0.0
  0
LINE
  5
99
100
AcDbEntity
  8
0
  6
CONTINUOUS
 62
               7
100
AcDbLine
 10
7.4999999999998863
 20
-0.9999999999999503
 30
0.0
 11
7.4999999999998721
 21
42.990000000000023
 31
0.0
  0
LINE
  5
9A
100
AcDbEntity
  8
0
  6
CONTINUOUS
 62
               7
100
AcDbLine
 10
-7.5000000000001279
 20
42.990000000000023
 30
0.0
 11
7.4999999999998721
 21
42.990000000000023
 31
0.0
  0
LINE
  5
9B
100
AcDbEntity
  8
0
  6
CONTINUOUS
 62
               7
100
AcDbLine
 10
-6.9775961490737899
 20
-2.9999999999999964
 30
0.0
 11
6.977596149156966
 21
-2.9999999999999964
 31
0.0
  0
LINE
  5
9C
100
AcDbEntity
  8
0
  6
CONTINUOUS
 62
               7
100
AcDbLine
 10
6.9775961230145782
 20
-2.9999999999999964
 30
0.0
 11
7.0000000050011124
 21
-3.0000000000000675
 31
0.0
  0
LINE
  5
9D
100
AcDbEntity
  8
0
  6
CONTINUOUS
 62
               7
100
AcDbLine
 10
7.0000000050011124
 20
-1.0000000000000639
 30
0.0
 11
7.0000000050011124
 21
-3.0000000000000675
 31
0.0
  0
LINE
  5
9E
100
AcDbEntity
  8
0
  6
CONTINUOUS
 62
               7
100
AcDbLine
 10
0.0000000258094559
 20
-1.2937751919196714
 30
0.0
 11
0.0000000258094559
 21
-2.7081185983160729
 31
0.0
  0
LINE
  5
9F
100
AcDbEntity
  8
0
  6
CONTINUOUS
 62
               7
100
AcDbLine
 10
-6.9999999949989018
 20
-1.0000000000000639
 30
0.0
 11
-6.9999999949989018
 21
-3.0000000000000675
 31
0.0
  0
LINE
  5
A0
100
AcDbEntity
  8
0
  6
CONTINUOUS
 62
               7
100
AcDbLine
 10
-6.9999999949989018
 20
-3.0000000000000675
 30
0.0
 11
-6.9775961490737899
 21
-2.9999999999999964
 31
0.0
  0
LINE
  5
A1
100
AcDbEntity
  8
0
  6
CONTINUOUS
 62
               7
100
AcDbLine
 10
-6.9999999949989018
 20
44.990807516805489
 30
0.0
 11
-6.9999999949989018
 21
42.990269176706207
 31
0.0
  0
LINE
  5
A2
100
AcDbEntity
  8
0
  6
CONTINUOUS
 62
               7
100
AcDbLine
 10
7.0000000050010982
 20
44.99026917226989
 30
0.0
 11
7.0000000050010982
 21
42.990269176705823
 31
0.0
  0
LINE
  5
A3
100
AcDbEntity
  8
0
  6
CONTINUOUS
 62
               7
100
AcDbLine
 10
7.0000000050010982
 20
44.99026917226989
 30
0.0
 11
-6.9999999949989018
 21
44.990807516805489
 31
0.0
  0
LINE
  5
A4
100
AcDbEntity
  8
0
  6
CONTINUOUS
 62
               7
100
AcDbLine
 10
-0.0000000258096975
 20
44.699225466065542
 30
0.0
 11
-0.0000000258096975
 21
43.290775166929194
 31
0.0
  0
LINE
  5
A5
100
AcDbEntity
  8
0
  6
CONTINUOUS
 62
               7
100
AcDbLine
 10
7.0000000050010982
 20
42.990269176705823
 30
0.0
 11
-0.0000000258096975
 21
42.990538348974809
 31
0.0
  0
LINE
  5
A6
100
AcDbEntity
  8
0
  6
CONTINUOUS
 62
               7
100
AcDbLine
 10
-0.0000000258096975
 20
42.990538348974809
 30
0.0
 11
-6.9999999949989018
 21
42.990269176706207
 31
0.0
  0
LINE
  5
A7
100
AcDbEntity
  8
0
  6
CONTINUOUS
 62
               7
100
AcDbLine
 10
7.9999999999998721
 20
41.489999999999995
 30
0.0
 11
7.9999999999998721
 21
0.5
 31
0.0
  0
LINE
  5
A8
100
AcDbEntity
  8
0
  6
CONTINUOUS
 62
               7
100
AcDbLine
 10
7.4999999999998437
 20
0.0
 30
0.0
 11
7.9999999999998721
 21
0.5
 31
0.0
  0
LINE
  5
A9
100
AcDbEntity
  8
0
  6
CONTINUOUS
 62
               7
100
AcDbLine
 10
-8.0000000000001279
 20
0.5
 30
0.0
 11
-7.5000000000000711
 21
0.0
 31
0.0
  0
LINE
  5
AA
100
AcDbEntity
  8
0
  6
CONTINUOUS
 62
               7
100
AcDbLine
 10
-8.0000000000001279
 20
0.5
 30
0.0
 11
-8.0000000000001279
 21
41.489999999999995
 31
0.0
  0
LINE
  5
AB
100
AcDbEntity
  8
0
  6
CONTINUOUS
 62
               7
100
AcDbLine
 10
-7.5000000000000711
 20
41.989999999999995
 30
0.0
 11
-8.0000000000001279
 21
41.489999999999995
 31
0.0
  0
LINE
  5
AC
100
AcDbEntity
  8
0
  6
CONTINUOUS
 62
               7
100
AcDbLine
 10
7.9999999999998721
 20
41.489999999999995
 30
0.0
 11
7.4999999999998295
 21
41.989999999999995
 31
0.0
  0
LINE
  5
AD
100
AcDbEntity
  8
0
  6
CONTINUOUS
 62
               7
100
AcDbLine
 10
-8.0000000000001279
 20
41.489999999999995
 30
0.0
 11
7.9999999999998721
 21
41.489999999999995
 31
0.0
  0
LINE
  5
AE
100
AcDbEntity
  8
0
  6
CONTINUOUS
 62
               7
100
AcDbLine
 10
-7.5000000000001279
 20
-0.9999999999999503
 30
0.0
 11
-7.5000000000001279
 21
42.990000000000023
 31
0.0
  0
LINE
  5
AF
100
AcDbEntity
  8
0
  6
CONTINUOUS
 62
               7
100
AcDbLine
 10
-7.5000000000000711
 20
41.989999999999995
 30
0.0
 11
7.4999999999998295
 21
41.989999999999995
 31
0.0
  0
LINE
  5
B0
100
AcDbEntity
  8
0
  6
CONTINUOUS
 62
               7
100
AcDbLine
 10
7.4999999999998437
 20
0.0
 30
0.0
 11
-7.5000000000000711
 21
0.0
 31
0.0
  0
LINE
  5
B1
100
AcDbEntity
  8
0
  6
CONTINUOUS
 62
               7
100
AcDbLine
 10
-8.0000000000001279
 20
0.5
 30
0.0
 11
7.9999999999998721
 21
0.5
 31
0.0
  0
ARC
  5
B2
100
AcDbEntity
  8
0
  6
CONTINUOUS
 62
               7
100
AcDbCircle
 10
3.4999922661621667
 20
23.809684217999095
 30
0.0
 40
21.180719525042875
100
AcDbArc
 50
80.488533402807889
 51
99.511424087981823
  0
ARC
  5
B3
100
AcDbEntity
  8
0
  6
CONTINUOUS
 62
               7
100
AcDbCircle
 10
3.4999546101684871
 20
63.503907331712398
 30
0.0
 40
20.513907331712378
100
AcDbArc
 50
260.1764943743018
 51
279.82376288921034
  0
ARC
  5
B4
100
AcDbEntity
  8
0
  6
CONTINUOUS
 62
               7
100
AcDbCircle
 10
-3.4999922849696787
 20
23.829245962717881
 30
0.0
 40
21.161426952012089
100
AcDbArc
 50
80.479823774441343
 51
99.520218643887262
  0
ARC
  5
B5
100
AcDbEntity
  8
0
  6
CONTINUOUS
 62
               7
100
AcDbCircle
 10
-3.499954585664014
 20
63.531482370859038
 30
0.0
 40
20.541078591085295
100
AcDbArc
 50
260.18936030599087
 51
279.8103825244462
  0
ARC
  5
B6
100
AcDbEntity
  8
0
  6
CONTINUOUS
 62
               7
100
AcDbCircle
 10
3.5000000146097818
 20
-21.99616326412092
 30
0.0
 40
20.996163264120966
100
AcDbArc
 50
80.404162050607383
 51
99.595837944989341
  0
ARC
  5
B7
100
AcDbEntity
  8
0
  6
CONTINUOUS
 62
               7
100
AcDbCircle
 10
3.4943990445108994
 20
18.063382564994132
 30
0.0
 40
21.063382564994132
100
AcDbArc
 50
260.45052326521829
 51
279.5803773967275
  0
ARC
  5
B8
100
AcDbEntity
  8
0
  6
CONTINUOUS
 62
               7
100
AcDbCircle
 10
-3.49999996299087
 20
-21.99616326412092
 30
0.0
 40
20.996163264120966
100
AcDbArc
 50
80.404162055010659
 51
99.595837949392617
  0
ARC
  5
B9
100
AcDbEntity
  8
0
  6
CONTINUOUS
 62
               7
100
AcDbCircle
 10
-3.4943989928919876
 20
18.063382564994132
 30
0.0
 40
21.063382564994132
100
AcDbArc
 50
260.4196226032725
 51
279.54947673478171
  0
CIRCLE
  5
BA
100
AcDbEntity
  8
0
  6
CONTINUOUS
 62
               2
100
AcDbCircle
 10
-0.0000000000001847
 20
29.289999999999999
 30
0.0
 40
4.8639995000000003
  0
CIRCLE
  5
BB
100
AcDbEntity
  8
0
  6
CONTINUOUS
 62
               7
100
AcDbCircle
 10
-0.0000000000001847
 20
29.289999999999999
 30
0.0
 40
4.2830000000000004
  0
CIRCLE
  5
BC
100
AcDbEntity
  8
0
  6
CONTINUOUS
 62
               2
100
AcDbCircle
 10
-0.0000000000000426
 20
12.690000000000005
 30
0.0
 40
4.8639995000000003
  0
CIRCLE
  5
BD
100
AcDbEntity
  8
0
  6
CONTINUOUS
 62
               7
100
AcDbCircle
 10
-0.0000000000000426
 20
12.690000000000005
 30
0.0
 40
4.2830000000000004
  0
LINE
  5
BE
100
AcDbEntity
  8
0
  6
CONTINUOUS
 62
               2
100
AcDbLine
 10
-5.5000000000002842
 20
49.090000000000003
 30
0.0
 11
-5.5000000000002842
 21
44.990000000000023
 31
0.0
  0
LINE
  5
BF
100
AcDbEntity
  8
0
  6
CONTINUOUS
 62
               2
100
AcDbLine
 10
5.4999999999997442
 20
49.090000000000003
 30
0.0
 11
5.4999999999997442
 21
44.990000000000023
 31
0.0
  0
ARC
  5
C0
100
AcDbEntity
  8
0
  6
CONTINUOUS
 62
               7
100
AcDbCircle
 10
0.0068654461744444
 20
42.49676454145721
 30
0.0
 40
11.993237423581604
100
AcDbArc
 50
69.178266715790414
 51
111.35286069296993
  0
ARC
  5
C1
100
AcDbEntity
  8
0
  6
CONTINUOUS
 62
               7
100
AcDbCircle
 10
3.7021429589007937
 20
52.21318237088218
 30
0.0
 40
1.5978609895081108
100
AcDbArc
 50
0.1273735637414109
 51
69.182911473307925
  0
LINE
  5
C2
100
AcDbEntity
  8
0
  6
CONTINUOUS
 62
               7
100
AcDbLine
 10
5.2999999999997129
 20
52.206734553655252
 30
0.0
 11
5.2999999999997129
 21
51.489999999999995
 31
0.0
  0
ARC
  5
C3
100
AcDbEntity
  8
0
  6
CONTINUOUS
 62
               7
100
AcDbCircle
 10
-3.7025252770819037
 20
52.2131814138435
 30
0.0
 40
1.5974786744008997
100
AcDbArc
 50
101.82919103840995
 51
179.8725616270487
  0
LINE
  5
C4
100
AcDbEntity
  8
0
  6
CONTINUOUS
 62
               7
100
AcDbLine
 10
-5.3000000000002814
 20
52.206734553655252
 30
0.0
 11
-5.3000000000002814
 21
51.489999999999995
 31
0.0
  0
ARC
  5
C5
100
AcDbEntity
  8
0
  6
CONTINUOUS
 62
               7
100
AcDbCircle
 10
0.0068654302620956
 20
1.9832322552625392
 30
0.0
 40
11.993234220292821
100
AcDbArc
 50
249.72920289182824
 51
290.82173918532754
  0
ARC
  5
C6
100
AcDbEntity
  8
0
  6
CONTINUOUS
 62
               7
100
AcDbCircle
 10
3.7021472292267248
 20
-7.733185092970583
 30
0.0
 40
1.5978567126333107
100
AcDbArc
 50
290.82247024845447
 51
359.87273194702078
  0
LINE
  5
C7
100
AcDbEntity
  8
0
  6
CONTINUOUS
 62
               7
100
AcDbLine
 10
5.300000000000054
 20
-7.7367343237780339
 30
0.0
 11
5.300000000000054
 21
-7.1000000000000192
 31
0.0
  0
ARC
  5
C8
100
AcDbEntity
  8
0
  6
CONTINUOUS
 62
               7
100
AcDbCircle
 10
-3.702529748830429
 20
-7.7331848244240895
 30
0.0
 40
1.5974741945700446
100
AcDbArc
 50
179.87269184056868
 51
253.79736318301457
  0
LINE
  5
C9
100
AcDbEntity
  8
0
  6
CONTINUOUS
 62
               7
100
AcDbLine
 10
-5.2999999999999403
 20
-7.7367343237735291
 30
0.0
 11
-5.2999999999999403
 21
-7.1000000000000192
 31
0.0
  0
LINE
  5
CA
100
AcDbEntity
  8
0
  6
CENTER
 62
               2
100
AcDbLine
 10
-11.000000000000128
 20
20.989999999963079
 30
0.0
 11
10.999999999999872
 21
20.989999999963079
 31
0.0
  0
LINE
  5
CB
100
AcDbEntity
  8
0
  6
CENTER
 62
               2
100
AcDbLine
 10
0.0000000000000711
 20
-13.100000000000019
 30
0.0
 11
-0.0000000000003126
 21
57.489999999999995
 31
0.0
  0
LINE
  5
CC
100
AcDbEntity
  8
0
  6
CENTER
 62
               2
100
AcDbLine
 10
-8.7606000000001103
 20
29.289999999999999
 30
0.0
 11
8.7605999999998829
 21
29.289999999999999
 31
0.0
  0
LINE
  5
CD
100
AcDbEntity
  8
0
  6
CENTER
 62
               2
100
AcDbLine
 10
-8.7606000000001103
 20
12.690000000000005
 30
0.0
 11
8.7605999999998829
 21
12.690000000000005
 31
0.0
  0
ENDBLK
  5
CE
100
AcDbEntity
  8
0
100
AcDbBlockEnd
  0
BLOCK
  5
CF
100
AcDbEntity
  8
0
100
AcDbBlockBegin
  2
41PP-3
 70
               0
 10
0.0
 20
0.0
 30
0.0
  3
41PP-3
  1

  0
LINE
  5
D0
100
AcDbEntity
  8
0
  6
CENTER
 62
               2
100
AcDbLine
 10
0.0000000000000284
 20
-13.100000000000016
 30
0.0
 11
-0.0000000000000853
 21
57.490000000000016
 31
0.0
  0
LINE
  5
D1
100
AcDbEntity
  8
0
  6
CENTER
 62
               2
100
AcDbLine
 10
4.4999999999999716
 20
7.990000000000002
 30
0.0
 11
-4.5000000000000284
 21
7.990000000000002
 31
0.0
  0
LINE
  5
D2
100
AcDbEntity
  8
0
  6
CENTER
 62
               2
100
AcDbLine
 10
4.4999999999999716
 20
33.990000000000002
 30
0.0
 11
-4.5000000000000284
 21
33.990000000000002
 31
0.0
  0
LINE
  5
D3
100
AcDbEntity
  8
0
  6
CONTINUOUS
 62
               7
100
AcDbLine
 10
-7.0000000050012545
 20
44.989999985209202
 30
0.0
 11
-7.0000000050012545
 21
44.99026917226989
 31
0.0
  0
LINE
  5
D4
100
AcDbEntity
  8
0
  6
CONTINUOUS
 62
               7
100
AcDbLine
 10
-7.0000000050012545
 20
44.99026917226989
 30
0.0
 11
6.9999999949987455
 21
44.990807516805148
 31
0.0
  0
LINE
  5
D5
100
AcDbEntity
  8
0
  6
CONTINUOUS
 62
               7
100
AcDbLine
 10
-2.6000000000000227
 20
51.489999999999974
 30
0.0
 11
-2.6000000000000227
 21
49.090000000000018
 31
0.0
  0
LINE
  5
D6
100
AcDbEntity
  8
0
  6
CONTINUOUS
 62
               7
100
AcDbLine
 10
2.5999999999999659
 20
49.090000000000018
 30
0.0
 11
2.5999999999999659
 21
51.489999999999974
 31
0.0
  0
LINE
  5
D7
100
AcDbEntity
  8
0
  6
CONTINUOUS
 62
               7
100
AcDbLine
 10
6.9999999949987455
 20
42.990000000000023
 30
0.0
 11
6.9999999949987455
 21
44.990807516805148
 31
0.0
  0
LINE
  5
D8
100
AcDbEntity
  8
0
  6
CONTINUOUS
 62
               7
100
AcDbLine
 10
6.9999999999997868
 20
44.989999942179807
 30
0.0
 11
6.9999999949987455
 21
44.989730827729772
 31
0.0
  0
LINE
  5
D9
100
AcDbEntity
  8
0
  6
CONTINUOUS
 62
               7
100
AcDbLine
 10
-7.0000000050012545
 20
44.989730827728174
 30
0.0
 11
-6.9999999999998579
 21
44.989999942179807
 31
0.0
  0
LINE
  5
DA
100
AcDbEntity
  8
0
  6
CONTINUOUS
 62
               7
100
AcDbLine
 10
5.5000000000000142
 20
-7.1000000000000156
 30
0.0
 11
5.9999999999999716
 21
-6.6000000000000014
 31
0.0
  0
LINE
  5
DB
100
AcDbEntity
  8
0
  6
CONTINUOUS
 62
               7
100
AcDbLine
 10
-6.0000000000000284
 20
-6.6000000000000014
 30
0.0
 11
-5.5000000000000568
 21
-7.1000000000000156
 31
0.0
  0
LINE
  5
DC
100
AcDbEntity
  8
0
  6
CONTINUOUS
 62
               7
100
AcDbLine
 10
5.5000000000000142
 20
-7.1000000000000156
 30
0.0
 11
-5.5000000000000568
 21
-7.1000000000000156
 31
0.0
  0
LINE
  5
DD
100
AcDbEntity
  8
0
  6
CONTINUOUS
 62
               7
100
AcDbLine
 10
5.9999999999999716
 20
-6.6000000000000014
 30
0.0
 11
5.9999999999999716
 21
-3.0000000000000639
 31
0.0
  0
LINE
  5
DE
100
AcDbEntity
  8
0
  6
CONTINUOUS
 62
               7
100
AcDbLine
 10
-6.0000000000000284
 20
-3.0000000000000639
 30
0.0
 11
-6.0000000000000284
 21
-6.6000000000000014
 31
0.0
  0
LINE
  5
DF
100
AcDbEntity
  8
0
  6
CONTINUOUS
 62
               7
100
AcDbLine
 10
-6.0000000000000284
 20
-6.6000000000000014
 30
0.0
 11
5.9999999999999716
 21
-6.6000000000000014
 31
0.0
  0
LINE
  5
E0
100
AcDbEntity
  8
0
  6
CONTINUOUS
 62
               7
100
AcDbLine
 10
-5.5000000000000426
 20
49.090000000000003
 30
0.0
 11
-6.0000000000000284
 21
48.589999999999961
 31
0.0
  0
LINE
  5
E1
100
AcDbEntity
  8
0
  6
CONTINUOUS
 62
               7
100
AcDbLine
 10
5.9999999999999716
 20
48.589999999999961
 30
0.0
 11
5.4999999999999858
 21
49.090000000000003
 31
0.0
  0
LINE
  5
E2
100
AcDbEntity
  8
0
  6
CONTINUOUS
 62
               7
100
AcDbLine
 10
-5.5000000000000426
 20
49.090000000000003
 30
0.0
 11
5.4999999999999858
 21
49.090000000000003
 31
0.0
  0
LINE
  5
E3
100
AcDbEntity
  8
0
  6
CONTINUOUS
 62
               7
100
AcDbLine
 10
-6.0000000000000284
 20
48.589999999999961
 30
0.0
 11
-6.0000000000000284
 21
44.990000000000023
 31
0.0
  0
LINE
  5
E4
100
AcDbEntity
  8
0
  6
CONTINUOUS
 62
               7
100
AcDbLine
 10
5.9999999999999716
 20
44.990769063624256
 30
0.0
 11
5.9999999999999716
 21
48.589999999999961
 31
0.0
  0
LINE
  5
E5
100
AcDbEntity
  8
0
  6
CONTINUOUS
 62
               7
100
AcDbLine
 10
-6.0000000000000284
 20
48.589999999999961
 30
0.0
 11
5.9999999999999716
 21
48.589999999999961
 31
0.0
  0
LINE
  5
E6
100
AcDbEntity
  8
0
  6
CONTINUOUS
 62
               7
100
AcDbLine
 10
-5.8320467562741669
 20
42.989685920645954
 30
0.0
 11
-5.8320467245503096
 21
42.990000000000023
 31
0.0
  0
LINE
  5
E7
100
AcDbEntity
  8
0
  6
CONTINUOUS
 62
               7
100
AcDbLine
 10
5.8320467697466398
 20
42.990000000000023
 30
0.0
 11
5.8320468014704971
 21
42.989685920649677
 31
0.0
  0
LINE
  5
E8
100
AcDbEntity
  8
0
  6
CONTINUOUS
 62
               7
100
AcDbLine
 10
-7.5000000000000284
 20
-0.9999999999999503
 30
0.0
 11
-7.5000000000000284
 21
42.990000000000023
 31
0.0
  0
LINE
  5
E9
100
AcDbEntity
  8
0
  6
CONTINUOUS
 62
               7
100
AcDbLine
 10
-7.5000000000000284
 20
42.990000000000023
 30
0.0
 11
7.4999999999999574
 21
42.990000000000023
 31
0.0
  0
LINE
  5
EA
100
AcDbEntity
  8
0
  6
CONTINUOUS
 62
               7
100
AcDbLine
 10
7.4999999999999716
 20
-0.9999999999999503
 30
0.0
 11
7.4999999999999574
 21
42.990000000000023
 31
0.0
  0
LINE
  5
EB
100
AcDbEntity
  8
0
  6
CONTINUOUS
 62
               7
100
AcDbLine
 10
-7.5000000000000284
 20
-0.9999999999999503
 30
0.0
 11
7.4999999999999716
 21
-0.9999999999999503
 31
0.0
  0
LINE
  5
EC
100
AcDbEntity
  8
0
  6
CONTINUOUS
 62
               7
100
AcDbLine
 10
-6.9775961230147345
 20
-3.0
 30
0.0
 11
6.9999999949987455
 21
-3.0
 31
0.0
  0
LINE
  5
ED
100
AcDbEntity
  8
0
  6
CONTINUOUS
 62
               7
100
AcDbLine
 10
1.1678378190985654
 20
42.989506566975592
 30
0.0
 11
1.1678378973992949
 21
42.990000000000023
 31
0.0
  0
LINE
  5
EE
100
AcDbEntity
  8
0
  6
CONTINUOUS
 62
               7
100
AcDbLine
 10
-1.1678379684053084
 20
42.990000000000023
 30
0.0
 11
-1.1678378901045789
 21
42.989506566976345
 31
0.0
  0
LINE
  5
EF
100
AcDbEntity
  8
0
  6
CONTINUOUS
 62
               7
100
AcDbLine
 10
-7.0000000050012545
 20
-1.0000000000000639
 30
0.0
 11
-7.0000000050012545
 21
-3.0000000000000639
 31
0.0
  0
LINE
  5
F0
100
AcDbEntity
  8
0
  6
CONTINUOUS
 62
               7
100
AcDbLine
 10
-7.0000000050012545
 20
-3.0000000000000639
 30
0.0
 11
-6.9775961491571081
 21
-3.0
 31
0.0
  0
LINE
  5
F1
100
AcDbEntity
  8
0
  6
CONTINUOUS
 62
               7
100
AcDbLine
 10
6.9999999949987455
 20
-1.0000000000000639
 30
0.0
 11
6.9999999949987455
 21
-3.0000000000000639
 31
0.0
  0
LINE
  5
F2
100
AcDbEntity
  8
0
  6
CONTINUOUS
 62
               7
100
AcDbLine
 10
0.0000000258095412
 20
-1.2899999999999991
 30
0.0
 11
0.0000000258095412
 21
-2.7062249721642573
 31
0.0
  0
LINE
  5
F3
100
AcDbEntity
  8
0
  6
CONTINUOUS
 62
               7
100
AcDbLine
 10
-7.0000000050012545
 20
42.990000000000023
 30
0.0
 11
-7.0000000050012545
 21
44.989730827728174
 31
0.0
  0
LINE
  5
F4
100
AcDbEntity
  8
0
  6
CONTINUOUS
 62
               7
100
AcDbLine
 10
7.4999999999999289
 20
0.0
 30
0.0
 11
-7.4999999999999716
 21
0.0
 31
0.0
  0
LINE
  5
F5
100
AcDbEntity
  8
0
  6
CONTINUOUS
 62
               7
100
AcDbLine
 10
-7.4999999999999716
 20
0.0
 30
0.0
 11
-8.0000000000000284
 21
0.5
 31
0.0
  0
LINE
  5
F6
100
AcDbEntity
  8
0
  6
CONTINUOUS
 62
               7
100
AcDbLine
 10
-8.0000000000000284
 20
0.5
 30
0.0
 11
-8.0000000000000284
 21
41.490000000000002
 31
0.0
  0
LINE
  5
F7
100
AcDbEntity
  8
0
  6
CONTINUOUS
 62
               7
100
AcDbLine
 10
-8.0000000000000284
 20
0.5
 30
0.0
 11
7.9999999999999716
 21
0.5
 31
0.0
  0
LINE
  5
F8
100
AcDbEntity
  8
0
  6
CONTINUOUS
 62
               7
100
AcDbLine
 10
7.9999999999999716
 20
0.5
 30
0.0
 11
7.4999999999999289
 21
0.0
 31
0.0
  0
LINE
  5
F9
100
AcDbEntity
  8
0
  6
CONTINUOUS
 62
               7
100
AcDbLine
 10
7.4999999999999147
 20
41.990000000000002
 30
0.0
 11
7.9999999999999716
 21
41.490000000000002
 31
0.0
  0
LINE
  5
FA
100
AcDbEntity
  8
0
  6
CONTINUOUS
 62
               7
100
AcDbLine
 10
-7.4999999999999716
 20
41.990000000000002
 30
0.0
 11
7.4999999999999147
 21
41.990000000000002
 31
0.0
  0
LINE
  5
FB
100
AcDbEntity
  8
0
  6
CONTINUOUS
 62
               7
100
AcDbLine
 10
-8.0000000000000284
 20
41.490000000000002
 30
0.0
 11
7.9999999999999716
 21
41.490000000000002
 31
0.0
  0
LINE
  5
FC
100
AcDbEntity
  8
0
  6
CONTINUOUS
 62
               7
100
AcDbLine
 10
-8.0000000000000284
 20
41.490000000000002
 30
0.0
 11
-7.4999999999999716
 21
41.990000000000002
 31
0.0
  0
LINE
  5
FD
100
AcDbEntity
  8
0
  6
CONTINUOUS
 62
               7
100
AcDbLine
 10
7.9999999999999716
 20
41.490000000000002
 30
0.0
 11
7.9999999999999716
 21
0.5
 31
0.0
  0
ARC
  5
FE
100
AcDbEntity
  8
0
  6
CONTINUOUS
 62
               7
100
AcDbCircle
 10
3.4887980874415945
 20
-22.130710198009488
 30
0.0
 40
21.130710198009542
100
AcDbArc
 50
80.43503365589379
 51
99.503367599435038
  0
ARC
  5
FF
100
AcDbEntity
  8
0
  6
CONTINUOUS
 62
               7
100
AcDbCircle
 10
3.5000000017050752
 20
17.996163731366767
 30
0.0
 40
20.996163731366767
100
AcDbArc
 50
260.40416230628961
 51
279.59583774186132
  0
ARC
  5
100
100
AcDbEntity
  8
0
  6
CONTINUOUS
 62
               7
100
AcDbCircle
 10
-3.4999999758955767
 20
17.996164041867814
 30
0.0
 40
20.996164041867814
100
AcDbArc
 50
260.40416230227515
 51
279.59583762189118
  0
ARC
  5
101
100
AcDbEntity
  8
0
  6
CONTINUOUS
 62
               7
100
AcDbCircle
 10
-3.5113502407207307
 20
-22.40289774872452
 30
0.0
 40
21.402897748724566
100
AcDbArc
 50
80.557392479049867
 51
99.381008825754662
  0
ARC
  5
102
100
AcDbEntity
  8
0
  6
CONTINUOUS
 62
               7
100
AcDbCircle
 10
-3.5113502407208159
 20
23.587640595813141
 30
0.0
 40
21.402897748724566
100
AcDbArc
 50
80.557392479049867
 51
99.381008825754662
  0
LINE
  5
103
100
AcDbEntity
  8
0
  6
CONTINUOUS
 62
               7
100
AcDbLine
 10
0.0000000258094559
 20
44.700538344537662
 30
0.0
 11
0.0000000258094559
 21
43.284313372373404
 31
0.0
  0
ARC
  5
104
100
AcDbEntity
  8
0
  6
CONTINUOUS
 62
               7
100
AcDbCircle
 10
-3.4999999758956619
 20
63.98670238640549
 30
0.0
 40
20.996164041867814
100
AcDbArc
 50
260.40416230227515
 51
279.59583762189118
  0
ARC
  5
105
100
AcDbEntity
  8
0
  6
CONTINUOUS
 62
               7
100
AcDbCircle
 10
3.4887980874415092
 20
23.859828146528173
 30
0.0
 40
21.130710198009542
100
AcDbArc
 50
80.43503365589379
 51
99.503367599435038
  0
ARC
  5
106
100
AcDbEntity
  8
0
  6
CONTINUOUS
 62
               7
100
AcDbCircle
 10
3.5000000017049899
 20
63.986702075904425
 30
0.0
 40
20.996163731366767
100
AcDbArc
 50
260.40416230628961
 51
279.59583774186132
  0
CIRCLE
  5
107
100
AcDbEntity
  8
0
  6
CONTINUOUS
 62
               2
100
AcDbCircle
 10
-0.0000000000000284
 20
20.990000000012309
 30
0.0
 40
4.8639995000000003
  0
CIRCLE
  5
108
100
AcDbEntity
  8
0
  6
CONTINUOUS
 62
               7
100
AcDbCircle
 10
-0.0000000000000284
 20
20.990000000012309
 30
0.0
 40
4.2830000000000004
  0
CIRCLE
  5
109
100
AcDbEntity
  8
0
  6
CONTINUOUS
 62
               2
100
AcDbCircle
 10
0.0000830078124352
 20
33.983658447265626
 30
0.0
 40
2.5
  0
CIRCLE
  5
10A
100
AcDbEntity
  8
0
  6
CONTINUOUS
 62
               7
100
AcDbCircle
 10
-0.0000000000000568
 20
33.990000000000002
 30
0.0
 40
2.0670000000000002
  0
CIRCLE
  5
10B
100
AcDbEntity
  8
0
  6
CONTINUOUS
 62
               2
100
AcDbCircle
 10
0.000083007812492
 20
7.9836584472656256
 30
0.0
 40
2.5
  0
CIRCLE
  5
10C
100
AcDbEntity
  8
0
  6
CONTINUOUS
 62
               7
100
AcDbCircle
 10
0.0
 20
7.990000000000002
 30
0.0
 40
2.0670000000000002
  0
LINE
  5
10D
100
AcDbEntity
  8
0
  6
CONTINUOUS
 62
               2
100
AcDbLine
 10
-5.5000000000000711
 20
49.090000000000003
 30
0.0
 11
-5.5000000000000711
 21
44.990000000000023
 31
0.0
  0
LINE
  5
10E
100
AcDbEntity
  8
0
  6
CONTINUOUS
 62
               2
100
AcDbLine
 10
5.4999999999999574
 20
49.090000000000003
 30
0.0
 11
5.4999999999999574
 21
44.990000000000023
 31
0.0
  0
ARC
  5
10F
100
AcDbEntity
  8
0
  6
CONTINUOUS
 62
               7
100
AcDbCircle
 10
0.0068654461746434
 20
42.49676454145721
 30
0.0
 40
11.993237423581604
100
AcDbArc
 50
69.178266715790414
 51
111.35286069296993
  0
ARC
  5
110
100
AcDbEntity
  8
0
  6
CONTINUOUS
 62
               7
100
AcDbCircle
 10
-3.7025252770817048
 20
52.213181413843508
 30
0.0
 40
1.5974786744008997
100
AcDbArc
 50
101.82919103840995
 51
179.8725616270487
  0
LINE
  5
111
100
AcDbEntity
  8
0
  6
CONTINUOUS
 62
               7
100
AcDbLine
 10
5.2999999999999119
 20
51.489999999999995
 30
0.0
 11
-5.3000000000000824
 21
51.489999999999995
 31
0.0
  0
LINE
  5
112
100
AcDbEntity
  8
0
  6
CONTINUOUS
 62
               7
100
AcDbLine
 10
-5.3000000000000824
 20
52.206734553655252
 30
0.0
 11
-5.3000000000000824
 21
51.489999999999995
 31
0.0
  0
LINE
  5
113
100
AcDbEntity
  8
0
  6
CONTINUOUS
 62
               7
100
AcDbLine
 10
5.2999999999999119
 20
52.206734553655252
 30
0.0
 11
5.2999999999999119
 21
51.489999999999995
 31
0.0
  0
ARC
  5
114
100
AcDbEntity
  8
0
  6
CONTINUOUS
 62
               7
100
AcDbCircle
 10
3.7021429589009927
 20
52.213182370882187
 30
0.0
 40
1.5978609895081108
100
AcDbArc
 50
0.1273735637414109
 51
69.182911473307925
  0
ARC
  5
115
100
AcDbEntity
  8
0
  6
CONTINUOUS
 62
               7
100
AcDbCircle
 10
0.0068654302622946
 20
1.9832322552625357
 30
0.0
 40
11.993234220292821
100
AcDbArc
 50
249.72920289182824
 51
290.82173918532754
  0
LINE
  5
116
100
AcDbEntity
  8
0
  6
CONTINUOUS
 62
               7
100
AcDbLine
 10
-5.2999999999997414
 20
-7.7367343237735327
 30
0.0
 11
-5.2999999999997414
 21
-7.1000000000000227
 31
0.0
  0
ARC
  5
117
100
AcDbEntity
  8
0
  6
CONTINUOUS
 62
               7
100
AcDbCircle
 10
-3.70252974883023
 20
-7.7331848244240931
 30
0.0
 40
1.5974741945700446
100
AcDbArc
 50
179.87269184056868
 51
253.79736318301457
  0
LINE
  5
118
100
AcDbEntity
  8
0
  6
CONTINUOUS
 62
               7
100
AcDbLine
 10
5.300000000000253
 20
-7.7367343237780375
 30
0.0
 11
5.300000000000253
 21
-7.1000000000000227
 31
0.0
  0
ARC
  5
119
100
AcDbEntity
  8
0
  6
CONTINUOUS
 62
               7
100
AcDbCircle
 10
3.7021472292269237
 20
-7.7331850929705865
 30
0.0
 40
1.5978567126333107
100
AcDbArc
 50
290.82247024845447
 51
359.87273194702078
  0
LINE
  5
11A
100
AcDbEntity
  8
0
  6
CENTER
 62
               2
100
AcDbLine
 10
10.999999999999972
 20
13.09000000001231
 30
0.0
 11
-11.000000000000028
 21
13.09000000001231
 31
0.0
  0
LINE
  5
11B
100
AcDbEntity
  8
0
  6
CENTER
 62
               2
100
AcDbLine
 10
10.999999999999972
 20
28.890000000012307
 30
0.0
 11
-11.000000000000028
 21
28.890000000012307
 31
0.0
  0
LINE
  5
11C
100
AcDbEntity
  8
0
  6
CENTER
 62
               2
100
AcDbLine
 10
10.999999999999972
 20
20.990000000012309
 30
0.0
 11
-11.000000000000028
 21
20.990000000012309
 31
0.0
  0
ENDBLK
  5
11D
100
AcDbEntity
  8
0
100
AcDbBlockEnd
  0
BLOCK
  5
11E
100
AcDbEntity
  8
0
100
AcDbBlockBegin
  2
41PP-4
 70
               0
 10
0.0
 20
0.0
 30
0.0
  3
41PP-4
  1

  0
CIRCLE
  5
11F
100
AcDbEntity
  8
0
  6
CONTINUOUS
 62
               7
100
AcDbCircle
 10
0.0
 20
0.0
 30
0.0
 40
6.0
  0
ARC
  5
120
100
AcDbEntity
  8
0
  6
CONTINUOUS
 62
               7
100
AcDbCircle
 10
0.0
 20
0.0
 30
0.0
 40
7.4999999999999929
100
AcDbArc
 50
308.9580764202322
 51
351.04192346971303
  0
ARC
  5
121
100
AcDbEntity
  8
0
  6
CONTINUOUS
 62
               7
100
AcDbCircle
 10
0.0
 20
0.0
 30
0.0
 40
7.4999999999999929
100
AcDbArc
 50
8.9580759811433079
 51
51.041924128911575
  0
ARC
  5
122
100
AcDbEntity
  8
0
  6
CONTINUOUS
 62
               7
100
AcDbCircle
 10
0.0
 20
0.0
 30
0.0
 40
7.4999999999999929
100
AcDbArc
 50
248.9605303251046
 51
291.03946967489543
  0
ARC
  5
123
100
AcDbEntity
  8
0
  6
CONTINUOUS
 62
               7
100
AcDbCircle
 10
0.0
 20
0.0
 30
0.0
 40
7.4999999999999929
100
AcDbArc
 50
188.96298441713162
 51
231.03701510691056
  0
ARC
  5
124
100
AcDbEntity
  8
0
  6
CONTINUOUS
 62
               7
100
AcDbCircle
 10
0.0
 20
0.0
 30
0.0
 40
7.4999999999999929
100
AcDbArc
 50
128.96298498476651
 51
171.03701512528832
  0
ARC
  5
125
100
AcDbEntity
  8
0
  6
CONTINUOUS
 62
               7
100
AcDbCircle
 10
0.0
 20
0.0
 30
0.0
 40
7.4999999999999929
100
AcDbArc
 50
68.960530112261253
 51
110.96964734649346
  0
CIRCLE
  5
126
100
AcDbEntity
  8
0
  6
CONTINUOUS
 62
               7
100
AcDbCircle
 10
0.0017362678729169
 20
0.0
 30
0.0
 40
7.0000004306609291
  0
ARC
  5
127
100
AcDbEntity
  8
0
  6
CONTINUOUS
 62
               7
100
AcDbCircle
 10
0.0
 20
0.0
 30
0.0
 40
6.9999999999999991
100
AcDbArc
 50
29.999999999999964
 51
32.52446867435723
  0
LINE
  5
128
100
AcDbEntity
  8
0
  6
CONTINUOUS
 62
               7
100
AcDbLine
 10
15.890000000000002
 20
-7.4999999999999432
 30
0.0
 11
15.390000000000002
 21
-8.0
 31
0.0
  0
LINE
  5
129
100
AcDbEntity
  8
0
  6
CONTINUOUS
 62
               7
100
AcDbLine
 10
15.889999999999999
 20
7.4999999999999574
 30
0.0
 11
15.890000000000002
 21
-7.4999999999999432
 31
0.0
  0
LINE
  5
12A
100
AcDbEntity
  8
0
  6
CONTINUOUS
 62
               7
100
AcDbLine
 10
15.389999999999999
 20
8.0
 30
0.0
 11
15.889999999999999
 21
7.4999999999999574
 31
0.0
  0
LINE
  5
12B
100
AcDbEntity
  8
0
  6
CONTINUOUS
 62
               7
100
AcDbLine
 10
-15.400000000000002
 20
-8.0
 30
0.0
 11
-15.900000000000002
 21
-7.4999999999999574
 31
0.0
  0
LINE
  5
12C
100
AcDbEntity
  8
0
  6
CONTINUOUS
 62
               7
100
AcDbLine
 10
15.390000000000002
 20
-8.0
 30
0.0
 11
15.389999999999999
 21
8.0
 31
0.0
  0
LINE
  5
12D
100
AcDbEntity
  8
0
  6
CONTINUOUS
 62
               7
100
AcDbLine
 10
-15.400000000000002
 20
-8.0
 30
0.0
 11
-15.400000000000006
 21
8.0
 31
0.0
  0
LINE
  5
12E
100
AcDbEntity
  8
0
  6
CONTINUOUS
 62
               7
100
AcDbLine
 10
-15.900000000000002
 20
-7.4999999999999574
 30
0.0
 11
-15.900000000000006
 21
7.4999999999999432
 31
0.0
  0
LINE
  5
12F
100
AcDbEntity
  8
0
  6
CONTINUOUS
 62
               7
100
AcDbLine
 10
-15.900000000000006
 20
7.4999999999999432
 30
0.0
 11
15.889999999999999
 21
7.4999999999999574
 31
0.0
  0
LINE
  5
130
100
AcDbEntity
  8
0
  6
CONTINUOUS
 62
               7
100
AcDbLine
 10
-15.900000000000006
 20
7.4999999999999432
 30
0.0
 11
-15.400000000000006
 21
8.0
 31
0.0
  0
LINE
  5
131
100
AcDbEntity
  8
0
  6
CONTINUOUS
 62
               7
100
AcDbLine
 10
-15.400000000000006
 20
8.0
 30
0.0
 11
15.389999999999999
 21
8.0
 31
0.0
  0
LINE
  5
132
100
AcDbEntity
  8
0
  6
CONTINUOUS
 62
               7
100
AcDbLine
 10
-15.900000000000002
 20
-7.4999999999999574
 30
0.0
 11
15.890000000000002
 21
-7.4999999999999432
 31
0.0
  0
LINE
  5
133
100
AcDbEntity
  8
0
  6
CONTINUOUS
 62
               7
100
AcDbLine
 10
15.390000000000002
 20
-8.0
 30
0.0
 11
-15.400000000000002
 21
-8.0
 31
0.0
  0
LINE
  5
134
100
AcDbEntity
  8
0
  6
CONTINUOUS
 62
               7
100
AcDbLine
 10
4.0414519062065706
 20
-7.0000000050012261
 30
0.0
 11
8.0829037695564256
 21
-0.0000000258095696
 31
0.0
  0
LINE
  5
135
100
AcDbEntity
  8
0
  6
CONTINUOUS
 62
               7
100
AcDbLine
 10
-4.0414518821984418
 20
6.9999999949987739
 30
0.0
 11
4.0414518821791638
 21
6.9999999949987739
 31
0.0
  0
LINE
  5
136
100
AcDbEntity
  8
0
  6
CONTINUOUS
 62
               7
100
AcDbLine
 10
-4.0415850821513084
 20
-7.0000000050012261
 30
0.0
 11
-8.083036945501167
 21
0.0000000258095696
 31
0.0
  0
LINE
  5
137
100
AcDbEntity
  8
0
  6
CONTINUOUS
 62
               7
100
AcDbLine
 10
-4.0414518764235181
 20
-7.0000000050012261
 30
0.0
 11
-4.0415850821513084
 21
-7.0000000050012261
 31
0.0
  0
LINE
  5
138
100
AcDbEntity
  8
0
  6
CONTINUOUS
 62
               7
100
AcDbLine
 10
-8.083036945501167
 20
0.0000000258095696
 30
0.0
 11
-4.0415850879262329
 21
6.9999999949987739
 31
0.0
  0
LINE
  5
139
100
AcDbEntity
  8
0
  6
CONTINUOUS
 62
               7
100
AcDbLine
 10
-4.0414518821984418
 20
6.9999999949987739
 30
0.0
 11
-4.0415850879262329
 21
6.9999999949987739
 31
0.0
  0
LINE
  5
13A
100
AcDbEntity
  8
0
  6
CONTINUOUS
 62
               7
100
AcDbLine
 10
-4.0414518764235181
 20
-7.0000000050012261
 30
0.0
 11
4.0414519062065706
 21
-7.0000000050012261
 31
0.0
  0
LINE
  5
13B
100
AcDbEntity
  8
0
  6
CONTINUOUS
 62
               7
100
AcDbLine
 10
8.0829037695564256
 20
-0.0000000258095696
 30
0.0
 11
4.0414518821791638
 21
6.9999999949987739
 31
0.0
  0
CIRCLE
  5
13C
100
AcDbEntity
  8
0
  6
CONTINUOUS
 62
               2
100
AcDbCircle
 10
-0.0000000000000031
 20
0.0
 30
0.0
 40
5.5
  0
CIRCLE
  5
13D
100
AcDbEntity
  8
0
  6
CONTINUOUS
 62
               7
100
AcDbCircle
 10
-0.0000000000000031
 20
0.0
 30
0.0
 40
5.2999999999999998
  0
LINE
  5
13E
100
AcDbEntity
  8
0
  6
CENTER
 62
               2
100
AcDbLine
 10
18.76999999999995
 20
-0.0000000000001137
 30
0.0
 11
-18.38000000000002
 21
0.0000000000001137
 31
0.0
  0
LINE
  5
13F
100
AcDbEntity
  8
0
  6
CENTER
 62
               2
100
AcDbLine
 10
0.0
 20
10.153337573187187
 30
0.0
 11
0.0
 21
-10.842100455680338
 31
0.0
  0
ENDBLK
  5
140
100
AcDbEntity
  8
0
100
AcDbBlockEnd
  0
BLOCK
  5
23
100
AcDbEntity
  8
0
  6
ByBlock
 62
               0
100
AcDbBlockBegin
  2
_OPEN30
 70
               2
 10
0.0
 20
0.0
 30
0.0
  3
_OPEN30
  1

  0
LINE
  5
24
100
AcDbEntity
  8
0
  6
ByBlock
 62
               0
100
AcDbLine
 10
-1.0
 20
0.267949
 30
0.0
 11
0.0
 21
0.0
 31
0.0
  0
LINE
  5
25
100
AcDbEntity
  8
0
  6
ByBlock
 62
               0
100
AcDbLine
 10
0.0
 20
0.0
 30
0.0
 11
-1.0
 21
-0.267949
 31
0.0
  0
LINE
  5
26
100
AcDbEntity
  8
0
  6
ByBlock
 62
               0
100
AcDbLine
 10
0.0
 20
0.0
 30
0.0
 11
-1.0
 21
0.0
 31
0.0
  0
ENDBLK
  5
27
100
AcDbEntity
  8
0
  6
ByBlock
 62
               0
100
AcDbBlockEnd
  0
ENDSEC
  0
SECTION
  2
ENTITIES
  0
INSERT
  5
141
100
AcDbEntity
  8
0
  6
ByBlock
100
AcDbBlockReference
  2
41PP-4
 10
0.0000000000000036
 20
60.0
 30
0.0
  0
INSERT
  5
142
100
AcDbEntity
  8
0
  6
ByBlock
100
AcDbBlockReference
  2
41PP-3
 10
70.000000000000057
 20
-29.900000000012291
 30
0.0
  0
INSERT
  5
143
100
AcDbEntity
  8
0
  6
ByBlock
100
AcDbBlockReference
  2
41PP-2
 10
-69.999999999999844
 20
-29.899999999963061
 30
0.0
  0
INSERT
  5
144
100
AcDbEntity
  8
0
  6
ByBlock
100
AcDbBlockReference
  2
41PP-1
 10
-0.0000000000000013
 20
-29.899999999999984
 30
0.0
  0
MTEXT
  5
145
100
AcDbEntity
  8
0
  6
CONTINUOUS
 62
               7
100
AcDbMText
 10
-111.71817537102818
 20
89.099999904632568
 30
0.0
 40
3.1999998092651367
 41
0.0
 71
               1
 72
               1
  1
\W1.091;\A1;41PP
  0
LINE
  5
146
100
AcDbEntity
  8
0
  6
CONTINUOUS
 62
               7
100
AcDbLine
 10
-138.39999389648437
 20
94.5
 30
0.0
 11
138.35000610351562
 21
94.5
 31
0.0
  0
LINE
  5
147
100
AcDbEntity
  8
0
  6
CONTINUOUS
 62
               7
100
AcDbLine
 10
138.35000610351562
 20
94.5
 30
0.0
 11
138.35000610351562
 21
-94.800003051757812
 31
0.0
  0
LINE
  5
148
100
AcDbEntity
  8
0
  6
CONTINUOUS
 62
               7
100
AcDbLine
 10
-138.39999389648437
 20
-94.800003051757812
 30
0.0
 11
138.35000610351562
 21
-94.800003051757812
 31
0.0
  0
LINE
  5
149
100
AcDbEntity
  8
0
  6
CONTINUOUS
 62
               7
100
AcDbLine
 10
-138.39999389648437
 20
94.5
 30
0.0
 11
-138.39999389648437
 21
-94.800003051757812
 31
0.0
  0
LINE
  5
14A
100
AcDbEntity
  8
0
  6
CONTINUOUS
 62
               7
100
AcDbLine
 10
73.350006103515625
 20
-84.800003051757813
 30
0.0
 11
138.35000610351562
 21
-84.800003051757813
 31
0.0
  0
LINE
  5
14B
100
AcDbEntity
  8
0
  6
CONTINUOUS
 62
               7
100
AcDbLine
 10
-138.39999389648437
 20
84.5
 30
0.0
 11
-73.399993896484375
 21
84.5
 31
0.0
  0
LINE
  5
14C
100
AcDbEntity
  8
0
  6
CONTINUOUS
 62
               7
100
AcDbLine
 10
73.350006103515625
 20
84.5
 30
0.0
 11
138.35000610351562
 21
84.5
 31
0.0
  0
LINE
  5
14D
100
AcDbEntity
  8
0
  6
CONTINUOUS
 62
               7
100
AcDbLine
 10
73.350006103515625
 20
-84.800003051757813
 30
0.0
 11
73.350006103515625
 21
-94.800003051757812
 31
0.0
  0
LINE
  5
14E
100
AcDbEntity
  8
0
  6
CONTINUOUS
 62
               7
100
AcDbLine
 10
73.350006103515625
 20
94.5
 30
0.0
 11
73.350006103515625
 21
84.5
 31
0.0
  0
LINE
  5
14F
100
AcDbEntity
  8
0
  6
CONTINUOUS
 62
               7
100
AcDbLine
 10
-73.399993896484375
 20
94.5
 30
0.0
 11
-73.399993896484375
 21
84.5
 31
0.0
  0
MTEXT
  5
150
100
AcDbEntity
  8
0
  6
CONTINUOUS
 62
               7
100
AcDbMText
 10
77.440523342735503
 20
-89.800003051757812
 30
0.0
 40
4.5
 41
0.0
 71
               4
 72
               1
  1
\W1.121;\A1;KOGANEI CORP.
  0
MTEXT
  5
151
100
AcDbEntity
  8
0
  6
CONTINUOUS
 62
               7
100
AcDbMText
 10
93.749460369842424
 20
89.5
 30
0.0
 40
3.1999998092651367
 41
0.0
 71
               4
 72
               1
  1
\W1.311;\A1;Ver. 1.0
  0
MTEXT
  5
152
100
AcDbEntity
  8
0
  6
CONTINUOUS
 62
               7
100
AcDbMText
 10
-121.38051245831421
 20
93.099999904632568
 30
0.0
 40
3.1999998092651367
 41
0.0
 71
               1
 72
               1
  1
\W0.974;\A1;TAC2 VALVE
  0
MTEXT
  5
153
100
AcDbEntity
  8
0
  6
CONTINUOUS
 62
               7
100
AcDbMText
 10
-129.4074013208656
 20
74.5
 30
0.0
 40
3.2000000476837158
 41
0.0
 71
               4
 72
               1
  1
\W1.111;\A1;MODEL:41PP
  0
ENDSEC
  0
SECTION
  2
OBJECTS
  0
DICTIONARY
  5
19
100
AcDbDictionary
  3
ACAD_GROUP
350
1A
  3
ACAD_MLINESTYLE
350
1B
  0
DICTIONARY
  5
1A
102
{ACAD_REACTORS
330
19
102
}
100
AcDbDictionary
  0
DICTIONARY
  5
1B
102
{ACAD_REACTORS
330
19
102
}
100
AcDbDictionary
  3
STANDARD
350
1C
  0
MLINESTYLE
  5
1C
102
{ACAD_REACTORS
330
1B
102
}
100
AcDbMlineStyle
  2
Standard
 70
               0
  3

 62
               0
 51
90.0
 52
90.0
 71
               2
 49
0.5
 62
             256
  6
ByLayer
 49
-0.5
 62
             256
  6
ByLayer
  0
ENDSEC
  0
EOF
