  0
SECTION
  2
HEADER
  9
$ACADVER
  1
AC1012
  9
$DWGCODEPAGE
  3
dos932
  9
$INSBASE
 10
0.0
 20
0.0
 30
0.0
  9
$EXTMIN
 10
-138.39999389648437
 20
-94.800003051757812
 30
0.0
  9
$EXTMAX
 10
138.35000610351562
 20
94.5
 30
0.0
  9
$LIMMIN
 10
-148.5
 20
-105.00000000000001
  9
$LIMMAX
 10
148.5
 20
105.00000000000001
  9
$ORTHOMODE
 70
               0
  9
$REGENMODE
 70
               1
  9
$FILLMODE
 70
               1
  9
$QTEXTMODE
 70
               0
  9
$MIRRTEXT
 70
               1
  9
$DRAGMODE
 70
               2
  9
$LTSCALE
 40
1.0
  9
$OSMODE
 70
               0
  9
$ATTMODE
 70
               1
  9
$TEXTSIZE
 40
3.2000000476837158
  9
$TRACEWID
 40
0.05
  9
$TEXTSTYLE
  7
MX_NOTE_STANDARD
  9
$CLAYER
  8
0
  9
$CELTYPE
  6
CONTINUOUS
  9
$CECOLOR
 62
             256
  9
$CELTSCALE
 40
1.0
  9
$DELOBJ
 70
               1
  9
$DISPSILH
 70
               0
  9
$DIMSCALE
 40
1.0
  9
$DIMASZ
 40
2.5
  9
$DIMEXO
 40
1.5
  9
$DIMDLI
 40
3.75
  9
$DIMRND
 40
0.0
  9
$DIMDLE
 40
0.0
  9
$DIMEXE
 40
1.5
  9
$DIMTP
 40
0.0
  9
$DIMTM
 40
0.0
  9
$DIMTXT
 40
3.2000000476837158
  9
$DIMCEN
 40
2.5
  9
$DIMTSZ
 40
0.0
  9
$DIMTOL
 70
               0
  9
$DIMLIM
 70
               0
  9
$DIMTIH
 70
               0
  9
$DIMTOH
 70
               0
  9
$DIMSE1
 70
               0
  9
$DIMSE2
 70
               0
  9
$DIMTAD
 70
               1
  9
$DIMZIN
 70
               8
  9
$DIMBLK
  1

  9
$DIMASO
 70
               1
  9
$DIMSHO
 70
               1
  9
$DIMPOST
  1

  9
$DIMAPOST
  1

  9
$DIMALT
 70
               0
  9
$DIMALTD
 70
               4
  9
$DIMALTF
 40
0.03937007874016
  9
$DIMLFAC
 40
1.0
  9
$DIMTOFL
 70
               1
  9
$DIMTVP
 40
0.0
  9
$DIMTIX
 70
               0
  9
$DIMSOXD
 70
               0
  9
$DIMSAH
 70
               1
  9
$DIMBLK1
  1
_OPEN30
  9
$DIMBLK2
  1
_OPEN30
  9
$DIMSTYLE
  2
MXDIMSTYLE
  9
$DIMCLRD
 70
               0
  9
$DIMCLRE
 70
               0
  9
$DIMCLRT
 70
               0
  9
$DIMTFAC
 40
1.0
  9
$DIMGAP
 40
1.0
  9
$DIMJUST
 70
               0
  9
$DIMSD1
 70
               0
  9
$DIMSD2
 70
               0
  9
$DIMTOLJ
 70
               0
  9
$DIMTZIN
 70
               0
  9
$DIMALTZ
 70
               0
  9
$DIMALTTZ
 70
               0
  9
$DIMFIT
 70
               3
  9
$DIMUPT
 70
               1
  9
$DIMUNIT
 70
               2
  9
$DIMDEC
 70
               2
  9
$DIMTDEC
 70
               2
  9
$DIMALTU
 70
               2
  9
$DIMALTTD
 70
               4
  9
$DIMTXSTY
  7
MX_NOTE_STANDARD
  9
$DIMAUNIT
 70
               0
  9
$LUNITS
 70
               2
  9
$LUPREC
 70
               4
  9
$SKETCHINC
 40
0.1
  9
$FILLETRAD
 40
0.0
  9
$AUNITS
 70
               0
  9
$AUPREC
 70
               0
  9
$MENU
  1
acad
  9
$ELEVATION
 40
0.0
  9
$PELEVATION
 40
0.0
  9
$THICKNESS
 40
0.0
  9
$LIMCHECK
 70
               0
  9
$BLIPMODE
 70
               1
  9
$CHAMFERA
 40
0.0
  9
$CHAMFERB
 40
0.0
  9
$CHAMFERC
 40
0.0
  9
$CHAMFERD
 40
0.0
  9
$SKPOLY
 70
               0
  9
$TDCREATE
 40
2454085.536608796
  9
$TDUPDATE
 40
2454085.536608796
  9
$TDINDWG
 40
0.0000000000
  9
$TDUSRTIMER
 40
0.0000000000
  9
$USRTIMER
 70
               1
  9
$ANGBASE
 50
0.0
  9
$ANGDIR
 70
               0
  9
$PDMODE
 70
               0
  9
$PDSIZE
 40
0.0
  9
$PLINEWID
 40
0.0
  9
$COORDS
 70
               1
  9
$SPLFRAME
 70
               0
  9
$SPLINETYPE
 70
               6
  9
$SPLINESEGS
 70
               8
  9
$ATTDIA
 70
               0
  9
$ATTREQ
 70
               1
  9
$HANDLING
 70
               1
  9
$HANDSEED
  5
110
  9
$SURFTAB1
 70
               6
  9
$SURFTAB2
 70
               6
  9
$SURFTYPE
 70
               6
  9
$SURFU
 70
               6
  9
$SURFV
 70
               6
  9
$UCSNAME
  2

  9
$UCSORG
 10
0.0
 20
0.0
 30
0.0
  9
$UCSXDIR
 10
1.0
 20
0.0
 30
0.0
  9
$UCSYDIR
 10
0.0
 20
1.0
 30
0.0
  9
$PUCSNAME
  2

  9
$PUCSORG
 10
0.0
 20
0.0
 30
0.0
  9
$PUCSXDIR
 10
1.0
 20
0.0
 30
0.0
  9
$PUCSYDIR
 10
0.0
 20
1.0
 30
0.0
  9
$USERI1
 70
               0
  9
$USERI2
 70
               0
  9
$USERI3
 70
               0
  9
$USERI4
 70
               0
  9
$USERI5
 70
               0
  9
$USERR1
 40
0.0
  9
$USERR2
 40
0.0
  9
$USERR3
 40
0.0
  9
$USERR4
 40
0.0
  9
$USERR5
 40
0.0
  9
$WORLDVIEW
 70
               1
  9
$SHADEDGE
 70
               3
  9
$SHADEDIF
 70
              70
  9
$TILEMODE
 70
               1
  9
$MAXACTVP
 70
              16
  9
$PINSBASE
 10
0.0
 20
0.0
 30
0.0
  9
$PLIMCHECK
 70
               0
  9
$PEXTMIN
 10
1.0000000000000000E+20
 20
1.0000000000000000E+20
 30
1.0000000000000000E+20
  9
$PEXTMAX
 10
-1.0000000000000000E+20
 20
-1.0000000000000000E+20
 30
-1.0000000000000000E+20
  9
$PLIMMIN
 10
0.0
 20
0.0
  9
$PLIMMAX
 10
12.0
 20
9.0
  9
$UNITMODE
 70
               0
  9
$VISRETAIN
 70
               0
  9
$PLINEGEN
 70
               1
  9
$PSLTSCALE
 70
               0
  9
$TREEDEPTH
 70
            3020
  9
$PICKSTYLE
 70
               1
  9
$CMLSTYLE
  2
Standard
  9
$CMLJUST
 70
               0
  9
$CMLSCALE
 40
1.0
  9
$SAVEIMAGES
 70
               0
  0
ENDSEC
  0
SECTION
  2
CLASSES
  0
CLASS
  1
LWPOLYLINE
  2
AcDbPolyline
  3
"AutoCAD"
 90
    32768
280
               0
281
               1
  0
CLASS
  1
IMAGE
  2
AcDbRasterImage
  3
ISM
 90
    32895
280
               0
281
               1
  0
CLASS
  1
OLE2FRAME
  2
AcDbOle2Frame
  3
""
 90
    32768
280
               0
281
               1
  0
CLASS
  1
HATCH
  2
AcDbHatch
  3
"ACAD_SEDONA"
 90
    32768
280
               0
281
               1
  0
CLASS
  1
DICTIONARYVAR
  2
AcDbDictionaryVar
  3
"AutoCAD"
 90
    32768
280
               0
281
               0
  0
CLASS
  1
RASTERVARIABLES
  2
AcDbRasterVariables
  3
ISM
 90
    32768
280
               0
281
               0
  0
CLASS
  1
IMAGEDEF
  2
AcDbRasterImageDef
  3
ISM
 90
    32768
280
               0
281
               0
  0
CLASS
  1
IMAGEDEF_REACTOR
  2
AcDbRasterImageDefReactor
  3
ISM
 90
    32769
280
               0
281
               0
  0
CLASS
  1
IDBUFFER
  2
AcDbIdBuffer
  3
"Acad"
 90
    32768
280
               0
281
               0
  0
CLASS
  1
SPATIAL_FILTER
  2
AcDbSpatialFilter
  3
"Acad"
 90
    32768
280
               0
281
               0
  0
CLASS
  1
XRECORD
  2
AcDbXrecord
  3
"<Built In>"
 90
    32768
280
               0
281
               0
  0
CLASS
  1
SORTENTSTABLE
  2
AcDbSortentsTable
  3
"AutoCAD"
 90
    32768
280
               0
281
               0
  0
CLASS
  1
LAYER_INDEX
  2
AcDbLayerIndex
  3
"Acad"
 90
    32768
280
               0
281
               0
  0
CLASS
  1
SPATIAL_INDEX
  2
AcDbSpatialIndex
  3
"Acad"
 90
    32768
280
               0
281
               0
  0
CLASS
  1
OBJECT_PTR
  2
CAseDLPNTableRecord
  3
"ASE-LPNTableRecord"
 90
    32769
280
               0
281
               0
  0
CLASS
  1
LAYOUT
  2
AcDbLayout
  3
"AutoCAD 2000"
 90
    32768
280
               0
281
               0
  0
CLASS
  1
PLOTSETTINGS
  2
AcDbPlotSettings
  3
"AutoCAD 2000"
 90
    32768
280
               0
281
               0
  0
CLASS
  1
ACDBDICTIONARYWDFLT
  2
AcDbDictionaryWithDefault
  3
"AutoCAD 2000"
 90
    32768
280
               0
281
               0
  0
CLASS
  1
ACDBPLACEHOLDER
  2
AcDbPlaceHolder
  3
"AutoCAD 2000"
 90
    32768
280
               0
281
               0
  0
ENDSEC
  0
SECTION
  2
TABLES
  0
TABLE
  2
VPORT
  5
7
100
AcDbSymbolTable
 70
               1
  0
VPORT
  5
15
100
AcDbSymbolTableRecord
100
AcDbViewportTableRecord
  2
*ACTIVE
 70
               0
 10
0.0
 20
0.0
 11
1.0
 21
1.0
 12
0.0
 22
0.0
 13
0.0
 23
0.0
 14
1.0
 24
1.0
 15
0.0
 25
0.0
 16
0.0
 26
0.0
 36
1.0
 17
0.0
 27
0.0
 37
0.0
 40
212.10000000000002
 41
1.7320508075688772
 42
50.0
 43
0.0
 44
0.0
 50
0.0
 51
0.0
 71
               0
 72
             100
 73
               1
 74
               1
 75
               0
 76
               0
 77
               0
 78
               0
  0
ENDTAB
  0
TABLE
  2
LTYPE
  5
4
100
AcDbSymbolTable
 70
               7
  0
LTYPE
  5
11
100
AcDbSymbolTableRecord
100
AcDbLinetypeTableRecord
  2
BYBLOCK
 70
              64
  3

 72
              65
 73
               0
 40
0.0
  0
LTYPE
  5
12
100
AcDbSymbolTableRecord
100
AcDbLinetypeTableRecord
  2
BYLAYER
 70
              64
  3

 72
              65
 73
               0
 40
0.0
  0
LTYPE
  5
13
100
AcDbSymbolTableRecord
100
AcDbLinetypeTableRecord
  2
CONTINUOUS
 70
              64
  3
Solid line
 72
              65
 73
               0
 40
0.0
  0
LTYPE
  5
4B
100
AcDbSymbolTableRecord
100
AcDbLinetypeTableRecord
  2
NON_PLOTING
 70
               0
  3
Solid line
 72
              65
 73
               0
 40
0.0
  0
LTYPE
  5
5B
100
AcDbSymbolTableRecord
100
AcDbLinetypeTableRecord
  2
CENTER
 70
              64
  3
Center ____ _ ____ _ ____ _ ____ _ ____ _ ____
 72
              65
 73
               4
 40
50.800000000000004
 49
31.75
 74
               0
 49
-6.3499999999999996
 74
               0
 49
6.3499999999999996
 74
               0
 49
-6.3499999999999996
 74
               0
  0
LTYPE
  5
68
100
AcDbSymbolTableRecord
100
AcDbLinetypeTableRecord
  2
PHANTOM
 70
              64
  3
Phantom ______  __  __  ______  __  __  ______
 72
              65
 73
               6
 40
63.500000000000007
 49
31.75
 74
               0
 49
-6.3499999999999996
 74
               0
 49
6.3499999999999996
 74
               0
 49
-6.3499999999999996
 74
               0
 49
6.3499999999999996
 74
               0
 49
-6.3499999999999996
 74
               0
  0
LTYPE
  5
87
100
AcDbSymbolTableRecord
100
AcDbLinetypeTableRecord
  2
DASHED
 70
              64
  3
Dashed __ __ __ __ __ __ __ __ __ __ __ __ __ _
 72
              65
 73
               2
 40
19.049999999999997
 49
12.699999999999999
 74
               0
 49
-6.3499999999999996
 74
               0
  0
ENDTAB
  0
TABLE
  2
LAYER
  5
2
100
AcDbSymbolTable
 70
               2
  0
LAYER
  5
14
100
AcDbSymbolTableRecord
100
AcDbLayerTableRecord
  2
0
 70
               0
 62
               7
  6
CONTINUOUS
  0
LAYER
  5
1D
100
AcDbSymbolTableRecord
100
AcDbLayerTableRecord
  2
DEFPOINTS
 70
               0
 62
               7
  6
CONTINUOUS
  0
ENDTAB
  0
TABLE
  2
STYLE
  5
3
100
AcDbSymbolTable
 70
               1
  0
STYLE
  5
17
100
AcDbSymbolTableRecord
100
AcDbTextStyleTableRecord
  2
MX_NOTE_STANDARD
 70
               0
 40
0.0
 41
1.0
 50
0.0
 71
               0
 42
3.2000000476837158
  3
txt.shx
  4
extfont.shx
  0
ENDTAB
  0
TABLE
  2
VIEW
  5
5
100
AcDbSymbolTable
 70
               0
  0
ENDTAB
  0
TABLE
  2
UCS
  5
6
100
AcDbSymbolTable
 70
               0
  0
ENDTAB
  0
TABLE
  2
APPID
  5
8
100
AcDbSymbolTable
 70
               1
  0
APPID
  5
16
100
AcDbSymbolTableRecord
100
AcDbRegAppTableRecord
  2
ACAD
 70
               0
  0
ENDTAB
  0
TABLE
  2
DIMSTYLE
  5
9
100
AcDbSymbolTable
 70
               1
  0
DIMSTYLE
105
18
100
AcDbSymbolTableRecord
100
AcDbDimStyleTableRecord
  2
MXDIMSTYLE
 70
               0
  3

  4

  5

  6
_OPEN30
  7
_OPEN30
 40
1.0
 41
2.5
 42
1.5
 43
3.75
 44
1.5
 45
0.0
 46
0.0
 47
0.0
 48
0.0
 71
               0
 72
               0
 73
               0
 74
               0
 75
               0
 76
               0
 77
               1
 78
               8
140
3.2000000476837158
141
2.5
142
0.0
143
0.03937007874016
144
1.0
145
0.0
146
1.0
147
1.0
170
               0
171
               4
172
               1
173
               1
174
               0
175
               0
176
               0
177
               0
178
               0
270
               2
271
               2
272
               2
273
               2
274
               4
275
               0
280
               0
281
               0
282
               0
283
               0
284
               0
285
               0
286
               0
287
               3
288
               1
340
17
  0
ENDTAB
  0
TABLE
  2
BLOCK_RECORD
  5
1
100
AcDbSymbolTable
 70
               5
  0
BLOCK_RECORD
  5
A
100
AcDbSymbolTableRecord
100
AcDbBlockTableRecord
  2
*MODEL_SPACE
  0
BLOCK_RECORD
  5
B
100
AcDbSymbolTableRecord
100
AcDbBlockTableRecord
  2
*PAPER_SPACE
  0
BLOCK_RECORD
  5
1E
100
AcDbSymbolTableRecord
100
AcDbBlockTableRecord
  2
34C-1
  0
BLOCK_RECORD
  5
1F
100
AcDbSymbolTableRecord
100
AcDbBlockTableRecord
  2
34C-2
  0
BLOCK_RECORD
  5
20
100
AcDbSymbolTableRecord
100
AcDbBlockTableRecord
  2
34C-3
  0
BLOCK_RECORD
  5
21
100
AcDbSymbolTableRecord
100
AcDbBlockTableRecord
  2
34C-4
  0
BLOCK_RECORD
  5
22
100
AcDbSymbolTableRecord
100
AcDbBlockTableRecord
  2
_OPEN30
  0
ENDTAB
  0
ENDSEC
  0
SECTION
  2
BLOCKS
  0
BLOCK
  5
D
100
AcDbEntity
  8
0
100
AcDbBlockBegin
  2
*MODEL_SPACE
 70
               0
 10
0.0
 20
0.0
 30
0.0
  3
*MODEL_SPACE
  1

  0
ENDBLK
  5
E
100
AcDbEntity
  8
0
100
AcDbBlockEnd
  0
BLOCK
  5
F
100
AcDbEntity
 67
               1
  8
0
100
AcDbBlockBegin
  2
*PAPER_SPACE
 70
               0
 10
0.0
 20
0.0
 30
0.0
  3
*PAPER_SPACE
  1

  0
ENDBLK
  5
10
100
AcDbEntity
 67
               1
  8
0
100
AcDbBlockEnd
  0
BLOCK
  5
28
100
AcDbEntity
  8
0
100
AcDbBlockBegin
  2
34C-1
 70
               0
 10
0.0
 20
0.0
 30
0.0
  3
34C-1
  1

  0
LINE
  5
29
100
AcDbEntity
  8
0
  6
CONTINUOUS
 62
               7
100
AcDbLine
 10
-2.4000000000000004
 20
10.925222784865834
 30
0.0
 11
-2.4000000000000004
 21
23.52522278486585
 31
0.0
  0
LINE
  5
2A
100
AcDbEntity
  8
0
  6
CONTINUOUS
 62
               7
100
AcDbLine
 10
-2.2000000000000011
 20
23.725222784865849
 30
0.0
 11
-2.4000000000000004
 21
23.52522278486585
 31
0.0
  0
LINE
  5
2B
100
AcDbEntity
  8
0
  6
CONTINUOUS
 62
               7
100
AcDbLine
 10
-2.4000000000000004
 20
10.925222784865834
 30
0.0
 11
-2.2000000000000011
 21
10.725222784865839
 31
0.0
  0
LINE
  5
2C
100
AcDbEntity
  8
0
  6
CONTINUOUS
 62
               7
100
AcDbLine
 10
-2.2000000000000011
 20
23.725222784865849
 30
0.0
 11
-2.2000000000000011
 21
10.725222784865839
 31
0.0
  0
LINE
  5
2D
100
AcDbEntity
  8
0
  6
CONTINUOUS
 62
               7
100
AcDbLine
 10
2.4000000000000039
 20
23.52522278486585
 30
0.0
 11
2.4000000000000039
 21
10.925222784865834
 31
0.0
  0
LINE
  5
2E
100
AcDbEntity
  8
0
  6
CONTINUOUS
 62
               7
100
AcDbLine
 10
2.2000000000000037
 20
10.725222784865839
 30
0.0
 11
2.4000000000000039
 21
10.925222784865834
 31
0.0
  0
LINE
  5
2F
100
AcDbEntity
  8
0
  6
CONTINUOUS
 62
               7
100
AcDbLine
 10
2.4000000000000039
 20
23.52522278486585
 30
0.0
 11
2.2000000000000037
 21
23.725222784865849
 31
0.0
  0
LINE
  5
30
100
AcDbEntity
  8
0
  6
CONTINUOUS
 62
               7
100
AcDbLine
 10
2.2000000000000037
 20
10.725222784865839
 30
0.0
 11
2.2000000000000037
 21
23.725222784865849
 31
0.0
  0
LINE
  5
31
100
AcDbEntity
  8
0
  6
CONTINUOUS
 62
               7
100
AcDbLine
 10
-2.2000000000000011
 20
10.725222784865839
 30
0.0
 11
2.2000000000000037
 21
10.725222784865839
 31
0.0
  0
LINE
  5
32
100
AcDbEntity
  8
0
  6
CONTINUOUS
 62
               7
100
AcDbLine
 10
2.2000000000000037
 20
23.725222784865849
 30
0.0
 11
-2.2000000000000011
 21
23.725222784865849
 31
0.0
  0
LINE
  5
33
100
AcDbEntity
  8
0
  6
CONTINUOUS
 62
               7
100
AcDbLine
 10
-3.3999999999999542
 20
20.725222784865842
 30
0.0
 11
-4.9999999999999982
 21
20.725222784865842
 31
0.0
  0
LINE
  5
34
100
AcDbEntity
  8
0
  6
CONTINUOUS
 62
               7
100
AcDbLine
 10
-4.9999999999999982
 20
2.0999999999999162
 30
0.0
 11
-4.9999999999999982
 21
20.725222784865842
 31
0.0
  0
LINE
  5
35
100
AcDbEntity
  8
0
  6
CONTINUOUS
 62
               7
100
AcDbLine
 10
5.0000000000000098
 20
20.725222784865842
 30
0.0
 11
3.3999999999999639
 21
20.725222784865842
 31
0.0
  0
LINE
  5
36
100
AcDbEntity
  8
0
  6
CONTINUOUS
 62
               7
100
AcDbLine
 10
5.0000000000000098
 20
2.0999999999999162
 30
0.0
 11
5.0000000000000098
 21
20.725222784865842
 31
0.0
  0
LINE
  5
37
100
AcDbEntity
  8
0
  6
CONTINUOUS
 62
               7
100
AcDbLine
 10
2.9000000000000039
 20
13.975222784865835
 30
0.0
 11
2.9000000000000039
 21
20.475222784865849
 31
0.0
  0
LINE
  5
38
100
AcDbEntity
  8
0
  6
CONTINUOUS
 62
               7
100
AcDbLine
 10
2.4000000000000039
 20
13.975222784865839
 30
0.0
 11
2.9000000000000039
 21
13.975222784865839
 31
0.0
  0
LINE
  5
39
100
AcDbEntity
  8
0
  6
CONTINUOUS
 62
               7
100
AcDbLine
 10
2.9000000000000039
 20
20.475222784865849
 30
0.0
 11
2.4000000000000039
 21
20.475222784865849
 31
0.0
  0
LINE
  5
3A
100
AcDbEntity
  8
0
  6
CONTINUOUS
 62
               7
100
AcDbLine
 10
-2.9000000000000004
 20
13.975222784865835
 30
0.0
 11
-2.9000000000000004
 21
20.475222784865849
 31
0.0
  0
LINE
  5
3B
100
AcDbEntity
  8
0
  6
CONTINUOUS
 62
               7
100
AcDbLine
 10
-2.9000000000000004
 20
13.975222784865839
 30
0.0
 11
-2.4000000000000004
 21
13.975222784865839
 31
0.0
  0
LINE
  5
3C
100
AcDbEntity
  8
0
  6
CONTINUOUS
 62
               7
100
AcDbLine
 10
-2.4000000000000004
 20
20.475222784865849
 30
0.0
 11
-2.9000000000000004
 21
20.475222784865849
 31
0.0
  0
LINE
  5
3D
100
AcDbEntity
  8
0
  6
CONTINUOUS
 62
               7
100
AcDbLine
 10
-6.3999999999999932
 20
16.633101189251843
 30
0.0
 11
-6.3999999999999932
 21
17.817344382031951
 31
0.0
  0
LINE
  5
3E
100
AcDbEntity
  8
0
  6
CONTINUOUS
 62
               7
100
AcDbLine
 10
-3.3999999999999542
 20
15.72522278486584
 30
0.0
 11
-2.9000000000000075
 21
15.72522278486584
 31
0.0
  0
LINE
  5
3F
100
AcDbEntity
  8
0
  6
CONTINUOUS
 62
               7
100
AcDbLine
 10
-2.9000000000000075
 20
18.725222784865842
 30
0.0
 11
-3.3999999999999542
 21
18.725222784865842
 31
0.0
  0
LINE
  5
40
100
AcDbEntity
  8
0
  6
CONTINUOUS
 62
               7
100
AcDbLine
 10
5.4999999999999547
 20
18.725222784865842
 30
0.0
 11
5.4999999999999547
 21
15.725222784865842
 31
0.0
  0
LINE
  5
41
100
AcDbEntity
  8
0
  6
CONTINUOUS
 62
               7
100
AcDbLine
 10
2.900000000000019
 20
15.72522278486584
 30
0.0
 11
3.3999999999999639
 21
15.72522278486584
 31
0.0
  0
LINE
  5
42
100
AcDbEntity
  8
0
  6
CONTINUOUS
 62
               7
100
AcDbLine
 10
5.0000000000000098
 20
15.72522278486584
 30
0.0
 11
5.4999999999999547
 21
15.72522278486584
 31
0.0
  0
LINE
  5
43
100
AcDbEntity
  8
0
  6
CONTINUOUS
 62
               7
100
AcDbLine
 10
5.4999999999999547
 20
18.725222784865842
 30
0.0
 11
5.0000000000000098
 21
18.725222784865842
 31
0.0
  0
LINE
  5
44
100
AcDbEntity
  8
0
  6
CONTINUOUS
 62
               7
100
AcDbLine
 10
3.3999999999999639
 20
18.725222784865842
 30
0.0
 11
2.900000000000019
 21
18.725222784865842
 31
0.0
  0
LINE
  5
45
100
AcDbEntity
  8
0
  6
CONTINUOUS
 62
               7
100
AcDbLine
 10
-8.7499999998417994
 20
1.5999999999998167
 30
0.0
 11
8.7499999994875619
 21
1.5999999999999837
 31
0.0
  0
LINE
  5
46
100
AcDbEntity
  8
0
  6
CONTINUOUS
 62
               7
100
AcDbLine
 10
-8.7499999998417994
 20
-0.0000000000000853
 30
0.0
 11
8.7499999994875619
 21
0.0000000000000817
 31
0.0
  0
LINE
  5
47
100
AcDbEntity
  8
0
  6
CONTINUOUS
 62
               7
100
AcDbLine
 10
-8.7499999999999947
 20
1.5999985327770609
 30
0.0
 11
-8.7499999999999947
 21
-0.000001467222873
 31
0.0
  0
LINE
  5
48
100
AcDbEntity
  8
0
  6
CONTINUOUS
 62
               7
100
AcDbLine
 10
8.7500000000000053
 20
-0.0000026410696705
 30
0.0
 11
8.7500000000000053
 21
1.5999973589303771
 31
0.0
  0
LINE
  5
49
100
AcDbEntity
  8
0
  6
CONTINUOUS
 62
               7
100
AcDbLine
 10
3.4000000000000057
 20
9.1436863458283106
 30
0.0
 11
-3.399999999999995
 21
9.1436863458283213
 31
0.0
  0
LINE
  5
4A
100
AcDbEntity
  8
0
  6
CONTINUOUS
 62
               7
100
AcDbLine
 10
3.3999999999999639
 20
2.0999999999999162
 30
0.0
 11
3.3999999999999639
 21
20.725222784865842
 31
0.0
  0
LINE
  5
4C
100
AcDbEntity
  8
DEFPOINTS
  6
NON_PLOTING
 62
               7
100
AcDbLine
 10
5.0000000000000098
 20
6.0999999999999162
 30
0.0
 11
6.6000000000000556
 21
6.0999999999999162
 31
0.0
  0
LINE
  5
4D
100
AcDbEntity
  8
0
  6
CONTINUOUS
 62
               7
100
AcDbLine
 10
6.6000000000000556
 20
10.099999999999916
 30
0.0
 11
5.0000000000000098
 21
10.099999999999916
 31
0.0
  0
LINE
  5
4E
100
AcDbEntity
  8
0
  6
CONTINUOUS
 62
               7
100
AcDbLine
 10
6.6000000000000556
 20
1.5999999999998593
 30
0.0
 11
6.6000000000000556
 21
10.099999999999916
 31
0.0
  0
LINE
  5
4F
100
AcDbEntity
  8
DEFPOINTS
  6
NON_PLOTING
 62
               7
100
AcDbLine
 10
-6.6000000000000458
 20
6.0999999999999162
 30
0.0
 11
-4.9999999999999982
 21
6.0999999999999162
 31
0.0
  0
LINE
  5
50
100
AcDbEntity
  8
0
  6
CONTINUOUS
 62
               7
100
AcDbLine
 10
-4.9999999999999982
 20
10.099999999999916
 30
0.0
 11
-6.6000000000000458
 21
10.099999999999916
 31
0.0
  0
LINE
  5
51
100
AcDbEntity
  8
0
  6
CONTINUOUS
 62
               7
100
AcDbLine
 10
-6.6000000000000458
 20
1.5999999999999623
 30
0.0
 11
-6.6000000000000458
 21
10.099999999999916
 31
0.0
  0
LINE
  5
52
100
AcDbEntity
  8
0
  6
CONTINUOUS
 62
               7
100
AcDbLine
 10
-3.3999999999999542
 20
2.0999999999999162
 30
0.0
 11
-3.3999999999999542
 21
20.725222784865842
 31
0.0
  0
LINE
  5
53
100
AcDbEntity
  8
0
  6
CONTINUOUS
 62
               7
100
AcDbLine
 10
-4.9999999999999982
 20
2.0999999999999162
 30
0.0
 11
-3.3999999999999542
 21
2.0999999999999162
 31
0.0
  0
LINE
  5
54
100
AcDbEntity
  8
0
  6
CONTINUOUS
 62
               7
100
AcDbLine
 10
3.3999999999999639
 20
2.0999999999999162
 30
0.0
 11
5.0000000000000098
 21
2.0999999999999162
 31
0.0
  0
LINE
  5
55
100
AcDbEntity
  8
0
  6
CONTINUOUS
 62
               7
100
AcDbLine
 10
-7.9999999999999947
 20
5.1874507916757615
 30
0.0
 11
-7.9999999999999947
 21
7.0125492133611687
 31
0.0
  0
LINE
  5
56
100
AcDbEntity
  8
0
  6
CONTINUOUS
 62
               7
100
AcDbLine
 10
7.8000000000000345
 20
7.5999999999999162
 30
0.0
 11
7.8000000000000345
 21
4.5999999999999162
 31
0.0
  0
LINE
  5
57
100
AcDbEntity
  8
0
  6
CONTINUOUS
 62
               7
100
AcDbLine
 10
-3.3999999999999542
 20
4.5999999999999162
 30
0.0
 11
3.3999999999999639
 21
4.5999999999999162
 31
0.0
  0
LINE
  5
58
100
AcDbEntity
  8
0
  6
CONTINUOUS
 62
               7
100
AcDbLine
 10
6.6000000000000556
 20
4.5999999999999162
 30
0.0
 11
7.8000000000000345
 21
4.5999999999999162
 31
0.0
  0
LINE
  5
59
100
AcDbEntity
  8
0
  6
CONTINUOUS
 62
               7
100
AcDbLine
 10
7.8000000000000345
 20
7.5999999999999162
 30
0.0
 11
6.6000000000000556
 21
7.5999999999999162
 31
0.0
  0
LINE
  5
5A
100
AcDbEntity
  8
0
  6
CONTINUOUS
 62
               7
100
AcDbLine
 10
3.400000000000075
 20
7.5999999999999162
 30
0.0
 11
-3.3999999999999542
 21
7.5999999999999162
 31
0.0
  0
LINE
  5
5C
100
AcDbEntity
  8
0
  6
CENTER
 62
               2
100
AcDbLine
 10
-10.999999999999995
 20
6.0999999999999162
 30
0.0
 11
10.800000000000034
 21
6.0999999999999162
 31
0.0
  0
LINE
  5
5D
100
AcDbEntity
  8
0
  6
CENTER
 62
               2
100
AcDbLine
 10
-9.3999999999999932
 20
17.225222784865842
 30
0.0
 11
8.4999999999999556
 21
17.225222784865842
 31
0.0
  0
ARC
  5
5E
100
AcDbEntity
  8
0
  6
CONTINUOUS
 62
               7
100
AcDbCircle
 10
-4.399999999999995
 20
17.817344382031951
 30
0.0
 40
2.0
100
AcDbArc
 50
107.45760312372221
 51
180.0
  0
ARC
  5
5F
100
AcDbEntity
  8
0
  6
CONTINUOUS
 62
               7
100
AcDbCircle
 10
-4.399999999999995
 20
16.633101187699733
 30
0.0
 40
2.0
100
AcDbArc
 50
180.0
 51
252.54239687627776
  0
ARC
  5
60
100
AcDbEntity
  8
0
  6
CONTINUOUS
 62
               7
100
AcDbCircle
 10
4.5000000000000284
 20
2.0999999999999162
 30
0.0
 40
0.5
100
AcDbArc
 50
270.0
 51
0.0
  0
ARC
  5
61
100
AcDbEntity
  8
0
  6
CONTINUOUS
 62
               7
100
AcDbCircle
 10
-4.4999999999999947
 20
2.0999999999999162
 30
0.0
 40
0.5
100
AcDbArc
 50
180.0
 51
270.0
  0
ARC
  5
62
100
AcDbEntity
  8
0
  6
CONTINUOUS
 62
               7
100
AcDbCircle
 10
-6.3999999999999932
 20
7.0125492133611687
 30
0.0
 40
1.6000000000000001
100
AcDbArc
 50
97.180755781460093
 51
180.0
  0
ARC
  5
63
100
AcDbEntity
  8
0
  6
CONTINUOUS
 62
               7
100
AcDbCircle
 10
-6.3999999999999932
 20
5.1874507866386637
 30
0.0
 40
1.6000000000000001
100
AcDbArc
 50
180.0
 51
262.81924421853995
  0
LINE
  5
64
100
AcDbEntity
  8
0
  6
CENTER
 62
               2
100
AcDbLine
 10
0.0000000000000015
 20
26.725222784865849
 30
0.0
 11
-0.0000000000000003
 21
-3.0000000000000036
 31
0.0
  0
ENDBLK
  5
65
100
AcDbEntity
  8
0
100
AcDbBlockEnd
  0
BLOCK
  5
66
100
AcDbEntity
  8
0
100
AcDbBlockBegin
  2
34C-2
 70
               0
 10
0.0
 20
0.0
 30
0.0
  3
34C-2
  1

  0
LINE
  5
67
100
AcDbEntity
  8
0
  6
CENTER
 62
               2
100
AcDbLine
 10
0.0
 20
4.6088024425895107
 30
0.0
 11
0.0
 21
-2.9911975574105476
 31
0.0
  0
LINE
  5
69
100
AcDbEntity
  8
0
  6
PHANTOM
 62
               2
100
AcDbLine
 10
6.8482336443258589
 20
12.434025227455383
 30
0.0
 11
21.827636152897085
 21
12.434025227455383
 31
0.0
  0
LINE
  5
6A
100
AcDbEntity
  8
0
  6
PHANTOM
 62
               2
100
AcDbLine
 10
12.781575270889434
 20
17.234025227455383
 30
0.0
 11
10.43942793602757
 21
24.442413521598635
 31
0.0
  0
LINE
  5
6B
100
AcDbEntity
  8
0
  6
PHANTOM
 62
               2
100
AcDbLine
 10
-13.044562999999997
 20
6.1088024425894538
 30
0.0
 11
-16.131898217174893
 21
15.610643214230008
 31
0.0
  0
LINE
  5
6C
100
AcDbEntity
  8
0
  6
CONTINUOUS
 62
               7
100
AcDbLine
 10
-7.1805738282830731
 20
1.6088024425895213
 30
0.0
 11
-7.1805738282830731
 21
0.0088024425894524
 31
0.0
  0
LINE
  5
6D
100
AcDbEntity
  8
0
  6
CONTINUOUS
 62
               7
100
AcDbLine
 10
8.7501281924836007
 20
1.6087563527472248
 30
0.0
 11
8.7501281924836007
 21
0.0088024425894524
 31
0.0
  0
CIRCLE
  5
6E
100
AcDbEntity
  8
0
  6
CONTINUOUS
 62
               7
100
AcDbCircle
 10
12.781575270889434
 20
17.234025227455383
 30
0.0
 40
2.5
  0
CIRCLE
  5
6F
100
AcDbEntity
  8
0
  6
CONTINUOUS
 62
               7
100
AcDbCircle
 10
-13.044562999999997
 20
6.1088024425894503
 30
0.0
 40
2.5
  0
ARC
  5
70
100
AcDbEntity
  8
0
  6
CONTINUOUS
 62
               7
100
AcDbCircle
 10
12.781575270889434
 20
17.234025227455383
 30
0.0
 40
6.5000000000000053
100
AcDbArc
 50
230.57897039280405
 51
165.42102960719595
  0
ARC
  5
71
100
AcDbEntity
  8
0
  6
CONTINUOUS
 62
               7
100
AcDbCircle
 10
12.781575270889434
 20
17.234025227455383
 30
0.0
 40
6.3000000000000069
100
AcDbArc
 50
231.74898859588853
 51
164.25101140411147
  0
ARC
  5
72
100
AcDbEntity
  8
0
  6
CONTINUOUS
 62
               7
100
AcDbCircle
 10
-17.122691562650658
 20
1.5088024425894488
 30
0.0
 40
1.5
100
AcDbArc
 50
194.00000000000006
 51
270.0
  0
ARC
  5
73
100
AcDbEntity
  8
0
  6
CONTINUOUS
 62
               7
100
AcDbCircle
 10
12.781575270889434
 20
17.234025227455383
 30
0.0
 40
3.4999999999999996
100
AcDbArc
 50
288.0
 51
108.0
  0
ARC
  5
74
100
AcDbEntity
  8
0
  6
CONTINUOUS
 62
               7
100
AcDbCircle
 10
-7.1528767644522731
 20
4.9738868942522387
 30
0.0
 40
2.0
100
AcDbArc
 50
108.0000000000002
 51
161.0571981460339
  0
ARC
  5
75
100
AcDbEntity
  8
0
  6
CONTINUOUS
 62
               7
100
AcDbCircle
 10
2.9964739448988809
 20
-1.1915491744485571
 30
0.0
 40
12.0
100
AcDbArc
 50
84.443535690898756
 51
131.55646430910119
  0
ARC
  5
76
100
AcDbEntity
  8
0
  6
CONTINUOUS
 62
               7
100
AcDbCircle
 10
-13.044562999999997
 20
6.1088024425894503
 30
0.0
 40
4.0
100
AcDbArc
 50
0.0
 51
180.0
  0
LINE
  5
77
100
AcDbEntity
  8
0
  6
CENTER
 62
               2
100
AcDbLine
 10
-17.044562999999997
 20
6.1088024425894538
 30
0.0
 11
-9.0445629999999966
 21
6.1088024425894538
 31
0.0
  0
LINE
  5
78
100
AcDbEntity
  8
0
  6
CENTER
 62
               2
100
AcDbLine
 10
-13.044562999999997
 20
10.108802442589454
 30
0.0
 11
-13.044562999999997
 21
2.1088024425894538
 31
0.0
  0
LINE
  5
79
100
AcDbEntity
  8
0
  6
CENTER
 62
               2
100
AcDbLine
 10
12.781575270889434
 20
26.73402522745539
 30
0.0
 11
12.781575270889434
 21
7.7340252274553798
 31
0.0
  0
LINE
  5
7A
100
AcDbEntity
  8
0
  6
CONTINUOUS
 62
               7
100
AcDbLine
 10
-9.0445629999999966
 20
1.6088024425894965
 30
0.0
 11
8.7501294796703704
 21
1.6088024425895213
 31
0.0
  0
LINE
  5
7B
100
AcDbEntity
  8
0
  6
CONTINUOUS
 62
               7
100
AcDbLine
 10
-17.044562999999997
 20
0.0088024425894488
 30
0.0
 11
8.7501281924836007
 21
0.0088024425894524
 31
0.0
  0
LINE
  5
7C
100
AcDbEntity
  8
0
  6
CONTINUOUS
 62
               7
100
AcDbLine
 10
-17.122691562650658
 20
0.0088024425894488
 30
0.0
 11
-17.044562999999997
 21
0.0088024425894488
 31
0.0
  0
LINE
  5
7D
100
AcDbEntity
  8
0
  6
CONTINUOUS
 62
               7
100
AcDbLine
 10
-18.578135152064661
 20
1.1459195991899449
 30
0.0
 11
-20.990584989336142
 21
10.821727409629979
 31
0.0
  0
LINE
  5
7E
100
AcDbEntity
  8
0
  6
CONTINUOUS
 62
               7
100
AcDbLine
 10
-17.169227001421589
 20
2.1088024425894467
 30
0.0
 11
-19.438111827294534
 21
11.208802442589448
 31
0.0
  0
LINE
  5
7F
100
AcDbEntity
  8
0
  6
CONTINUOUS
 62
               7
100
AcDbLine
 10
-20.990584989336128
 20
10.821727409629975
 30
0.0
 11
-19.438111827294534
 21
11.208802442589448
 31
0.0
  0
LINE
  5
80
100
AcDbEntity
  8
0
  6
CONTINUOUS
 62
               7
100
AcDbLine
 10
-18.733792730867791
 20
10.674179214490099
 30
0.0
 11
11.700015790577126
 21
20.562723034488421
 31
0.0
  0
LINE
  5
81
100
AcDbEntity
  8
0
  6
CONTINUOUS
 62
               7
100
AcDbLine
 10
-17.044562999999997
 20
5.4752646812913142
 30
0.0
 11
-18.733792730867791
 21
10.674179214490099
 31
0.0
  0
LINE
  5
82
100
AcDbEntity
  8
0
  6
CONTINUOUS
 62
               7
100
AcDbLine
 10
-4.9638198145258201
 20
7.7880790619354165
 30
0.0
 11
-7.7709107532021733
 21
6.8759999268425425
 31
0.0
  0
LINE
  5
83
100
AcDbEntity
  8
0
  6
CONTINUOUS
 62
               7
100
AcDbLine
 10
13.863134751201756
 20
13.905327420422342
 30
0.0
 11
4.1583938280747219
 21
10.752065947660853
 31
0.0
  0
LINE
  5
84
100
AcDbEntity
  8
0
  6
CONTINUOUS
 62
               7
100
AcDbLine
 10
-17.044562999999997
 20
2.1088024425894503
 30
0.0
 11
-17.169227001421589
 21
2.1088024425894467
 31
0.0
  0
LINE
  5
85
100
AcDbEntity
  8
0
  6
CONTINUOUS
 62
               7
100
AcDbLine
 10
-17.044562999999997
 20
0.0088024425894488
 30
0.0
 11
-17.044562999999997
 21
6.1088024425894503
 31
0.0
  0
LINE
  5
86
100
AcDbEntity
  8
0
  6
CONTINUOUS
 62
               7
100
AcDbLine
 10
-9.0445629999999966
 20
0.0088024425894524
 30
0.0
 11
-9.0445629999999966
 21
6.1088024425894538
 31
0.0
  0
CIRCLE
  5
88
100
AcDbEntity
  8
0
  6
DASHED
 62
               2
100
AcDbCircle
 10
14.370252885466158
 20
12.434029357349349
 30
0.0
 40
6.5
  0
LINE
  5
89
100
AcDbEntity
  8
0
  6
CENTER
 62
               2
100
AcDbLine
 10
6.4815752708894365
 20
17.234025227455383
 30
0.0
 11
20.94153065239005
 21
17.234025227455383
 31
0.0
  0
ENDBLK
  5
8A
100
AcDbEntity
  8
0
100
AcDbBlockEnd
  0
BLOCK
  5
8B
100
AcDbEntity
  8
0
100
AcDbBlockBegin
  2
34C-3
 70
               0
 10
0.0
 20
0.0
 30
0.0
  3
34C-3
  1

  0
LINE
  5
8C
100
AcDbEntity
  8
0
  6
CONTINUOUS
 62
               7
100
AcDbLine
 10
19.428803111352082
 20
11.18387460230834
 30
0.0
 11
20.981276273393675
 21
10.796799569348867
 31
0.0
  0
LINE
  5
8D
100
AcDbEntity
  8
0
  6
CONTINUOUS
 62
               7
100
AcDbLine
 10
-8.7594381955359069
 20
1.5838746023085726
 30
0.0
 11
-8.7594381955359069
 21
-0.0161253976916633
 31
0.0
  0
LINE
  5
8E
100
AcDbEntity
  8
0
  6
CONTINUOUS
 62
               7
100
AcDbLine
 10
7.1712651123406204
 20
1.5838746023082386
 30
0.0
 11
7.1712651123406204
 21
-0.0161253976916633
 31
0.0
  0
CIRCLE
  5
8F
100
AcDbEntity
  8
0
  6
CONTINUOUS
 62
               7
100
AcDbCircle
 10
-12.790883986831894
 20
17.209097387174264
 30
0.0
 40
1.5999999999999996
  0
CIRCLE
  5
90
100
AcDbEntity
  8
0
  6
CONTINUOUS
 62
               7
100
AcDbCircle
 10
-12.790883986831894
 20
17.209097387174264
 30
0.0
 40
1.5
  0
CIRCLE
  5
91
100
AcDbEntity
  8
0
  6
CONTINUOUS
 62
               7
100
AcDbCircle
 10
13.035254284057544
 20
6.0838746023083381
 30
0.0
 40
1.5999999999999996
  0
CIRCLE
  5
92
100
AcDbEntity
  8
0
  6
CONTINUOUS
 62
               7
100
AcDbCircle
 10
13.035254284057544
 20
6.0838746023083381
 30
0.0
 40
1.5
  0
ARC
  5
93
100
AcDbEntity
  8
0
  6
CONTINUOUS
 62
               7
100
AcDbCircle
 10
17.113382846708205
 20
1.4838746023083367
 30
0.0
 40
1.5
100
AcDbArc
 50
270.0
 51
345.99999999999994
  0
ARC
  5
94
100
AcDbEntity
  8
0
  6
CONTINUOUS
 62
               7
100
AcDbCircle
 10
-12.790883986831894
 20
17.209097387174264
 30
0.0
 40
3.4999999999999996
100
AcDbArc
 50
72.0
 51
252.00000000000006
  0
ARC
  5
95
100
AcDbEntity
  8
0
  6
CONTINUOUS
 62
               7
100
AcDbCircle
 10
-3.0057826608413194
 20
-1.2164770147296728
 30
0.0
 40
12.0
100
AcDbArc
 50
48.443535690898813
 51
95.556464309101244
  0
ARC
  5
96
100
AcDbEntity
  8
0
  6
CONTINUOUS
 62
               7
100
AcDbCircle
 10
7.1435680485098203
 20
4.948959053971123
 30
0.0
 40
2.0
100
AcDbArc
 50
18.942801853966209
 51
71.999999999999844
  0
ARC
  5
97
100
AcDbEntity
  8
0
  6
CONTINUOUS
 62
               7
100
AcDbCircle
 10
13.035254284057544
 20
6.0838746023083381
 30
0.0
 40
4.0
100
AcDbArc
 50
0.0
 51
180.0
  0
LINE
  5
98
100
AcDbEntity
  8
0
  6
CENTER
 62
               2
100
AcDbLine
 10
15.735254284057547
 20
6.0838746023083381
 30
0.0
 11
10.335254284057541
 21
6.0838746023083381
 31
0.0
  0
LINE
  5
99
100
AcDbEntity
  8
0
  6
CENTER
 62
               2
100
AcDbLine
 10
13.035254284057544
 20
3.3838746023083388
 30
0.0
 11
13.035254284057544
 21
8.7838746023083409
 31
0.0
  0
LINE
  5
9A
100
AcDbEntity
  8
0
  6
CONTINUOUS
 62
               7
100
AcDbLine
 10
-8.7594381955359069
 20
1.5838746023085726
 30
0.0
 11
9.0352542840575438
 21
1.5838746023083843
 31
0.0
  0
LINE
  5
9B
100
AcDbEntity
  8
0
  6
CONTINUOUS
 62
               7
100
AcDbLine
 10
17.035254284057544
 20
-0.0161253976916633
 30
0.0
 11
17.113382846708205
 21
-0.0161253976916633
 31
0.0
  0
LINE
  5
9C
100
AcDbEntity
  8
0
  6
CONTINUOUS
 62
               7
100
AcDbLine
 10
18.724484014925338
 20
10.64925137420899
 30
0.0
 11
-11.709324506519579
 21
20.537795194207302
 31
0.0
  0
LINE
  5
9D
100
AcDbEntity
  8
0
  6
CONTINUOUS
 62
               7
100
AcDbLine
 10
-13.872443467144208
 20
13.880399580141226
 30
0.0
 11
-4.1677025440171889
 21
10.727138107379737
 31
0.0
  0
LINE
  5
9E
100
AcDbEntity
  8
0
  6
CONTINUOUS
 62
               7
100
AcDbLine
 10
4.9545110985833674
 20
7.7631512216543008
 30
0.0
 11
7.7616020372597205
 21
6.8510720865614303
 31
0.0
  0
LINE
  5
9F
100
AcDbEntity
  8
0
  6
CONTINUOUS
 62
               7
100
AcDbLine
 10
17.035254284057544
 20
5.4503368410101878
 30
0.0
 11
18.724484014925338
 21
10.64925137420899
 31
0.0
  0
LINE
  5
A0
100
AcDbEntity
  8
0
  6
CONTINUOUS
 62
               7
100
AcDbLine
 10
17.159918285479137
 20
2.0838746023083345
 30
0.0
 11
17.035254284057544
 21
2.0838746023083381
 31
0.0
  0
LINE
  5
A1
100
AcDbEntity
  8
0
  6
CONTINUOUS
 62
               7
100
AcDbLine
 10
17.035254284057544
 20
-0.0161253976916633
 30
0.0
 11
17.035254284057544
 21
6.0838746023083381
 31
0.0
  0
LINE
  5
A2
100
AcDbEntity
  8
0
  6
CONTINUOUS
 62
               7
100
AcDbLine
 10
9.0352542840575438
 20
-0.0161253976916633
 30
0.0
 11
9.0352542840575438
 21
1.4838746023083367
 31
0.0
  0
LINE
  5
A3
100
AcDbEntity
  8
0
  6
CONTINUOUS
 62
               7
100
AcDbLine
 10
9.0352542840575438
 20
6.0838746023083381
 30
0.0
 11
9.0352542840575438
 21
1.4838746023083367
 31
0.0
  0
LINE
  5
A4
100
AcDbEntity
  8
0
  6
CONTINUOUS
 62
               7
100
AcDbLine
 10
-8.7594381955359069
 20
-0.0161253976916633
 30
0.0
 11
17.035254284057544
 21
-0.0161253976916633
 31
0.0
  0
LINE
  5
A5
100
AcDbEntity
  8
0
  6
CENTER
 62
               2
100
AcDbLine
 10
-23.159117340102185
 20
17.209097387174264
 30
0.0
 11
-3.2908839868318864
 21
17.209097387174264
 31
0.0
  0
LINE
  5
A6
100
AcDbEntity
  8
0
  6
CENTER
 62
               2
100
AcDbLine
 10
-0.0093100026980721
 20
4.5838746023083878
 30
0.0
 11
-0.0093100026980721
 21
-3.0161253976916704
 31
0.0
  0
LINE
  5
A7
100
AcDbEntity
  8
0
  6
CONTINUOUS
 62
               7
100
AcDbLine
 10
18.568826436122194
 20
1.1209917589088363
 30
0.0
 11
20.981276273393703
 21
10.796799569348888
 31
0.0
  0
LINE
  5
A8
100
AcDbEntity
  8
0
  6
CONTINUOUS
 62
               7
100
AcDbLine
 10
17.159918285479137
 20
2.0838746023083345
 30
0.0
 11
19.428803111352053
 21
11.183874602308368
 31
0.0
  0
LINE
  5
A9
100
AcDbEntity
  8
0
  6
CENTER
 62
               2
100
AcDbLine
 10
-12.790883986831894
 20
7.709097387174257
 30
0.0
 11
-12.790883986831894
 21
26.709097387174268
 31
0.0
  0
ARC
  5
AA
100
AcDbEntity
  8
0
  6
CONTINUOUS
 62
               7
100
AcDbCircle
 10
-12.790883986831894
 20
17.209097387174264
 30
0.0
 40
6.3000000000000069
100
AcDbArc
 50
15.748988595888529
 51
308.25101140411147
  0
ARC
  5
AB
100
AcDbEntity
  8
0
  6
CONTINUOUS
 62
               7
100
AcDbCircle
 10
-12.790883986831894
 20
17.209097387174264
 30
0.0
 40
6.5000000000000053
100
AcDbArc
 50
14.578970392804058
 51
309.42102960719592
  0
ENDBLK
  5
AC
100
AcDbEntity
  8
0
100
AcDbBlockEnd
  0
BLOCK
  5
AD
100
AcDbEntity
  8
0
100
AcDbBlockBegin
  2
34C-4
 70
               0
 10
0.0
 20
0.0
 30
0.0
  3
34C-4
  1

  0
SPLINE
  5
AE
100
AcDbEntity
  8
0
  6
CONTINUOUS
 62
               7
100
AcDbSpline
210
0.0
220
0.0
230
1.0
 70
               0
 71
               3
 72
               0
 73
               0
 74
               3
 44
0.000001
 12
0.961573809805511
 22
0.2745465503263791
 32
0.0
 13
0.9213470083765489
 23
0.3887411608713225
 33
0.0
 11
2.4019137756981261
 21
-8.4140055953276232
 31
0.0
 11
2.8508764710327115
 21
-8.2726746989098672
 31
0.0
 11
3.40204008137307
 21
-8.0616817070773834
 31
0.0
  0
SPLINE
  5
AF
100
AcDbEntity
  8
0
  6
CONTINUOUS
 62
               7
100
AcDbSpline
210
0.0
220
0.0
230
1.0
 70
               0
 71
               3
 72
               0
 73
               0
 74
               3
 44
0.000001
 12
0.9213127480026606
 22
-0.3888223506535936
 32
0.0
 13
0.9615789707220362
 23
-0.2745284740516898
 33
0.0
 11
-3.4025858216721612
 21
-8.061451378503449
 31
0.0
 11
-2.9416338860429962
 21
-8.2408388625975704
 31
0.0
 11
-2.40158875263409
 21
-8.4140983730493701
 31
0.0
  0
ELLIPSE
  5
B0
100
AcDbEntity
  8
0
  6
DASHED
 62
               7
100
AcDbEllipse
 10
-4.5
 20
17.169226937727458
 30
0.0
 11
-0.5
 21
0.0000000000000001
 31
0.0
210
0.0
220
0.0
230
1.0
 40
0.2493280028431803
 41
0.0
 42
0.2443460952789858
  0
ELLIPSE
  5
B1
100
AcDbEntity
  8
0
  6
DASHED
 62
               7
100
AcDbEllipse
 10
4.5000000000000249
 20
17.169226937727458
 30
0.0
 11
-0.5
 21
0.0000000000000001
 31
0.0
210
0.0
220
0.0
230
1.0
 40
0.2493280028431803
 41
2.8972465583111076
 42
3.1415926535897931
  0
ELLIPSE
  5
B2
100
AcDbEntity
  8
0
  6
CONTINUOUS
 62
               7
100
AcDbEllipse
 10
-4.0000000000000036
 20
20.748663030042309
 30
0.0
 11
1.0
 21
0.0
 31
0.0
210
0.0
220
0.0
230
1.0
 40
0.2419218955996687
 41
1.5707963267948966
 42
3.1415926535897931
  0
ELLIPSE
  5
B3
100
AcDbEntity
  8
0
  6
CONTINUOUS
 62
               7
100
AcDbEllipse
 10
-4.0000000000000036
 20
19.196189868000729
 30
0.0
 11
-1.0
 21
0.0000000000000001
 31
0.0
210
0.0
220
0.0
230
1.0
 40
0.2419218955996674
 41
4.7123889803846897
 42
0.0
  0
ELLIPSE
  5
B4
100
AcDbEntity
  8
0
  6
CONTINUOUS
 62
               7
100
AcDbEllipse
 10
4.0000000000000009
 20
20.748663030042337
 30
0.0
 11
1.0
 21
0.0
 31
0.0
210
0.0
220
0.0
230
1.0
 40
0.2419218955996687
 41
0.0
 42
1.5707963267948934
  0
ELLIPSE
  5
B5
100
AcDbEntity
  8
0
  6
CONTINUOUS
 62
               7
100
AcDbEllipse
 10
4.0000000000000018
 20
19.196189868000687
 30
0.0
 11
-1.0
 21
0.0000000000000001
 31
0.0
210
0.0
220
0.0
230
1.0
 40
0.2419218955996674
 41
3.1415926535897931
 42
4.7123889803846861
  0
ELLIPSE
  5
B6
100
AcDbEntity
  8
0
  6
CONTINUOUS
 62
               7
100
AcDbEllipse
 10
3.0000000000000093
 20
-6.4881039475002211
 30
0.0
 11
2.0
 21
0.0
 31
0.0
210
0.0
220
0.0
230
1.0
 40
0.9510565162951536
 41
1.3694384060045681
 42
1.570796326794897
  0
ELLIPSE
  5
B7
100
AcDbEntity
  8
0
  6
CONTINUOUS
 62
               7
100
AcDbEllipse
 10
-2.9999999999999996
 20
-6.4881039475002211
 30
0.0
 11
2.0
 21
0.0
 31
0.0
210
0.0
220
0.0
230
1.0
 40
0.9510565162951536
 41
1.5707963267948968
 42
1.7721542475852254
  0
ELLIPSE
  5
B8
100
AcDbEntity
  8
0
  6
CONTINUOUS
 62
               7
100
AcDbEllipse
 10
-2.9999999999999996
 20
-5.993676756500264
 30
0.0
 11
2.0
 21
0.0
 31
0.0
210
0.0
220
0.0
230
1.0
 40
0.9510565162951536
 41
1.5707963267948968
 42
1.7721542475852254
  0
ELLIPSE
  5
B9
100
AcDbEntity
  8
0
  6
CONTINUOUS
 62
               7
100
AcDbEllipse
 10
3.0000000000000093
 20
-5.993676756500264
 30
0.0
 11
2.0
 21
0.0
 31
0.0
210
0.0
220
0.0
230
1.0
 40
0.9510565162951536
 41
1.3694384060045681
 42
1.570796326794897
  0
ARC
  5
BA
100
AcDbEntity
  8
0
  6
CONTINUOUS
 62
               7
100
AcDbCircle
 10
-0.0000000211602163
 20
0.0447927180309335
 30
0.0
 40
6.2501931124293426
100
AcDbArc
 50
237.02319459414886
 51
302.9873380979451
  0
ARC
  5
BB
100
AcDbEntity
  8
0
  6
CONTINUOUS
 62
               7
100
AcDbCircle
 10
0.0000000000000182
 20
-0.0001295435836113
 30
0.0
 40
8.750000000000016
100
AcDbArc
 50
124.84990457904654
 51
235.13065958113961
  0
ARC
  5
BC
100
AcDbEntity
  8
0
  6
CONTINUOUS
 62
               7
100
AcDbCircle
 10
-0.0000000000000209
 20
-0.0001295435836113
 30
0.0
 40
8.7500000000000249
100
AcDbArc
 50
304.87758126423927
 51
55.150095420953456
  0
ARC
  5
BD
100
AcDbEntity
  8
0
  6
CONTINUOUS
 62
               7
100
AcDbCircle
 10
-6.3999999999999986
 20
12.132013722944592
 30
0.0
 40
1.6000000000000001
100
AcDbArc
 50
180.00000000000009
 51
262.81924421853995
  0
ARC
  5
BE
100
AcDbEntity
  8
0
  6
CONTINUOUS
 62
               7
100
AcDbCircle
 10
-6.3999999999999986
 20
13.957112149667111
 30
0.0
 40
1.6000000000000001
100
AcDbArc
 50
97.180755781460064
 51
180.00000000000006
  0
ARC
  5
BF
100
AcDbEntity
  8
0
  6
CONTINUOUS
 62
               7
100
AcDbCircle
 10
-4.399999999999995
 20
-13.373696931749695
 30
0.0
 40
2.0
100
AcDbArc
 50
180.0
 51
252.54239687627779
  0
ARC
  5
C0
100
AcDbEntity
  8
0
  6
CONTINUOUS
 62
               7
100
AcDbCircle
 10
-4.399999999999995
 20
-12.189453737417466
 30
0.0
 40
2.0
100
AcDbArc
 50
107.45760312372219
 51
179.99999999999994
  0
LINE
  5
C1
100
AcDbEntity
  8
0
  6
CENTER
 62
               2
100
AcDbLine
 10
3.9600000000000066
 20
-12.781575334583579
 30
0.0
 11
-3.960000000000004
 21
-12.781575334583579
 31
0.0
  0
LINE
  5
C2
100
AcDbEntity
  8
0
  6
DASHED
 62
               7
100
AcDbLine
 10
6.2500000000000036
 20
-0.0001295465878428
 30
0.0
 11
6.2500000000000036
 21
0.0445624390011119
 31
0.0
  0
LINE
  5
C3
100
AcDbEntity
  8
0
  6
DASHED
 62
               7
100
AcDbLine
 10
-6.2499999999999964
 20
0.0445625031309334
 30
0.0
 11
-6.2499999999999964
 21
-0.0001294648700139
 31
0.0
  0
LINE
  5
C4
100
AcDbEntity
  8
0
  6
CONTINUOUS
 62
               7
100
AcDbLine
 10
7.8000000000000309
 20
14.544562936305852
 30
0.0
 11
6.600000000000052
 21
14.544562936305852
 31
0.0
  0
LINE
  5
C5
100
AcDbEntity
  8
0
  6
CONTINUOUS
 62
               7
100
AcDbLine
 10
6.600000000000052
 20
11.544562936305852
 30
0.0
 11
7.8000000000000309
 21
11.544562936305852
 31
0.0
  0
LINE
  5
C6
100
AcDbEntity
  8
0
  6
CONTINUOUS
 62
               7
100
AcDbLine
 10
7.8000000000000309
 20
14.544562936305852
 30
0.0
 11
7.8000000000000309
 21
11.544562936305852
 31
0.0
  0
LINE
  5
C7
100
AcDbEntity
  8
0
  6
CONTINUOUS
 62
               7
100
AcDbLine
 10
-7.9999999999999964
 20
12.132013722944592
 30
0.0
 11
-7.9999999999999964
 21
13.957112149667097
 31
0.0
  0
LINE
  5
C8
100
AcDbEntity
  8
0
  6
CONTINUOUS
 62
               7
100
AcDbLine
 10
-6.6000000000000476
 20
17.044562936305852
 30
0.0
 11
-5.0000000000000036
 21
17.044562936305852
 31
0.0
  0
LINE
  5
C9
100
AcDbEntity
  8
0
  6
CONTINUOUS
 62
               7
100
AcDbLine
 10
-6.6000000000000476
 20
9.0445629363058515
 30
0.0
 11
-6.6000000000000476
 21
17.044562936305852
 31
0.0
  0
LINE
  5
CA
100
AcDbEntity
  8
0
  6
CONTINUOUS
 62
               7
100
AcDbLine
 10
-6.6000000000000476
 20
9.0445629363058515
 30
0.0
 11
-5.0000000000000018
 21
9.0445629363058515
 31
0.0
  0
LINE
  5
CB
100
AcDbEntity
  8
0
  6
CONTINUOUS
 62
               7
100
AcDbLine
 10
6.6000000000000529
 20
9.0445629363058515
 30
0.0
 11
6.600000000000052
 21
17.044562936305852
 31
0.0
  0
LINE
  5
CC
100
AcDbEntity
  8
0
  6
CONTINUOUS
 62
               7
100
AcDbLine
 10
5.0000000000000062
 20
17.044562936305852
 30
0.0
 11
6.600000000000052
 21
17.044562936305852
 31
0.0
  0
LINE
  5
CD
100
AcDbEntity
  8
0
  6
CONTINUOUS
 62
               7
100
AcDbLine
 10
5.0000000000000071
 20
9.0445629363058515
 30
0.0
 11
6.6000000000000529
 21
9.0445629363058515
 31
0.0
  0
LINE
  5
CE
100
AcDbEntity
  8
0
  6
CONTINUOUS
 62
               7
100
AcDbLine
 10
4.0000000000000044
 20
20.990584925641983
 30
0.0
 11
-4.0000000000000036
 21
20.990584925641983
 31
0.0
  0
LINE
  5
CF
100
AcDbEntity
  8
0
  6
CONTINUOUS
 62
               7
100
AcDbLine
 10
4.0000000000000044
 20
19.438111763600389
 30
0.0
 11
-4.0000000000000036
 21
19.438111763600389
 31
0.0
  0
LINE
  5
D0
100
AcDbEntity
  8
DEFPOINTS
  6
NON_PLOTING
 62
               7
100
AcDbLine
 10
-4.0000000000000036
 20
20.990584925641983
 30
0.0
 11
-4.0000000000000036
 21
19.438111763600389
 31
0.0
  0
LINE
  5
D1
100
AcDbEntity
  8
DEFPOINTS
  6
NON_PLOTING
 62
               7
100
AcDbLine
 10
4.0000000000000044
 20
19.438111763600389
 30
0.0
 11
4.0000000000000044
 21
20.990584925641983
 31
0.0
  0
LINE
  5
D2
100
AcDbEntity
  8
0
  6
CONTINUOUS
 62
               7
100
AcDbLine
 10
5.0000000000000098
 20
-16.281575334583582
 30
0.0
 11
5.0000000000000053
 21
20.748663030042323
 31
0.0
  0
LINE
  5
D3
100
AcDbEntity
  8
0
  6
CONTINUOUS
 62
               7
100
AcDbLine
 10
-2.9999999999999996
 20
-4.5859909149099281
 30
0.0
 11
3.0000000000000084
 21
-4.5859909149099281
 31
0.0
  0
LINE
  5
D4
100
AcDbEntity
  8
0
  6
CONTINUOUS
 62
               7
100
AcDbLine
 10
3.3999999999999635
 20
-11.281575334583579
 30
0.0
 11
2.9000000000000186
 21
-11.281575334583579
 31
0.0
  0
LINE
  5
D5
100
AcDbEntity
  8
0
  6
CONTINUOUS
 62
               7
100
AcDbLine
 10
5.4999999999999547
 20
-11.281575334583579
 30
0.0
 11
5.0000000000000098
 21
-11.281575334583579
 31
0.0
  0
LINE
  5
D6
100
AcDbEntity
  8
0
  6
CONTINUOUS
 62
               7
100
AcDbLine
 10
5.0000000000000098
 20
-14.281575334583582
 30
0.0
 11
5.4999999999999547
 21
-14.281575334583582
 31
0.0
  0
LINE
  5
D7
100
AcDbEntity
  8
0
  6
CONTINUOUS
 62
               7
100
AcDbLine
 10
2.9000000000000195
 20
-14.281575334583582
 30
0.0
 11
3.3999999999999644
 21
-14.281575334583582
 31
0.0
  0
LINE
  5
D8
100
AcDbEntity
  8
0
  6
CONTINUOUS
 62
               7
100
AcDbLine
 10
5.4999999999999547
 20
-11.281575334583579
 30
0.0
 11
5.4999999999999547
 21
-14.281575334583582
 31
0.0
  0
LINE
  5
D9
100
AcDbEntity
  8
0
  6
CONTINUOUS
 62
               7
100
AcDbLine
 10
-2.9000000000000088
 20
-11.281575334583579
 30
0.0
 11
-3.3999999999999537
 21
-11.281575334583579
 31
0.0
  0
LINE
  5
DA
100
AcDbEntity
  8
0
  6
CONTINUOUS
 62
               7
100
AcDbLine
 10
-3.3999999999999519
 20
-14.281575334583582
 30
0.0
 11
-2.9000000000000088
 21
-14.281575334583582
 31
0.0
  0
LINE
  5
DB
100
AcDbEntity
  8
0
  6
CONTINUOUS
 62
               7
100
AcDbLine
 10
-6.399999999999995
 20
-13.373696931749695
 30
0.0
 11
-6.399999999999995
 21
-12.189453737417466
 31
0.0
  0
LINE
  5
DC
100
AcDbEntity
  8
0
  6
CONTINUOUS
 62
               7
100
AcDbLine
 10
-2.8999999999999999
 20
-16.031575334583589
 30
0.0
 11
-2.8999999999999999
 21
-9.5315753345835788
 31
0.0
  0
LINE
  5
DD
100
AcDbEntity
  8
0
  6
CONTINUOUS
 62
               7
100
AcDbLine
 10
-2.3999999999999999
 20
-9.5315753345835788
 30
0.0
 11
-2.8999999999999999
 21
-9.5315753345835788
 31
0.0
  0
LINE
  5
DE
100
AcDbEntity
  8
0
  6
CONTINUOUS
 62
               7
100
AcDbLine
 10
-2.8999999999999999
 20
-16.031575334583589
 30
0.0
 11
-2.3999999999999999
 21
-16.031575334583589
 31
0.0
  0
LINE
  5
DF
100
AcDbEntity
  8
0
  6
CONTINUOUS
 62
               7
100
AcDbLine
 10
2.9000000000000044
 20
-16.031575334583589
 30
0.0
 11
2.9000000000000044
 21
-9.5315753345835788
 31
0.0
  0
LINE
  5
E0
100
AcDbEntity
  8
0
  6
CONTINUOUS
 62
               7
100
AcDbLine
 10
2.9000000000000044
 20
-9.5315753345835788
 30
0.0
 11
2.4000000000000044
 21
-9.5315753345835788
 31
0.0
  0
LINE
  5
E1
100
AcDbEntity
  8
0
  6
CONTINUOUS
 62
               7
100
AcDbLine
 10
2.4000000000000044
 20
-16.031575334583589
 30
0.0
 11
2.9000000000000044
 21
-16.031575334583589
 31
0.0
  0
LINE
  5
E2
100
AcDbEntity
  8
0
  6
CONTINUOUS
 62
               7
100
AcDbLine
 10
-3.3999999999999519
 20
-16.281575334583582
 30
0.0
 11
-3.3999999999999964
 21
-4.1299942113225967
 31
0.0
  0
LINE
  5
E3
100
AcDbEntity
  8
0
  6
CONTINUOUS
 62
               7
100
AcDbLine
 10
-2.9999999999999996
 20
-4.0915637239099709
 30
0.0
 11
3.0000000000000084
 21
-4.0915637239099709
 31
0.0
  0
LINE
  5
E4
100
AcDbEntity
  8
0
  6
CONTINUOUS
 62
               7
100
AcDbLine
 10
5.0000000000000053
 20
18.733792667173645
 30
0.0
 11
-5.0000000000000036
 21
18.733792667173645
 31
0.0
  0
LINE
  5
E5
100
AcDbEntity
  8
DEFPOINTS
  6
NON_PLOTING
 62
               7
100
AcDbLine
 10
3.3999999999999635
 20
-11.700015854271271
 30
0.0
 11
5.0000000000000098
 21
-11.700015854271271
 31
0.0
  0
LINE
  5
E6
100
AcDbEntity
  8
0
  6
CONTINUOUS
 62
               7
100
AcDbLine
 10
3.3999999999999653
 20
-16.281575334583582
 30
0.0
 11
5.0000000000000098
 21
-16.281575334583582
 31
0.0
  0
LINE
  5
E7
100
AcDbEntity
  8
0
  6
CONTINUOUS
 62
               7
100
AcDbLine
 10
3.3999999999999653
 20
-16.281575334583582
 30
0.0
 11
3.4000000000000044
 21
-4.129994211322682
 31
0.0
  0
LINE
  5
E8
100
AcDbEntity
  8
DEFPOINTS
  6
NON_PLOTING
 62
               7
100
AcDbLine
 10
-3.3999999999999537
 20
-11.700015854271271
 30
0.0
 11
-5.0
 21
-11.700015854271271
 31
0.0
  0
LINE
  5
E9
100
AcDbEntity
  8
0
  6
CONTINUOUS
 62
               7
100
AcDbLine
 10
-5.0
 20
-16.281575334583582
 30
0.0
 11
-3.3999999999999519
 21
-16.281575334583582
 31
0.0
  0
LINE
  5
EA
100
AcDbEntity
  8
0
  6
CONTINUOUS
 62
               7
100
AcDbLine
 10
-5.0
 20
-16.281575334583582
 30
0.0
 11
-5.0000000000000036
 21
20.748663030042309
 31
0.0
  0
LINE
  5
EB
100
AcDbEntity
  8
0
  6
CONTINUOUS
 62
               7
100
AcDbLine
 10
2.2000000000000033
 20
-6.2815753345835788
 30
0.0
 11
-2.2000000000000006
 21
-6.2815753345835788
 31
0.0
  0
LINE
  5
EC
100
AcDbEntity
  8
0
  6
CONTINUOUS
 62
               7
100
AcDbLine
 10
-2.1999999999999988
 20
-19.281575334583589
 30
0.0
 11
2.2000000000000051
 21
-19.281575334583589
 31
0.0
  0
LINE
  5
ED
100
AcDbEntity
  8
0
  6
CONTINUOUS
 62
               7
100
AcDbLine
 10
2.4000000000000035
 20
-6.4815753345835816
 30
0.0
 11
2.2000000000000033
 21
-6.2815753345835788
 31
0.0
  0
LINE
  5
EE
100
AcDbEntity
  8
0
  6
CONTINUOUS
 62
               7
100
AcDbLine
 10
2.2000000000000051
 20
-19.281575334583589
 30
0.0
 11
2.4000000000000044
 21
-19.081575334583587
 31
0.0
  0
LINE
  5
EF
100
AcDbEntity
  8
0
  6
CONTINUOUS
 62
               7
100
AcDbLine
 10
2.4000000000000035
 20
-6.4815753345835816
 30
0.0
 11
2.4000000000000044
 21
-19.081575334583587
 31
0.0
  0
LINE
  5
F0
100
AcDbEntity
  8
0
  6
CONTINUOUS
 62
               7
100
AcDbLine
 10
2.2000000000000051
 20
-19.281575334583589
 30
0.0
 11
2.2000000000000033
 21
-6.2815753345835788
 31
0.0
  0
LINE
  5
F1
100
AcDbEntity
  8
0
  6
CONTINUOUS
 62
               7
100
AcDbLine
 10
-2.3999999999999999
 20
-19.081575334583587
 30
0.0
 11
-2.4000000000000017
 21
-6.4815753345835816
 31
0.0
  0
LINE
  5
F2
100
AcDbEntity
  8
0
  6
CONTINUOUS
 62
               7
100
AcDbLine
 10
-2.3999999999999999
 20
-19.081575334583587
 30
0.0
 11
-2.1999999999999988
 21
-19.281575334583589
 31
0.0
  0
LINE
  5
F3
100
AcDbEntity
  8
0
  6
CONTINUOUS
 62
               7
100
AcDbLine
 10
-2.2000000000000006
 20
-6.2815753345835788
 30
0.0
 11
-2.4000000000000017
 21
-6.4815753345835816
 31
0.0
  0
LINE
  5
F4
100
AcDbEntity
  8
0
  6
CONTINUOUS
 62
               7
100
AcDbLine
 10
-2.1999999999999988
 20
-19.281575334583589
 30
0.0
 11
-2.2000000000000006
 21
-6.2815753345835788
 31
0.0
  0
ARC
  5
F5
100
AcDbEntity
  8
0
  6
CONTINUOUS
 62
               7
100
AcDbCircle
 10
0.0092804484709357
 20
0.0
 30
0.0
 40
6.2407195529548574
100
AcDbArc
 50
323.10171058125439
 51
36.898289418745499
  0
ARC
  5
F6
100
AcDbEntity
  8
0
  6
CONTINUOUS
 62
               7
100
AcDbCircle
 10
-0.0008011883794441
 20
-0.0001297859808815
 30
0.0
 40
6.2493586221199831
100
AcDbArc
 50
143.19617755006672
 51
216.8384918040046
  0
LINE
  5
F7
100
AcDbEntity
  8
0
  6
CENTER
 62
               2
100
AcDbLine
 10
10.800000000000031
 20
13.044562936305979
 30
0.0
 11
-10.999999999999995
 21
13.044562936305979
 31
0.0
  0
LINE
  5
F8
100
AcDbEntity
  8
0
  6
CENTER
 62
               2
100
AcDbLine
 10
0.0000000000000015
 20
23.990584925641983
 30
0.0
 11
-0.0000000000000014
 21
-22.281575334583593
 31
0.0
  0
LINE
  5
F9
100
AcDbEntity
  8
0
  6
CENTER
 62
               2
100
AcDbLine
 10
9.9999999998228795
 20
0.0
 30
0.0
 11
-10.000000000177121
 21
0.0
 31
0.0
  0
ENDBLK
  5
FA
100
AcDbEntity
  8
0
100
AcDbBlockEnd
  0
BLOCK
  5
23
100
AcDbEntity
  8
0
  6
ByBlock
 62
               0
100
AcDbBlockBegin
  2
_OPEN30
 70
               2
 10
0.0
 20
0.0
 30
0.0
  3
_OPEN30
  1

  0
LINE
  5
24
100
AcDbEntity
  8
0
  6
ByBlock
 62
               0
100
AcDbLine
 10
-1.0
 20
0.267949
 30
0.0
 11
0.0
 21
0.0
 31
0.0
  0
LINE
  5
25
100
AcDbEntity
  8
0
  6
ByBlock
 62
               0
100
AcDbLine
 10
0.0
 20
0.0
 30
0.0
 11
-1.0
 21
-0.267949
 31
0.0
  0
LINE
  5
26
100
AcDbEntity
  8
0
  6
ByBlock
 62
               0
100
AcDbLine
 10
0.0
 20
0.0
 30
0.0
 11
-1.0
 21
0.0
 31
0.0
  0
ENDBLK
  5
27
100
AcDbEntity
  8
0
  6
ByBlock
 62
               0
100
AcDbBlockEnd
  0
ENDSEC
  0
SECTION
  2
ENTITIES
  0
INSERT
  5
FB
100
AcDbEntity
  8
0
  6
ByBlock
100
AcDbBlockReference
  2
34C-4
 10
0.0000000001771201
 20
45.160568848832654
 30
0.0
  0
INSERT
  5
FC
100
AcDbEntity
  8
0
  6
ByBlock
100
AcDbBlockReference
  2
34C-3
 10
70.009310002698072
 20
-29.983874602308337
 30
0.0
  0
INSERT
  5
FD
100
AcDbEntity
  8
0
  6
ByBlock
100
AcDbBlockReference
  2
34C-2
 10
-70.0
 20
-30.008802442589452
 30
0.0
  0
INSERT
  5
FE
100
AcDbEntity
  8
0
  6
ByBlock
100
AcDbBlockReference
  2
34C-1
 10
0.0000000001771188
 20
-29.999999999999996
 30
0.0
  0
MTEXT
  5
FF
100
AcDbEntity
  8
0
  6
CONTINUOUS
 62
               7
100
AcDbMText
 10
-110.16666030883789
 20
89.099999904632568
 30
0.0
 40
3.1999998092651367
 41
0.0
 71
               1
 72
               1
  1
\A1;34C
  0
LINE
  5
100
100
AcDbEntity
  8
0
  6
CONTINUOUS
 62
               7
100
AcDbLine
 10
-138.39999389648437
 20
94.5
 30
0.0
 11
138.35000610351562
 21
94.5
 31
0.0
  0
LINE
  5
101
100
AcDbEntity
  8
0
  6
CONTINUOUS
 62
               7
100
AcDbLine
 10
138.35000610351562
 20
94.5
 30
0.0
 11
138.35000610351562
 21
-94.800003051757812
 31
0.0
  0
LINE
  5
102
100
AcDbEntity
  8
0
  6
CONTINUOUS
 62
               7
100
AcDbLine
 10
-138.39999389648437
 20
-94.800003051757812
 30
0.0
 11
138.35000610351562
 21
-94.800003051757812
 31
0.0
  0
LINE
  5
103
100
AcDbEntity
  8
0
  6
CONTINUOUS
 62
               7
100
AcDbLine
 10
-138.39999389648437
 20
94.5
 30
0.0
 11
-138.39999389648437
 21
-94.800003051757812
 31
0.0
  0
LINE
  5
104
100
AcDbEntity
  8
0
  6
CONTINUOUS
 62
               7
100
AcDbLine
 10
73.350006103515625
 20
-84.800003051757813
 30
0.0
 11
138.35000610351562
 21
-84.800003051757813
 31
0.0
  0
LINE
  5
105
100
AcDbEntity
  8
0
  6
CONTINUOUS
 62
               7
100
AcDbLine
 10
-138.39999389648437
 20
84.5
 30
0.0
 11
-73.399993896484375
 21
84.5
 31
0.0
  0
LINE
  5
106
100
AcDbEntity
  8
0
  6
CONTINUOUS
 62
               7
100
AcDbLine
 10
73.350006103515625
 20
84.5
 30
0.0
 11
138.35000610351562
 21
84.5
 31
0.0
  0
LINE
  5
107
100
AcDbEntity
  8
0
  6
CONTINUOUS
 62
               7
100
AcDbLine
 10
73.350006103515625
 20
-84.800003051757813
 30
0.0
 11
73.350006103515625
 21
-94.800003051757812
 31
0.0
  0
LINE
  5
108
100
AcDbEntity
  8
0
  6
CONTINUOUS
 62
               7
100
AcDbLine
 10
73.350006103515625
 20
94.5
 30
0.0
 11
73.350006103515625
 21
84.5
 31
0.0
  0
LINE
  5
109
100
AcDbEntity
  8
0
  6
CONTINUOUS
 62
               7
100
AcDbLine
 10
-73.399993896484375
 20
94.5
 30
0.0
 11
-73.399993896484375
 21
84.5
 31
0.0
  0
MTEXT
  5
10A
100
AcDbEntity
  8
0
  6
CONTINUOUS
 62
               7
100
AcDbMText
 10
77.440523342735503
 20
-89.800003051757812
 30
0.0
 40
4.5
 41
0.0
 71
               4
 72
               1
  1
\W1.121;\A1;KOGANEI CORP.
  0
MTEXT
  5
10B
100
AcDbEntity
  8
0
  6
CONTINUOUS
 62
               7
100
AcDbMText
 10
93.749460369842424
 20
89.5
 30
0.0
 40
3.1999998092651367
 41
0.0
 71
               4
 72
               1
  1
\W1.311;\A1;Ver. 1.0
  0
MTEXT
  5
10C
100
AcDbEntity
  8
0
  6
CONTINUOUS
 62
               7
100
AcDbMText
 10
-119.7820074619834
 20
93.099999904632568
 30
0.0
 40
3.1999998092651367
 41
0.0
 71
               1
 72
               1
  1
\W0.971;\A1;TAC VALVE
  0
MTEXT
  5
10D
100
AcDbEntity
  8
0
  6
CONTINUOUS
 62
               7
100
AcDbMText
 10
-129.42399391242981
 20
74.5
 30
0.0
 40
3.2000000476837158
 41
0.0
 71
               4
 72
               1
  1
\W1.080;\A1;MODEL:34C
  0
ENDSEC
  0
SECTION
  2
OBJECTS
  0
DICTIONARY
  5
19
100
AcDbDictionary
  3
ACAD_GROUP
350
1A
  3
ACAD_MLINESTYLE
350
1B
  0
DICTIONARY
  5
1A
102
{ACAD_REACTORS
330
19
102
}
100
AcDbDictionary
  0
DICTIONARY
  5
1B
102
{ACAD_REACTORS
330
19
102
}
100
AcDbDictionary
  3
STANDARD
350
1C
  0
MLINESTYLE
  5
1C
102
{ACAD_REACTORS
330
1B
102
}
100
AcDbMlineStyle
  2
Standard
 70
               0
  3

 62
               0
 51
90.0
 52
90.0
 71
               2
 49
0.5
 62
             256
  6
ByLayer
 49
-0.5
 62
             256
  6
ByLayer
  0
ENDSEC
  0
EOF
