  0
SECTION
  2
HEADER
  9
$ACADVER
  1
AC1009
  9
$DWGCODEPAGE
  3
dos932
  9
$INSBASE
 10
0.0
 20
0.0
 30
0.0
  9
$EXTMIN
 10
-194.25
 20
-133.5
 30
0.0
  9
$EXTMAX
 10
194.80000305
 20
132.6000061
 30
0.0
  9
$LIMMIN
 10
-194.25
 20
-133.5
  9
$LIMMAX
 10
194.80000305
 20
132.6000061
  9
$ORTHOMODE
 70
       0
  9
$REGENMODE
 70
       1
  9
$FILLMODE
 70
       1
  9
$QTEXTMODE
 70
       0
  9
$MIRRTEXT
 70
       1
  9
$DRAGMODE
 70
       2
  9
$LTSCALE
 40
1.0
  9
$OSMODE
 70
       0
  9
$ATTMODE
 70
       1
  9
$TEXTSIZE
 40
3.20000005
  9
$TRACEWID
 40
0.05
  9
$TEXTSTYLE
  7
MX_NOTE_STANDARD
  9
$CLAYER
  8
0
  9
$CELTYPE
  6
CONTINUOUS
  9
$CECOLOR
 62
     256
  9
$DIMSCALE
 40
1.0
  9
$DIMASZ
 40
2.5
  9
$DIMEXO
 40
1.5
  9
$DIMDLI
 40
3.75
  9
$DIMRND
 40
0.0
  9
$DIMDLE
 40
0.0
  9
$DIMEXE
 40
1.5
  9
$DIMTP
 40
0.0
  9
$DIMTM
 40
0.0
  9
$DIMTXT
 40
3.20000005
  9
$DIMCEN
 40
2.5
  9
$DIMTSZ
 40
0.0
  9
$DIMTOL
 70
       0
  9
$DIMLIM
 70
       0
  9
$DIMTIH
 70
       0
  9
$DIMTOH
 70
       0
  9
$DIMSE1
 70
       0
  9
$DIMSE2
 70
       0
  9
$DIMTAD
 70
       1
  9
$DIMZIN
 70
       8
  9
$DIMBLK
  1

  9
$DIMASO
 70
       1
  9
$DIMSHO
 70
       1
  9
$DIMPOST
  1

  9
$DIMAPOST
  1

  9
$DIMALT
 70
       0
  9
$DIMALTD
 70
       4
  9
$DIMALTF
 40
0.03937008
  9
$DIMLFAC
 40
1.0
  9
$DIMTOFL
 70
       1
  9
$DIMTVP
 40
0.0
  9
$DIMTIX
 70
       0
  9
$DIMSOXD
 70
       0
  9
$DIMSAH
 70
       0
  9
$DIMBLK1
  1

  9
$DIMBLK2
  1

  9
$DIMSTYLE
  2
MXDIMSTYLE
  9
$DIMCLRD
 70
       0
  9
$DIMCLRE
 70
       0
  9
$DIMCLRT
 70
       0
  9
$DIMTFAC
 40
1.0
  9
$DIMGAP
 40
1.0
  9
$LUNITS
 70
       2
  9
$LUPREC
 70
       4
  9
$AXISMODE
 70
       0
  9
$AXISUNIT
 10
0.0
 20
0.0
  9
$SKETCHINC
 40
0.1
  9
$FILLETRAD
 40
0.0
  9
$AUNITS
 70
       0
  9
$AUPREC
 70
       0
  9
$MENU
  1
acad
  9
$ELEVATION
 40
0.0
  9
$PELEVATION
 40
0.0
  9
$THICKNESS
 40
0.0
  9
$LIMCHECK
 70
       0
  9
$BLIPMODE
 70
       1
  9
$CHAMFERA
 40
0.0
  9
$CHAMFERB
 40
0.0
  9
$SKPOLY
 70
       0
  9
$TDCREATE
 40
2453419.802824074
  9
$TDUPDATE
 40
2453419.802824074
  9
$TDINDWG
 40
0.0000000000
  9
$TDUSRTIMER
 40
0.0000000000
  9
$USRTIMER
 70
       1
  9
$ANGBASE
 50
0.0
  9
$ANGDIR
 70
       0
  9
$PDMODE
 70
       0
  9
$PDSIZE
 40
0.0
  9
$PLINEWID
 40
0.0
  9
$COORDS
 70
       1
  9
$SPLFRAME
 70
       0
  9
$SPLINETYPE
 70
       6
  9
$SPLINESEGS
 70
       8
  9
$ATTDIA
 70
       0
  9
$ATTREQ
 70
       1
  9
$HANDLING
 70
       1
  9
$HANDSEED
  5
1D6
  9
$SURFTAB1
 70
       6
  9
$SURFTAB2
 70
       6
  9
$SURFTYPE
 70
       6
  9
$SURFU
 70
       6
  9
$SURFV
 70
       6
  9
$UCSNAME
  2

  9
$UCSORG
 10
0.0
 20
0.0
 30
0.0
  9
$UCSXDIR
 10
1.0
 20
0.0
 30
0.0
  9
$UCSYDIR
 10
0.0
 20
1.0
 30
0.0
  9
$PUCSNAME
  2

  9
$PUCSORG
 10
0.0
 20
0.0
 30
0.0
  9
$PUCSXDIR
 10
1.0
 20
0.0
 30
0.0
  9
$PUCSYDIR
 10
0.0
 20
1.0
 30
0.0
  9
$USERI1
 70
       0
  9
$USERI2
 70
       0
  9
$USERI3
 70
       0
  9
$USERI4
 70
       0
  9
$USERI5
 70
       0
  9
$USERR1
 40
0.0
  9
$USERR2
 40
0.0
  9
$USERR3
 40
0.0
  9
$USERR4
 40
0.0
  9
$USERR5
 40
0.0
  9
$WORLDVIEW
 70
       1
  9
$SHADEDGE
 70
       3
  9
$SHADEDIF
 70
      70
  9
$TILEMODE
 70
       1
  9
$MAXACTVP
 70
      16
  9
$PINSBASE
 10
0.0
 20
0.0
 30
0.0
  9
$PLIMCHECK
 70
       0
  9
$PEXTMIN
 10
1.00000000E+20
 20
1.00000000E+20
 30
1.00000000E+20
  9
$PEXTMAX
 10
-1.00000000E+20
 20
-1.00000000E+20
 30
-1.00000000E+20
  9
$PLIMMIN
 10
0.0
 20
0.0
  9
$PLIMMAX
 10
12.0
 20
9.0
  9
$UNITMODE
 70
       0
  9
$VISRETAIN
 70
       0
  9
$PLINEGEN
 70
       1
  9
$PSLTSCALE
 70
       0
  9
$TREEDEPTH
 70
    3020
  9
$DWGCODEPAGE
  3
dos932
  0
ENDSEC
  0
SECTION
  2
TABLES
  0
TABLE
  2
VPORT
 70
       1
  0
VPORT
  2
*ACTIVE
 70
       0
 10
0.0
 20
0.0
 11
1.0
 21
1.0
 12
0.27500153
 22
-0.44999695
 13
0.0
 23
0.0
 14
1.0
 24
1.0
 15
0.0
 25
0.0
 16
0.0
 26
0.0
 36
1.0
 17
0.0
 27
0.0
 37
0.0
 40
268.76100616
 41
1.73205081
 42
50.0
 43
0.0
 44
0.0
 50
0.0
 51
0.0
 71
       0
 72
     100
 73
       1
 74
       1
 75
       0
 76
       0
 77
       0
 78
       0
  0
ENDTAB
  0
TABLE
  2
LTYPE
 70
       3
  0
LTYPE
  2
CONTINUOUS
 70
      64
  3
Solid line
 72
      65
 73
       0
 40
0.0
  0
LTYPE
  2
PHANTOM
 70
      64
  3
Phantom ______  __  __  ______  __  __  ______
 72
      65
 73
       6
 40
30.0
 49
20.0
 49
-2.0
 49
2.0
 49
-2.0
 49
2.0
 49
-2.0
  0
LTYPE
  2
DASHED
 70
      64
  3
Dashed __ __ __ __ __ __ __ __ __ __ __ __ __ _
 72
      65
 73
       2
 40
4.0
 49
2.0
 49
-2.0
  0
ENDTAB
  0
TABLE
  2
LAYER
 70
       2
  0
LAYER
  2
0
 70
       0
 62
       7
  6
CONTINUOUS
  0
LAYER
  2
DEFPOINTS
 70
       0
 62
       7
  6
CONTINUOUS
  0
ENDTAB
  0
TABLE
  2
STYLE
 70
       1
  0
STYLE
  2
MX_NOTE_STANDARD
 70
       0
 40
0.0
 41
1.0
 50
0.0
 71
       0
 42
3.20000005
  3
txt.shx
  4
extfont.shx
  0
ENDTAB
  0
TABLE
  2
VIEW
 70
       0
  0
ENDTAB
  0
TABLE
  2
UCS
 70
       0
  0
ENDTAB
  0
TABLE
  2
APPID
 70
       1
  0
APPID
  2
ACAD
 70
       0
  0
ENDTAB
  0
TABLE
  2
DIMSTYLE
 70
       1
  0
DIMSTYLE
  2
MXDIMSTYLE
 70
       0
  3

  4

  5

  6

  7

 40
1.0
 41
2.5
 42
1.5
 43
3.75
 44
1.5
 45
0.0
 46
0.0
 47
0.0
 48
0.0
 71
       0
 72
       0
 73
       0
 74
       0
 75
       0
 76
       0
 77
       1
 78
       8
140
3.20000005
141
2.5
142
0.0
143
0.03937008
144
1.0
145
0.0
146
1.0
147
1.0
170
       0
171
       4
172
       1
173
       0
174
       0
175
       0
176
       0
177
       0
178
       0
  0
ENDTAB
  0
ENDSEC
  0
SECTION
  2
BLOCKS
  0
BLOCK
  8
0
  6
BYBLOCK
 62
       0
  5
33
  2
_OPEN30
 70
       2
 10
0.0
 20
0.0
 30
0.0
  3
_OPEN30
  0
LINE
  8
0
  6
BYBLOCK
 62
       0
  5
34
 10
-1.0
 20
0.267949
 30
0.0
 11
0.0
 21
0.0
 31
0.0
  0
LINE
  8
0
  6
BYBLOCK
 62
       0
  5
35
 10
0.0
 20
0.0
 30
0.0
 11
-1.0
 21
-0.267949
 31
0.0
  0
LINE
  8
0
  6
BYBLOCK
 62
       0
  5
36
 10
0.0
 20
0.0
 30
0.0
 11
-1.0
 21
0.0
 31
0.0
  0
ENDBLK
  8
0
  6
BYBLOCK
 62
       0
  5
37
  0
ENDSEC
  0
SECTION
  2
ENTITIES
  0
TEXT
  8
0
  6
CONTINUOUS
 62
       7
  5
1E
 10
-158.77027027
 20
105.3500061
 30
0.0
 40
4.5
  1
250V-2
 41
0.97297297
  7
MX_NOTE_STANDARD
 11
-158.77027027
 21
107.6000061
 31
0.0
 73
       2
  0
LINE
  8
0
  6
CONTINUOUS
 62
       7
  5
1F
 10
116.37835543
 20
-8.67956848
 30
0.0
 11
115.92819466
 21
-8.67956848
 31
0.0
  0
LINE
  8
0
  6
CONTINUOUS
 62
       7
  5
20
 10
-31.31733384
 20
-8.67956848
 30
0.0
 11
-31.76749461
 21
-8.67956848
 31
0.0
  0
LINE
  8
0
  6
CONTINUOUS
 62
       7
  5
21
 10
123.38317859
 20
-13.68135483
 30
0.0
 11
123.38317859
 21
-12.48092611
 31
0.0
  0
LINE
  8
0
  6
CONTINUOUS
 62
       7
  5
22
 10
66.38317859
 20
-13.68135483
 30
0.0
 11
66.38317859
 21
-12.48092611
 31
0.0
  0
LINE
  8
0
  6
CONTINUOUS
 62
       7
  5
23
 10
-81.31251069
 20
-13.68135483
 30
0.0
 11
-81.31251069
 21
-12.48092611
 31
0.0
  0
LINE
  8
0
  6
CONTINUOUS
 62
       7
  5
24
 10
-24.31251069
 20
-13.68135483
 30
0.0
 11
-24.31251069
 21
-12.48092611
 31
0.0
  0
ARC
  8
0
  6
CONTINUOUS
 62
       7
  5
25
 10
-32.31251069
 20
-110.69429924
 30
0.0
 40
8.0
 50
270.0
 51
0.0
  0
ARC
  8
0
  6
CONTINUOUS
 62
       7
  5
26
 10
-73.31251069
 20
-110.69429924
 30
0.0
 40
8.0
 50
180.0
 51
270.0
  0
ARC
  8
0
  6
CONTINUOUS
 62
       7
  5
27
 10
-73.31251069
 20
-69.69429924
 30
0.0
 40
8.0
 50
90.0
 51
180.0
  0
ARC
  8
0
  6
CONTINUOUS
 62
       7
  5
28
 10
-32.31251069
 20
-69.69429924
 30
0.0
 40
8.0
 50
0.0
 51
90.0
  0
LINE
  8
0
  6
CONTINUOUS
 62
       2
  5
29
 10
-32.81251069
 20
-116.19429924
 30
0.0
 11
-32.81251069
 21
-104.19429924
 31
0.0
  0
LINE
  8
0
  6
CONTINUOUS
 62
       2
  5
2A
 10
-38.81251069
 20
-110.19429924
 30
0.0
 11
-26.81251069
 21
-110.19429924
 31
0.0
  0
CIRCLE
  8
0
  6
CONTINUOUS
 62
       7
  5
2B
 10
-32.81251069
 20
-110.19429924
 30
0.0
 40
2.75158567
  0
LINE
  8
0
  6
CONTINUOUS
 62
       2
  5
2C
 10
-72.81251069
 20
-116.19429924
 30
0.0
 11
-72.81251069
 21
-104.19429924
 31
0.0
  0
LINE
  8
0
  6
CONTINUOUS
 62
       2
  5
2D
 10
-66.81251069
 20
-110.19429924
 30
0.0
 11
-78.81251069
 21
-110.19429924
 31
0.0
  0
CIRCLE
  8
0
  6
CONTINUOUS
 62
       7
  5
2E
 10
-72.81251069
 20
-110.19429924
 30
0.0
 40
2.75158567
  0
LINE
  8
0
  6
CONTINUOUS
 62
       2
  5
2F
 10
-72.81251069
 20
-64.19429924
 30
0.0
 11
-72.81251069
 21
-76.19429924
 31
0.0
  0
LINE
  8
0
  6
CONTINUOUS
 62
       2
  5
30
 10
-66.81251069
 20
-70.19429924
 30
0.0
 11
-78.81251069
 21
-70.19429924
 31
0.0
  0
CIRCLE
  8
0
  6
CONTINUOUS
 62
       7
  5
31
 10
-72.81251069
 20
-70.19429924
 30
0.0
 40
2.75158567
  0
POLYLINE
  8
0
  6
CONTINUOUS
 62
       2
  5
38
 66
       1
 10
0.0
 20
0.0
 30
0.0
  0
VERTEX
  8
0
  6
CONTINUOUS
 62
       2
  5
10D
 10
59.46456095
 20
5.52486363
 30
0.0
  0
VERTEX
  8
0
  6
CONTINUOUS
 62
       2
  5
10E
 10
53.32780094
 20
-6.51623473
 30
0.0
  0
VERTEX
  8
0
  6
CONTINUOUS
 62
       2
  5
10F
 10
44.22334117
 20
-6.51623473
 30
0.0
  0
SEQEND
  8
0
  6
CONTINUOUS
 62
       2
  5
110
  0
INSERT
  8
0
  6
CONTINUOUS
 62
       2
  5
39
  2
_OPEN30
 10
59.46456095
 20
5.52486363
 30
0.0
 41
2.77
 42
2.77
 50
62.99428112
 43
2.77
  0
TEXT
  8
0
  6
CONTINUOUS
 62
       2
  5
3A
 10
44.72334117
 20
-4.51623485
 30
0.0
 40
3.20000005
  1
-2
 41
0.93749999
  7
MX_NOTE_STANDARD
 11
44.72334117
 21
-2.91623482
 31
0.0
 73
       2
  0
LINE
  8
0
  6
CONTINUOUS
 62
       7
  5
3B
 10
-73.31251069
 20
-118.69429924
 30
0.0
 11
-32.31251069
 21
-118.69429924
 31
0.0
  0
LINE
  8
0
  6
CONTINUOUS
 62
       7
  5
3C
 10
-73.31251069
 20
-61.69429924
 30
0.0
 11
-32.31251069
 21
-61.69429924
 31
0.0
  0
LINE
  8
0
  6
CONTINUOUS
 62
       7
  5
3D
 10
-81.31251069
 20
-69.69429924
 30
0.0
 11
-81.31251069
 21
-110.69429924
 31
0.0
  0
LINE
  8
0
  6
CONTINUOUS
 62
       7
  5
3E
 10
-24.31251069
 20
-69.69429924
 30
0.0
 11
-24.31251069
 21
-110.69429924
 31
0.0
  0
LINE
  8
0
  6
CONTINUOUS
 62
       2
  5
3F
 10
-87.81251069
 20
-90.19429924
 30
0.0
 11
-17.81251069
 21
-90.19429924
 31
0.0
  0
LINE
  8
0
  6
CONTINUOUS
 62
       2
  5
40
 10
-52.81251069
 20
-55.19429924
 30
0.0
 11
-52.81251069
 21
-125.19429924
 31
0.0
  0
LINE
  8
0
  6
CONTINUOUS
 62
       2
  5
41
 10
-32.81251069
 20
-64.19429924
 30
0.0
 11
-32.81251069
 21
-76.19429924
 31
0.0
  0
LINE
  8
0
  6
CONTINUOUS
 62
       2
  5
42
 10
-38.81251069
 20
-70.19429924
 30
0.0
 11
-26.81251069
 21
-70.19429924
 31
0.0
  0
LINE
  8
0
  6
CONTINUOUS
 62
       7
  5
43
 10
-40.23025875
 20
-91.19487593
 30
0.0
 11
-44.97049084
 21
-91.19487593
 31
0.0
  0
LINE
  8
0
  6
CONTINUOUS
 62
       7
  5
44
 10
-40.23025875
 20
-89.19372254
 30
0.0
 11
-44.97049084
 21
-89.19372254
 31
0.0
  0
LINE
  8
0
  6
CONTINUOUS
 62
       7
  5
45
 10
-45.47077919
 20
-89.69401089
 30
0.0
 11
-45.47077919
 21
-90.69458758
 31
0.0
  0
LINE
  8
0
  6
CONTINUOUS
 62
       7
  5
46
 10
-44.97049084
 20
-89.19372254
 30
0.0
 11
-45.47077919
 21
-89.69401089
 31
0.0
  0
LINE
  8
0
  6
CONTINUOUS
 62
       7
  5
47
 10
-44.97049084
 20
-91.19487593
 30
0.0
 11
-45.47077919
 21
-90.69458758
 31
0.0
  0
LINE
  8
0
  6
CONTINUOUS
 62
       7
  5
48
 10
-51.81193399
 20
-77.59954009
 30
0.0
 11
-51.81193399
 21
-82.33977218
 31
0.0
  0
LINE
  8
0
  6
CONTINUOUS
 62
       7
  5
49
 10
-51.81193399
 20
-82.33977218
 30
0.0
 11
-52.31222234
 21
-82.84006053
 31
0.0
  0
LINE
  8
0
  6
CONTINUOUS
 62
       7
  5
4A
 10
-53.31279904
 20
-82.84006053
 30
0.0
 11
-52.31222234
 21
-82.84006053
 31
0.0
  0
LINE
  8
0
  6
CONTINUOUS
 62
       7
  5
4B
 10
-53.81308738
 20
-82.33977218
 30
0.0
 11
-53.31279904
 21
-82.84006053
 31
0.0
  0
LINE
  8
0
  6
CONTINUOUS
 62
       7
  5
4C
 10
-53.81308738
 20
-77.59954009
 30
0.0
 11
-53.81308738
 21
-82.33977218
 31
0.0
  0
LINE
  8
0
  6
CONTINUOUS
 62
       7
  5
4D
 10
-65.40726984
 20
-89.19372254
 30
0.0
 11
-60.66703775
 21
-89.19372254
 31
0.0
  0
LINE
  8
0
  6
CONTINUOUS
 62
       7
  5
4E
 10
-60.66703775
 20
-89.19372254
 30
0.0
 11
-60.1667494
 21
-89.69401089
 31
0.0
  0
LINE
  8
0
  6
CONTINUOUS
 62
       7
  5
4F
 10
-60.1667494
 20
-90.69458758
 30
0.0
 11
-60.1667494
 21
-89.69401089
 31
0.0
  0
LINE
  8
0
  6
CONTINUOUS
 62
       7
  5
50
 10
-60.66703775
 20
-91.19487593
 30
0.0
 11
-60.1667494
 21
-90.69458758
 31
0.0
  0
LINE
  8
0
  6
CONTINUOUS
 62
       7
  5
51
 10
-65.40726984
 20
-91.19487593
 30
0.0
 11
-60.66703775
 21
-91.19487593
 31
0.0
  0
LINE
  8
0
  6
CONTINUOUS
 62
       7
  5
52
 10
-53.81308738
 20
-102.78905839
 30
0.0
 11
-53.81308738
 21
-98.04882629
 31
0.0
  0
LINE
  8
0
  6
CONTINUOUS
 62
       7
  5
53
 10
-53.81308738
 20
-98.04882629
 30
0.0
 11
-53.31279904
 21
-97.54853795
 31
0.0
  0
LINE
  8
0
  6
CONTINUOUS
 62
       7
  5
54
 10
-52.31222234
 20
-97.54853795
 30
0.0
 11
-53.31279904
 21
-97.54853795
 31
0.0
  0
LINE
  8
0
  6
CONTINUOUS
 62
       7
  5
55
 10
-51.81193399
 20
-98.04882629
 30
0.0
 11
-52.31222234
 21
-97.54853795
 31
0.0
  0
LINE
  8
0
  6
CONTINUOUS
 62
       7
  5
56
 10
-51.81193399
 20
-102.78905839
 30
0.0
 11
-51.81193399
 21
-98.04882629
 31
0.0
  0
CIRCLE
  8
0
  6
CONTINUOUS
 62
       7
  5
57
 10
-32.81251069
 20
-70.19429924
 30
0.0
 40
2.75158567
  0
CIRCLE
  8
0
  6
CONTINUOUS
 62
       7
  5
58
 10
-52.81251069
 20
-90.19429924
 30
0.0
 40
19.86144754
  0
CIRCLE
  8
0
  6
CONTINUOUS
 62
       7
  5
59
 10
-52.81811638
 20
-90.20037421
 30
0.0
 40
15.95919857
  0
CIRCLE
  8
0
  6
CONTINUOUS
 62
       7
  5
5A
 10
-52.81251069
 20
-90.19429924
 30
0.0
 40
18.76081303
  0
CIRCLE
  8
0
  6
CONTINUOUS
 62
       7
  5
5B
 10
-52.81251069
 20
-90.19429924
 30
0.0
 40
6.35366192
  0
ARC
  8
0
  6
CONTINUOUS
 62
       7
  5
5C
 10
-52.81797565
 20
-91.70123536
 30
0.0
 40
14.74972258
 50
318.88236606
 51
221.18215621
  0
CIRCLE
  8
0
  6
CONTINUOUS
 62
       7
  5
5D
 10
-46.93056798
 20
-102.92211161
 30
0.0
 40
1.25072087
  0
CIRCLE
  8
0
  6
CONTINUOUS
 62
       7
  5
5E
 10
-58.70566477
 20
-102.92211161
 30
0.0
 40
1.25072087
  0
ARC
  8
0
  6
CONTINUOUS
 62
       7
  5
5F
 10
-52.79773162
 20
-90.1909747
 30
0.0
 40
13.74963201
 50
289.65777843
 51
299.76857533
  0
ARC
  8
0
  6
CONTINUOUS
 62
       7
  5
60
 10
-52.81922189
 20
-90.19065032
 30
0.0
 40
13.75498327
 50
140.48838247
 51
232.56765729
  0
ARC
  8
0
  6
CONTINUOUS
 62
       7
  5
61
 10
-40.22020568
 20
-88.20101312
 30
0.0
 40
0.99276033
 50
269.41979142
 51
9.88691175
  0
ARC
  8
0
  6
CONTINUOUS
 62
       7
  5
62
 10
-40.22624312
 20
-92.19271393
 30
0.0
 40
0.99784608
 50
350.46272115
 51
90.23057568
  0
ARC
  8
0
  6
CONTINUOUS
 62
       7
  5
63
 10
-54.81792602
 20
-77.60484745
 30
0.0
 40
1.00485265
 50
0.3026227
 51
37.96466372
  0
ARC
  8
0
  6
CONTINUOUS
 62
       7
  5
64
 10
-50.81710235
 20
-77.60137564
 30
0.0
 40
0.99483334
 50
141.83842947
 51
179.89428412
  0
ARC
  8
0
  6
CONTINUOUS
 62
       7
  5
65
 10
-65.41053394
 20
-92.19335233
 30
0.0
 40
0.99848173
 50
89.81269632
 51
189.49400685
  0
ARC
  8
0
  6
CONTINUOUS
 62
       7
  5
66
 10
-65.41656518
 20
-88.20036945
 30
0.0
 40
0.99339658
 50
170.15716518
 51
270.53613165
  0
ARC
  8
0
  6
CONTINUOUS
 62
       7
  5
67
 10
-50.81962888
 20
-102.79750372
 30
0.0
 40
0.99234105
 50
179.5123776
 51
279.18253622
  0
ARC
  8
0
  6
CONTINUOUS
 62
       7
  5
68
 10
-54.81112724
 20
-102.79283639
 30
0.0
 40
0.998047
 50
260.47640903
 51
0.2168878
  0
ARC
  8
0
  6
CONTINUOUS
 62
       7
  5
69
 10
-52.83956798
 20
-90.19047714
 30
0.0
 40
13.7501776
 50
240.23162579
 51
250.34202045
  0
ARC
  8
0
  6
CONTINUOUS
 62
       7
  5
6A
 10
-52.81032943
 20
-90.20034409
 30
0.0
 40
13.74864486
 50
255.55693807
 51
284.85526001
  0
ARC
  8
0
  6
CONTINUOUS
 62
       7
  5
6B
 10
-52.81701812
 20
-90.19079778
 30
0.0
 40
13.75408298
 50
307.42845359
 51
39.51550665
  0
POLYLINE
  8
0
  6
CONTINUOUS
 62
       7
  5
6C
 66
       1
 10
0.0
 20
0.0
 30
0.0
  0
VERTEX
  8
0
  6
CONTINUOUS
 62
       7
  5
111
 10
-41.69256768
 20
-101.403206
 30
0.0
  0
VERTEX
  8
0
  6
CONTINUOUS
 62
       7
  5
112
 10
-41.77320935
 20
-101.43507123
 30
0.0
  0
VERTEX
  8
0
  6
CONTINUOUS
 62
       7
  5
113
 10
-41.85492676
 20
-101.46564912
 30
0.0
  0
VERTEX
  8
0
  6
CONTINUOUS
 62
       7
  5
114
 10
-41.93759929
 20
-101.49476974
 30
0.0
  0
VERTEX
  8
0
  6
CONTINUOUS
 62
       7
  5
115
 10
-42.02110634
 20
-101.52226317
 30
0.0
  0
VERTEX
  8
0
  6
CONTINUOUS
 62
       7
  5
116
 10
-42.10532729
 20
-101.54795947
 30
0.0
  0
VERTEX
  8
0
  6
CONTINUOUS
 62
       7
  5
117
 10
-42.19014153
 20
-101.57168873
 30
0.0
  0
VERTEX
  8
0
  6
CONTINUOUS
 62
       7
  5
118
 10
-42.27542845
 20
-101.59328101
 30
0.0
  0
VERTEX
  8
0
  6
CONTINUOUS
 62
       7
  5
119
 10
-42.36106744
 20
-101.61256638
 30
0.0
  0
VERTEX
  8
0
  6
CONTINUOUS
 62
       7
  5
11A
 10
-42.4469379
 20
-101.62937492
 30
0.0
  0
VERTEX
  8
0
  6
CONTINUOUS
 62
       7
  5
11B
 10
-42.5329192
 20
-101.64353671
 30
0.0
  0
VERTEX
  8
0
  6
CONTINUOUS
 62
       7
  5
11C
 10
-42.61889075
 20
-101.65488181
 30
0.0
  0
VERTEX
  8
0
  6
CONTINUOUS
 62
       7
  5
11D
 10
-42.70473192
 20
-101.6632403
 30
0.0
  0
VERTEX
  8
0
  6
CONTINUOUS
 62
       7
  5
11E
 10
-42.79032211
 20
-101.66844225
 30
0.0
  0
VERTEX
  8
0
  6
CONTINUOUS
 62
       7
  5
11F
 10
-42.87554072
 20
-101.67031774
 30
0.0
  0
VERTEX
  8
0
  6
CONTINUOUS
 62
       7
  5
120
 10
-42.96026712
 20
-101.66869683
 30
0.0
  0
VERTEX
  8
0
  6
CONTINUOUS
 62
       7
  5
121
 10
-43.0443807
 20
-101.6634096
 30
0.0
  0
VERTEX
  8
0
  6
CONTINUOUS
 62
       7
  5
122
 10
-43.19099024
 20
-101.64501232
 30
0.0
  0
VERTEX
  8
0
  6
CONTINUOUS
 62
       7
  5
123
 10
-43.33562026
 20
-101.6158644
 30
0.0
  0
VERTEX
  8
0
  6
CONTINUOUS
 62
       7
  5
124
 10
-43.47848162
 20
-101.57707547
 30
0.0
  0
VERTEX
  8
0
  6
CONTINUOUS
 62
       7
  5
125
 10
-43.61978516
 20
-101.52975511
 30
0.0
  0
VERTEX
  8
0
  6
CONTINUOUS
 62
       7
  5
126
 10
-43.75974172
 20
-101.47501293
 30
0.0
  0
VERTEX
  8
0
  6
CONTINUOUS
 62
       7
  5
127
 10
-43.89856214
 20
-101.41395853
 30
0.0
  0
VERTEX
  8
0
  6
CONTINUOUS
 62
       7
  5
128
 10
-44.03645726
 20
-101.34770151
 30
0.0
  0
VERTEX
  8
0
  6
CONTINUOUS
 62
       7
  5
129
 10
-44.17363792
 20
-101.27735146
 30
0.0
  0
VERTEX
  8
0
  6
CONTINUOUS
 62
       7
  5
12A
 10
-44.31031497
 20
-101.204018
 30
0.0
  0
VERTEX
  8
0
  6
CONTINUOUS
 62
       7
  5
12B
 10
-44.44669925
 20
-101.12881073
 30
0.0
  0
VERTEX
  8
0
  6
CONTINUOUS
 62
       7
  5
12C
 10
-44.5830016
 20
-101.05283923
 30
0.0
  0
VERTEX
  8
0
  6
CONTINUOUS
 62
       7
  5
12D
 10
-44.71943286
 20
-100.97721312
 30
0.0
  0
VERTEX
  8
0
  6
CONTINUOUS
 62
       7
  5
12E
 10
-44.85620387
 20
-100.903042
 30
0.0
  0
VERTEX
  8
0
  6
CONTINUOUS
 62
       7
  5
12F
 10
-44.99352548
 20
-100.83143546
 30
0.0
  0
VERTEX
  8
0
  6
CONTINUOUS
 62
       7
  5
130
 10
-45.13160853
 20
-100.7635031
 30
0.0
  0
VERTEX
  8
0
  6
CONTINUOUS
 62
       7
  5
131
 10
-45.27066385
 20
-100.70035454
 30
0.0
  0
VERTEX
  8
0
  6
CONTINUOUS
 62
       7
  5
132
 10
-45.37596459
 20
-100.65657957
 30
0.0
  0
VERTEX
  8
0
  6
CONTINUOUS
 62
       7
  5
133
 10
-45.48195654
 20
-100.61608747
 30
0.0
  0
VERTEX
  8
0
  6
CONTINUOUS
 62
       7
  5
134
 10
-45.58869913
 20
-100.5789118
 30
0.0
  0
VERTEX
  8
0
  6
CONTINUOUS
 62
       7
  5
135
 10
-45.69625178
 20
-100.5450861
 30
0.0
  0
VERTEX
  8
0
  6
CONTINUOUS
 62
       7
  5
136
 10
-45.80467394
 20
-100.51464393
 30
0.0
  0
VERTEX
  8
0
  6
CONTINUOUS
 62
       7
  5
137
 10
-45.91402503
 20
-100.48761884
 30
0.0
  0
VERTEX
  8
0
  6
CONTINUOUS
 62
       7
  5
138
 10
-46.02436448
 20
-100.46404438
 30
0.0
  0
VERTEX
  8
0
  6
CONTINUOUS
 62
       7
  5
139
 10
-46.13575173
 20
-100.4439541
 30
0.0
  0
VERTEX
  8
0
  6
CONTINUOUS
 62
       7
  5
13A
 10
-46.2482462
 20
-100.42738156
 30
0.0
  0
VERTEX
  8
0
  6
CONTINUOUS
 62
       7
  5
13B
 10
-46.36190732
 20
-100.41436031
 30
0.0
  0
VERTEX
  8
0
  6
CONTINUOUS
 62
       7
  5
13C
 10
-46.47679453
 20
-100.40492389
 30
0.0
  0
VERTEX
  8
0
  6
CONTINUOUS
 62
       7
  5
13D
 10
-46.59296725
 20
-100.39910587
 30
0.0
  0
VERTEX
  8
0
  6
CONTINUOUS
 62
       7
  5
13E
 10
-46.71048492
 20
-100.39693979
 30
0.0
  0
VERTEX
  8
0
  6
CONTINUOUS
 62
       7
  5
13F
 10
-46.82940696
 20
-100.39845921
 30
0.0
  0
VERTEX
  8
0
  6
CONTINUOUS
 62
       7
  5
140
 10
-46.94979281
 20
-100.40369767
 30
0.0
  0
VERTEX
  8
0
  6
CONTINUOUS
 62
       7
  5
141
 10
-47.0717019
 20
-100.41268874
 30
0.0
  0
VERTEX
  8
0
  6
CONTINUOUS
 62
       7
  5
142
 10
-47.25308538
 20
-100.43248934
 30
0.0
  0
VERTEX
  8
0
  6
CONTINUOUS
 62
       7
  5
143
 10
-47.43650061
 20
-100.45999904
 30
0.0
  0
VERTEX
  8
0
  6
CONTINUOUS
 62
       7
  5
144
 10
-47.62055102
 20
-100.49523359
 30
0.0
  0
VERTEX
  8
0
  6
CONTINUOUS
 62
       7
  5
145
 10
-47.80384003
 20
-100.53820874
 30
0.0
  0
VERTEX
  8
0
  6
CONTINUOUS
 62
       7
  5
146
 10
-47.98497106
 20
-100.58894023
 30
0.0
  0
VERTEX
  8
0
  6
CONTINUOUS
 62
       7
  5
147
 10
-48.16254753
 20
-100.64744382
 30
0.0
  0
VERTEX
  8
0
  6
CONTINUOUS
 62
       7
  5
148
 10
-48.33517287
 20
-100.71373525
 30
0.0
  0
VERTEX
  8
0
  6
CONTINUOUS
 62
       7
  5
149
 10
-48.50145049
 20
-100.78783027
 30
0.0
  0
VERTEX
  8
0
  6
CONTINUOUS
 62
       7
  5
14A
 10
-48.65998382
 20
-100.86974464
 30
0.0
  0
VERTEX
  8
0
  6
CONTINUOUS
 62
       7
  5
14B
 10
-48.80937627
 20
-100.95949409
 30
0.0
  0
VERTEX
  8
0
  6
CONTINUOUS
 62
       7
  5
14C
 10
-48.94823128
 20
-101.05709438
 30
0.0
  0
VERTEX
  8
0
  6
CONTINUOUS
 62
       7
  5
14D
 10
-49.07515226
 20
-101.16256126
 30
0.0
  0
VERTEX
  8
0
  6
CONTINUOUS
 62
       7
  5
14E
 10
-49.18874264
 20
-101.27591047
 30
0.0
  0
VERTEX
  8
0
  6
CONTINUOUS
 62
       7
  5
14F
 10
-49.28760583
 20
-101.39715777
 30
0.0
  0
VERTEX
  8
0
  6
CONTINUOUS
 62
       7
  5
150
 10
-49.37034526
 20
-101.52631889
 30
0.0
  0
VERTEX
  8
0
  6
CONTINUOUS
 62
       7
  5
151
 10
-49.43556434
 20
-101.6634096
 30
0.0
  0
VERTEX
  8
0
  6
CONTINUOUS
 62
       7
  5
152
 10
-49.46943599
 20
-101.76120452
 30
0.0
  0
VERTEX
  8
0
  6
CONTINUOUS
 62
       7
  5
153
 10
-49.4952358
 20
-101.86251916
 30
0.0
  0
VERTEX
  8
0
  6
CONTINUOUS
 62
       7
  5
154
 10
-49.51348
 20
-101.96704361
 30
0.0
  0
VERTEX
  8
0
  6
CONTINUOUS
 62
       7
  5
155
 10
-49.52468484
 20
-102.07446799
 30
0.0
  0
VERTEX
  8
0
  6
CONTINUOUS
 62
       7
  5
156
 10
-49.52936655
 20
-102.18448241
 30
0.0
  0
VERTEX
  8
0
  6
CONTINUOUS
 62
       7
  5
157
 10
-49.5280414
 20
-102.29677698
 30
0.0
  0
VERTEX
  8
0
  6
CONTINUOUS
 62
       7
  5
158
 10
-49.52122561
 20
-102.41104181
 30
0.0
  0
VERTEX
  8
0
  6
CONTINUOUS
 62
       7
  5
159
 10
-49.50943543
 20
-102.52696701
 30
0.0
  0
VERTEX
  8
0
  6
CONTINUOUS
 62
       7
  5
15A
 10
-49.4931871
 20
-102.64424268
 30
0.0
  0
VERTEX
  8
0
  6
CONTINUOUS
 62
       7
  5
15B
 10
-49.47299686
 20
-102.76255893
 30
0.0
  0
VERTEX
  8
0
  6
CONTINUOUS
 62
       7
  5
15C
 10
-49.44938097
 20
-102.88160588
 30
0.0
  0
VERTEX
  8
0
  6
CONTINUOUS
 62
       7
  5
15D
 10
-49.42285565
 20
-103.00107364
 30
0.0
  0
VERTEX
  8
0
  6
CONTINUOUS
 62
       7
  5
15E
 10
-49.39393716
 20
-103.1206523
 30
0.0
  0
VERTEX
  8
0
  6
CONTINUOUS
 62
       7
  5
15F
 10
-49.36314173
 20
-103.24003199
 30
0.0
  0
VERTEX
  8
0
  6
CONTINUOUS
 62
       7
  5
160
 10
-49.33098561
 20
-103.35890281
 30
0.0
  0
VERTEX
  8
0
  6
CONTINUOUS
 62
       7
  5
161
 10
-49.29798505
 20
-103.47695486
 30
0.0
  0
VERTEX
  8
0
  6
CONTINUOUS
 62
       7
  5
162
 10
-49.25751186
 20
-103.61846415
 30
0.0
  0
VERTEX
  8
0
  6
CONTINUOUS
 62
       7
  5
163
 10
-49.21654196
 20
-103.75837509
 30
0.0
  0
VERTEX
  8
0
  6
CONTINUOUS
 62
       7
  5
164
 10
-49.1749675
 20
-103.89672112
 30
0.0
  0
VERTEX
  8
0
  6
CONTINUOUS
 62
       7
  5
165
 10
-49.13268062
 20
-104.03353571
 30
0.0
  0
VERTEX
  8
0
  6
CONTINUOUS
 62
       7
  5
166
 10
-49.08957345
 20
-104.1688523
 30
0.0
  0
VERTEX
  8
0
  6
CONTINUOUS
 62
       7
  5
167
 10
-49.04553815
 20
-104.30270435
 30
0.0
  0
VERTEX
  8
0
  6
CONTINUOUS
 62
       7
  5
168
 10
-49.00046685
 20
-104.43512529
 30
0.0
  0
VERTEX
  8
0
  6
CONTINUOUS
 62
       7
  5
169
 10
-48.95425169
 20
-104.5661486
 30
0.0
  0
VERTEX
  8
0
  6
CONTINUOUS
 62
       7
  5
16A
 10
-48.90678483
 20
-104.6958077
 30
0.0
  0
VERTEX
  8
0
  6
CONTINUOUS
 62
       7
  5
16B
 10
-48.85795839
 20
-104.82413607
 30
0.0
  0
VERTEX
  8
0
  6
CONTINUOUS
 62
       7
  5
16C
 10
-48.80766453
 20
-104.95116714
 30
0.0
  0
VERTEX
  8
0
  6
CONTINUOUS
 62
       7
  5
16D
 10
-48.75579538
 20
-105.07693437
 30
0.0
  0
VERTEX
  8
0
  6
CONTINUOUS
 62
       7
  5
16E
 10
-48.70224309
 20
-105.2014712
 30
0.0
  0
VERTEX
  8
0
  6
CONTINUOUS
 62
       7
  5
16F
 10
-48.6468998
 20
-105.3248111
 30
0.0
  0
VERTEX
  8
0
  6
CONTINUOUS
 62
       7
  5
170
 10
-48.58965765
 20
-105.4469875
 30
0.0
  0
VERTEX
  8
0
  6
CONTINUOUS
 62
       7
  5
171
 10
-48.53040878
 20
-105.56803387
 30
0.0
  0
SEQEND
  8
0
  6
CONTINUOUS
 62
       7
  5
172
  0
POLYLINE
  8
0
  6
CONTINUOUS
 62
       7
  5
6D
 66
       1
 10
0.0
 20
0.0
 30
0.0
  0
VERTEX
  8
0
  6
CONTINUOUS
 62
       7
  5
173
 10
-63.94496091
 20
-101.403206
 30
0.0
  0
VERTEX
  8
0
  6
CONTINUOUS
 62
       7
  5
174
 10
-63.86431924
 20
-101.43507123
 30
0.0
  0
VERTEX
  8
0
  6
CONTINUOUS
 62
       7
  5
175
 10
-63.78260183
 20
-101.46564912
 30
0.0
  0
VERTEX
  8
0
  6
CONTINUOUS
 62
       7
  5
176
 10
-63.6999293
 20
-101.49476974
 30
0.0
  0
VERTEX
  8
0
  6
CONTINUOUS
 62
       7
  5
177
 10
-63.61642225
 20
-101.52226317
 30
0.0
  0
VERTEX
  8
0
  6
CONTINUOUS
 62
       7
  5
178
 10
-63.5322013
 20
-101.54795947
 30
0.0
  0
VERTEX
  8
0
  6
CONTINUOUS
 62
       7
  5
179
 10
-63.44738706
 20
-101.57168873
 30
0.0
  0
VERTEX
  8
0
  6
CONTINUOUS
 62
       7
  5
17A
 10
-63.36210014
 20
-101.59328101
 30
0.0
  0
VERTEX
  8
0
  6
CONTINUOUS
 62
       7
  5
17B
 10
-63.27646115
 20
-101.61256638
 30
0.0
  0
VERTEX
  8
0
  6
CONTINUOUS
 62
       7
  5
17C
 10
-63.19059069
 20
-101.62937492
 30
0.0
  0
VERTEX
  8
0
  6
CONTINUOUS
 62
       7
  5
17D
 10
-63.10460939
 20
-101.64353671
 30
0.0
  0
VERTEX
  8
0
  6
CONTINUOUS
 62
       7
  5
17E
 10
-63.01863784
 20
-101.65488181
 30
0.0
  0
VERTEX
  8
0
  6
CONTINUOUS
 62
       7
  5
17F
 10
-62.93279667
 20
-101.6632403
 30
0.0
  0
VERTEX
  8
0
  6
CONTINUOUS
 62
       7
  5
180
 10
-62.84720647
 20
-101.66844225
 30
0.0
  0
VERTEX
  8
0
  6
CONTINUOUS
 62
       7
  5
181
 10
-62.76198787
 20
-101.67031774
 30
0.0
  0
VERTEX
  8
0
  6
CONTINUOUS
 62
       7
  5
182
 10
-62.67726147
 20
-101.66869683
 30
0.0
  0
VERTEX
  8
0
  6
CONTINUOUS
 62
       7
  5
183
 10
-62.59314788
 20
-101.6634096
 30
0.0
  0
VERTEX
  8
0
  6
CONTINUOUS
 62
       7
  5
184
 10
-62.44653835
 20
-101.64501232
 30
0.0
  0
VERTEX
  8
0
  6
CONTINUOUS
 62
       7
  5
185
 10
-62.30190833
 20
-101.6158644
 30
0.0
  0
VERTEX
  8
0
  6
CONTINUOUS
 62
       7
  5
186
 10
-62.15904696
 20
-101.57707547
 30
0.0
  0
VERTEX
  8
0
  6
CONTINUOUS
 62
       7
  5
187
 10
-62.01774343
 20
-101.52975511
 30
0.0
  0
VERTEX
  8
0
  6
CONTINUOUS
 62
       7
  5
188
 10
-61.87778687
 20
-101.47501293
 30
0.0
  0
VERTEX
  8
0
  6
CONTINUOUS
 62
       7
  5
189
 10
-61.73896645
 20
-101.41395853
 30
0.0
  0
VERTEX
  8
0
  6
CONTINUOUS
 62
       7
  5
18A
 10
-61.60107133
 20
-101.34770151
 30
0.0
  0
VERTEX
  8
0
  6
CONTINUOUS
 62
       7
  5
18B
 10
-61.46389066
 20
-101.27735146
 30
0.0
  0
VERTEX
  8
0
  6
CONTINUOUS
 62
       7
  5
18C
 10
-61.32721361
 20
-101.204018
 30
0.0
  0
VERTEX
  8
0
  6
CONTINUOUS
 62
       7
  5
18D
 10
-61.19082933
 20
-101.12881073
 30
0.0
  0
VERTEX
  8
0
  6
CONTINUOUS
 62
       7
  5
18E
 10
-61.05452699
 20
-101.05283923
 30
0.0
  0
VERTEX
  8
0
  6
CONTINUOUS
 62
       7
  5
18F
 10
-60.91809573
 20
-100.97721312
 30
0.0
  0
VERTEX
  8
0
  6
CONTINUOUS
 62
       7
  5
190
 10
-60.78132471
 20
-100.903042
 30
0.0
  0
VERTEX
  8
0
  6
CONTINUOUS
 62
       7
  5
191
 10
-60.64400311
 20
-100.83143546
 30
0.0
  0
VERTEX
  8
0
  6
CONTINUOUS
 62
       7
  5
192
 10
-60.50592006
 20
-100.7635031
 30
0.0
  0
VERTEX
  8
0
  6
CONTINUOUS
 62
       7
  5
193
 10
-60.36686474
 20
-100.70035454
 30
0.0
  0
VERTEX
  8
0
  6
CONTINUOUS
 62
       7
  5
194
 10
-60.261564
 20
-100.65657957
 30
0.0
  0
VERTEX
  8
0
  6
CONTINUOUS
 62
       7
  5
195
 10
-60.15557205
 20
-100.61608747
 30
0.0
  0
VERTEX
  8
0
  6
CONTINUOUS
 62
       7
  5
196
 10
-60.04882946
 20
-100.5789118
 30
0.0
  0
VERTEX
  8
0
  6
CONTINUOUS
 62
       7
  5
197
 10
-59.9412768
 20
-100.5450861
 30
0.0
  0
VERTEX
  8
0
  6
CONTINUOUS
 62
       7
  5
198
 10
-59.83285465
 20
-100.51464393
 30
0.0
  0
VERTEX
  8
0
  6
CONTINUOUS
 62
       7
  5
199
 10
-59.72350356
 20
-100.48761884
 30
0.0
  0
VERTEX
  8
0
  6
CONTINUOUS
 62
       7
  5
19A
 10
-59.6131641
 20
-100.46404438
 30
0.0
  0
VERTEX
  8
0
  6
CONTINUOUS
 62
       7
  5
19B
 10
-59.50177686
 20
-100.4439541
 30
0.0
  0
VERTEX
  8
0
  6
CONTINUOUS
 62
       7
  5
19C
 10
-59.38928239
 20
-100.42738156
 30
0.0
  0
VERTEX
  8
0
  6
CONTINUOUS
 62
       7
  5
19D
 10
-59.27562127
 20
-100.41436031
 30
0.0
  0
VERTEX
  8
0
  6
CONTINUOUS
 62
       7
  5
19E
 10
-59.16073406
 20
-100.40492389
 30
0.0
  0
VERTEX
  8
0
  6
CONTINUOUS
 62
       7
  5
19F
 10
-59.04456134
 20
-100.39910587
 30
0.0
  0
VERTEX
  8
0
  6
CONTINUOUS
 62
       7
  5
1A0
 10
-58.92704367
 20
-100.39693979
 30
0.0
  0
VERTEX
  8
0
  6
CONTINUOUS
 62
       7
  5
1A1
 10
-58.80812163
 20
-100.39845921
 30
0.0
  0
VERTEX
  8
0
  6
CONTINUOUS
 62
       7
  5
1A2
 10
-58.68773578
 20
-100.40369767
 30
0.0
  0
VERTEX
  8
0
  6
CONTINUOUS
 62
       7
  5
1A3
 10
-58.56582669
 20
-100.41268874
 30
0.0
  0
VERTEX
  8
0
  6
CONTINUOUS
 62
       7
  5
1A4
 10
-58.38444321
 20
-100.43248934
 30
0.0
  0
VERTEX
  8
0
  6
CONTINUOUS
 62
       7
  5
1A5
 10
-58.20102798
 20
-100.45999904
 30
0.0
  0
VERTEX
  8
0
  6
CONTINUOUS
 62
       7
  5
1A6
 10
-58.01697757
 20
-100.49523359
 30
0.0
  0
VERTEX
  8
0
  6
CONTINUOUS
 62
       7
  5
1A7
 10
-57.83368856
 20
-100.53820874
 30
0.0
  0
VERTEX
  8
0
  6
CONTINUOUS
 62
       7
  5
1A8
 10
-57.65255753
 20
-100.58894023
 30
0.0
  0
VERTEX
  8
0
  6
CONTINUOUS
 62
       7
  5
1A9
 10
-57.47498106
 20
-100.64744382
 30
0.0
  0
VERTEX
  8
0
  6
CONTINUOUS
 62
       7
  5
1AA
 10
-57.30235572
 20
-100.71373525
 30
0.0
  0
VERTEX
  8
0
  6
CONTINUOUS
 62
       7
  5
1AB
 10
-57.1360781
 20
-100.78783027
 30
0.0
  0
VERTEX
  8
0
  6
CONTINUOUS
 62
       7
  5
1AC
 10
-56.97754477
 20
-100.86974464
 30
0.0
  0
VERTEX
  8
0
  6
CONTINUOUS
 62
       7
  5
1AD
 10
-56.82815231
 20
-100.95949409
 30
0.0
  0
VERTEX
  8
0
  6
CONTINUOUS
 62
       7
  5
1AE
 10
-56.6892973
 20
-101.05709438
 30
0.0
  0
VERTEX
  8
0
  6
CONTINUOUS
 62
       7
  5
1AF
 10
-56.56237632
 20
-101.16256126
 30
0.0
  0
VERTEX
  8
0
  6
CONTINUOUS
 62
       7
  5
1B0
 10
-56.44878595
 20
-101.27591047
 30
0.0
  0
VERTEX
  8
0
  6
CONTINUOUS
 62
       7
  5
1B1
 10
-56.34992276
 20
-101.39715777
 30
0.0
  0
VERTEX
  8
0
  6
CONTINUOUS
 62
       7
  5
1B2
 10
-56.26718333
 20
-101.52631889
 30
0.0
  0
VERTEX
  8
0
  6
CONTINUOUS
 62
       7
  5
1B3
 10
-56.20196424
 20
-101.6634096
 30
0.0
  0
VERTEX
  8
0
  6
CONTINUOUS
 62
       7
  5
1B4
 10
-56.16809259
 20
-101.76120452
 30
0.0
  0
VERTEX
  8
0
  6
CONTINUOUS
 62
       7
  5
1B5
 10
-56.14229279
 20
-101.86251916
 30
0.0
  0
VERTEX
  8
0
  6
CONTINUOUS
 62
       7
  5
1B6
 10
-56.12404859
 20
-101.96704361
 30
0.0
  0
VERTEX
  8
0
  6
CONTINUOUS
 62
       7
  5
1B7
 10
-56.11284375
 20
-102.07446799
 30
0.0
  0
VERTEX
  8
0
  6
CONTINUOUS
 62
       7
  5
1B8
 10
-56.10816203
 20
-102.18448241
 30
0.0
  0
VERTEX
  8
0
  6
CONTINUOUS
 62
       7
  5
1B9
 10
-56.10948719
 20
-102.29677698
 30
0.0
  0
VERTEX
  8
0
  6
CONTINUOUS
 62
       7
  5
1BA
 10
-56.11630298
 20
-102.41104181
 30
0.0
  0
VERTEX
  8
0
  6
CONTINUOUS
 62
       7
  5
1BB
 10
-56.12809316
 20
-102.52696701
 30
0.0
  0
VERTEX
  8
0
  6
CONTINUOUS
 62
       7
  5
1BC
 10
-56.14434149
 20
-102.64424268
 30
0.0
  0
VERTEX
  8
0
  6
CONTINUOUS
 62
       7
  5
1BD
 10
-56.16453173
 20
-102.76255893
 30
0.0
  0
VERTEX
  8
0
  6
CONTINUOUS
 62
       7
  5
1BE
 10
-56.18814762
 20
-102.88160588
 30
0.0
  0
VERTEX
  8
0
  6
CONTINUOUS
 62
       7
  5
1BF
 10
-56.21467294
 20
-103.00107364
 30
0.0
  0
VERTEX
  8
0
  6
CONTINUOUS
 62
       7
  5
1C0
 10
-56.24359143
 20
-103.1206523
 30
0.0
  0
VERTEX
  8
0
  6
CONTINUOUS
 62
       7
  5
1C1
 10
-56.27438686
 20
-103.24003199
 30
0.0
  0
VERTEX
  8
0
  6
CONTINUOUS
 62
       7
  5
1C2
 10
-56.30654297
 20
-103.35890281
 30
0.0
  0
VERTEX
  8
0
  6
CONTINUOUS
 62
       7
  5
1C3
 10
-56.33954354
 20
-103.47695486
 30
0.0
  0
VERTEX
  8
0
  6
CONTINUOUS
 62
       7
  5
1C4
 10
-56.38001675
 20
-103.61846423
 30
0.0
  0
VERTEX
  8
0
  6
CONTINUOUS
 62
       7
  5
1C5
 10
-56.42098667
 20
-103.75837524
 30
0.0
  0
VERTEX
  8
0
  6
CONTINUOUS
 62
       7
  5
1C6
 10
-56.46256115
 20
-103.89672135
 30
0.0
  0
VERTEX
  8
0
  6
CONTINUOUS
 62
       7
  5
1C7
 10
-56.50484806
 20
-104.03353601
 30
0.0
  0
VERTEX
  8
0
  6
CONTINUOUS
 62
       7
  5
1C8
 10
-56.54795525
 20
-104.16885267
 30
0.0
  0
VERTEX
  8
0
  6
CONTINUOUS
 62
       7
  5
1C9
 10
-56.59199059
 20
-104.30270479
 30
0.0
  0
VERTEX
  8
0
  6
CONTINUOUS
 62
       7
  5
1CA
 10
-56.63706191
 20
-104.4351258
 30
0.0
  0
VERTEX
  8
0
  6
CONTINUOUS
 62
       7
  5
1CB
 10
-56.6832771
 20
-104.56614917
 30
0.0
  0
VERTEX
  8
0
  6
CONTINUOUS
 62
       7
  5
1CC
 10
-56.730744
 20
-104.69580835
 30
0.0
  0
VERTEX
  8
0
  6
CONTINUOUS
 62
       7
  5
1CD
 10
-56.77957047
 20
-104.82413678
 30
0.0
  0
VERTEX
  8
0
  6
CONTINUOUS
 62
       7
  5
1CE
 10
-56.82986436
 20
-104.95116791
 30
0.0
  0
VERTEX
  8
0
  6
CONTINUOUS
 62
       7
  5
1CF
 10
-56.88173355
 20
-105.0769352
 30
0.0
  0
VERTEX
  8
0
  6
CONTINUOUS
 62
       7
  5
1D0
 10
-56.93528588
 20
-105.2014721
 30
0.0
  0
VERTEX
  8
0
  6
CONTINUOUS
 62
       7
  5
1D1
 10
-56.99062922
 20
-105.32481206
 30
0.0
  0
VERTEX
  8
0
  6
CONTINUOUS
 62
       7
  5
1D2
 10
-57.04787141
 20
-105.44698852
 30
0.0
  0
VERTEX
  8
0
  6
CONTINUOUS
 62
       7
  5
1D3
 10
-57.10712033
 20
-105.56803494
 30
0.0
  0
SEQEND
  8
0
  6
CONTINUOUS
 62
       7
  5
1D4
  0
LINE
  8
0
  6
CONTINUOUS
 62
       2
  5
6E
 10
-3.21199806
 20
93.72265905
 30
0.0
 11
-56.29737914
 21
40.63727797
 31
0.0
  0
LINE
  8
0
  6
CONTINUOUS
 62
       7
  5
6F
 10
-34.06831633
 20
34.31864517
 30
0.0
 11
-71.56920951
 21
34.31864517
 31
0.0
  0
LINE
  8
0
  6
CONTINUOUS
 62
       7
  5
70
 10
-33.06795906
 20
33.3182879
 30
0.0
 11
-33.06795906
 21
23.31471519
 31
0.0
  0
LINE
  8
0
  6
CONTINUOUS
 62
       2
  5
71
 10
-25.44184077
 20
11.81864517
 30
0.0
 11
-80.18318061
 21
11.81864517
 31
0.0
  0
LINE
  8
0
  6
CONTINUOUS
 62
       7
  5
72
 10
-31.76749461
 20
0.32364695
 30
0.0
 11
-73.87003123
 21
0.32364695
 31
0.0
  0
LINE
  8
0
  6
CONTINUOUS
 62
       2
  5
73
 10
-27.91611912
 20
-5.17831803
 30
0.0
 11
-32.58028489
 21
-5.17831803
 31
0.0
  0
LINE
  8
0
  6
CONTINUOUS
 62
       7
  5
74
 10
-31.81251069
 20
23.31471519
 30
0.0
 11
-73.81251069
 21
23.31471519
 31
0.0
  0
LINE
  8
0
  6
CONTINUOUS
 62
       7
  5
75
 10
-33.06795906
 20
33.3182879
 30
0.0
 11
-34.06831633
 21
34.31864517
 31
0.0
  0
LINE
  8
0
  6
CONTINUOUS
 62
       7
  5
76
 10
-72.56956678
 20
33.3182879
 30
0.0
 11
-71.56920951
 21
34.31864517
 31
0.0
  0
LINE
  8
0
  6
CONTINUOUS
 62
       7
  5
77
 10
-72.56956678
 20
33.3182879
 30
0.0
 11
-72.56956678
 21
23.31471519
 31
0.0
  0
LINE
  8
0
  6
CONTINUOUS
 62
       2
  5
78
 10
-77.72140672
 20
-5.17831803
 30
0.0
 11
-73.10725881
 21
-5.17831803
 31
0.0
  0
LINE
  8
0
  6
CONTINUOUS
 62
       7
  5
79
 10
-31.76749461
 20
0.32364695
 30
0.0
 11
-31.76749461
 21
-10.48021157
 31
0.0
  0
LINE
  8
0
  6
CONTINUOUS
 62
       7
  5
7A
 10
-24.31251069
 20
-13.68135483
 30
0.0
 11
-81.31251069
 21
-13.68135483
 31
0.0
  0
LINE
  8
0
  6
CONTINUOUS
 62
       7
  5
7B
 10
-24.31251069
 20
-12.48092611
 30
0.0
 11
-81.31251069
 21
-12.48092611
 31
0.0
  0
LINE
  8
0
  6
CONTINUOUS
 62
       2
  5
7C
 10
-31.81751248
 20
28.81668018
 30
0.0
 11
-35.68702412
 21
28.81668018
 31
0.0
  0
LINE
  8
0
  6
CONTINUOUS
 62
       2
  5
7D
 10
-73.82001337
 20
28.81668018
 30
0.0
 11
-70.30625846
 21
28.81668018
 31
0.0
  0
LINE
  8
0
  6
CONTINUOUS
 62
       7
  5
7E
 10
-73.87003123
 20
0.32364695
 30
0.0
 11
-73.87003123
 21
-10.48021157
 31
0.0
  0
LINE
  8
0
  6
CONTINUOUS
 62
       7
  5
7F
 10
-33.06795906
 20
33.3182879
 30
0.0
 11
-72.56956678
 21
33.3182879
 31
0.0
  0
LINE
  8
0
  6
CONTINUOUS
 62
       7
  5
80
 10
-74.320192
 20
-1.67706759
 30
0.0
 11
-74.320192
 21
-8.67956848
 31
0.0
  0
LINE
  8
0
  6
CONTINUOUS
 62
       7
  5
81
 10
-76.92112091
 20
-4.27799649
 30
0.0
 11
-76.92112091
 21
-6.07863958
 31
0.0
  0
LINE
  8
0
  6
CONTINUOUS
 62
       7
  5
82
 10
-74.320192
 20
-1.67706759
 30
0.0
 11
-73.87003123
 21
-1.67706759
 31
0.0
  0
LINE
  8
0
  6
CONTINUOUS
 62
       7
  5
83
 10
-74.320192
 20
-8.67956848
 30
0.0
 11
-73.87003123
 21
-8.67956848
 31
0.0
  0
LINE
  8
0
  6
CONTINUOUS
 62
       2
  5
84
 10
-48.68603695
 20
-5.17831803
 30
0.0
 11
-56.93898443
 21
-5.17831803
 31
0.0
  0
LINE
  8
0
  6
CONTINUOUS
 62
       7
  5
85
 10
-53.94684711
 20
-6.30671552
 30
0.0
 11
-51.67817427
 21
-4.04992055
 31
0.0
  0
LINE
  8
0
  6
CONTINUOUS
 62
       7
  5
86
 10
-53.94388154
 20
-4.04694718
 30
0.0
 11
-51.68113984
 21
-6.30968888
 31
0.0
  0
LINE
  8
0
  6
CONTINUOUS
 62
       7
  5
87
 10
-31.31733384
 20
-1.67706759
 30
0.0
 11
-31.31733384
 21
-8.67956848
 31
0.0
  0
LINE
  8
0
  6
CONTINUOUS
 62
       7
  5
88
 10
-31.31733384
 20
-1.67706759
 30
0.0
 11
-31.76749461
 21
-1.67706759
 31
0.0
  0
LINE
  8
0
  6
CONTINUOUS
 62
       7
  5
89
 10
-28.71640494
 20
-4.27799649
 30
0.0
 11
-28.71640494
 21
-6.07863958
 31
0.0
  0
LINE
  8
0
  6
CONTINUOUS
 62
       2
  5
8A
 10
-49.63250952
 20
28.81668018
 30
0.0
 11
-56.03515376
 21
28.81668018
 31
0.0
  0
ARC
  8
0
  6
CONTINUOUS
 62
       7
  5
8B
 10
-29.75844718
 20
-10.47187868
 30
0.0
 40
2.00906471
 50
180.23764326
 51
269.76235674
  0
ARC
  8
0
  6
CONTINUOUS
 62
       7
  5
8C
 10
-75.87844577
 20
-10.47251157
 30
0.0
 40
2.0084293
 50
270.21966347
 51
359.78033653
  0
ARC
  8
0
  6
CONTINUOUS
 62
       7
  5
8D
 10
-74.31958086
 20
-6.07802843
 30
0.0
 40
2.60154012
 50
180.01345977
 51
269.98654023
  0
ARC
  8
0
  6
CONTINUOUS
 62
       7
  5
8E
 10
-74.32937986
 20
-4.26880863
 30
0.0
 40
2.59175733
 50
89.79688427
 51
180.20311573
  0
CIRCLE
  8
0
  6
CONTINUOUS
 62
       7
  5
8F
 10
-52.81251069
 20
-5.17831803
 30
0.0
 40
3.50124949
  0
ARC
  8
0
  6
CONTINUOUS
 62
       7
  5
90
 10
-31.31729483
 20
-6.07867859
 30
0.0
 40
2.60088989
 50
269.99914058
 51
0.00085942
  0
ARC
  8
0
  6
CONTINUOUS
 62
       7
  5
91
 10
-31.30749337
 20
-4.26815602
 30
0.0
 40
2.59110712
 50
359.78240229
 51
90.21759771
  0
CIRCLE
  8
0
  6
CONTINUOUS
 62
       2
  5
92
 10
-52.81811515
 20
28.8264783
 30
0.0
 40
2.00071383
  0
CIRCLE
  8
0
  6
CONTINUOUS
 62
       7
  5
93
 10
-52.81811515
 20
28.8264783
 30
0.0
 40
1.50053567
  0
LINE
  8
0
  6
CONTINUOUS
 62
       2
  5
94
 10
-37.25934543
 20
44.12214642
 30
0.0
 11
-69.35276037
 21
44.12214642
 31
0.0
  0
ARC
  8
0
  6
CONTINUOUS
 62
       7
  5
95
 10
-52.81251069
 20
44.12214642
 30
0.0
 40
13.00464452
 50
349.47454063
 51
190.52545937
  0
LINE
  8
0
  6
CONTINUOUS
 62
       7
  5
96
 10
-41.40678073
 20
34.31864517
 30
0.0
 11
-40.02668448
 21
41.74655658
 31
0.0
  0
LINE
  8
0
  6
CONTINUOUS
 62
       7
  5
97
 10
-64.21824064
 20
34.31864517
 30
0.0
 11
-65.5983369
 21
41.74655658
 31
0.0
  0
LINE
  8
0
  6
CONTINUOUS
 62
       7
  5
98
 10
-24.51813431
 20
61.09877225
 30
0.0
 11
-35.83588486
 21
72.4165228
 31
0.0
  0
LINE
  8
0
  6
CONTINUOUS
 62
       7
  5
99
 10
-26.64021254
 20
63.22085048
 30
0.0
 11
-36.30960149
 21
53.55146152
 31
0.0
  0
LINE
  8
0
  6
CONTINUOUS
 62
       7
  5
9A
 10
-33.71380663
 20
70.29444457
 30
0.0
 11
-43.38319559
 21
60.62505562
 31
0.0
  0
ARC
  8
0
  6
CONTINUOUS
 62
       7
  5
9B
 10
-51.8715085
 20
69.11336853
 30
0.0
 40
12.00428725
 50
267.84364304
 51
315.0
  0
ARC
  8
0
  6
CONTINUOUS
 62
       7
  5
9C
 10
-27.82128858
 20
45.06314861
 30
0.0
 40
12.00428725
 50
135.0
 51
182.15635696
  0
LINE
  8
0
  6
CONTINUOUS
 62
       2
  5
9D
 10
-93.00828976
 20
101.52766818
 30
0.0
 11
-49.78199832
 21
39.79412622
 31
0.0
  0
LINE
  8
0
  6
PHANTOM
 62
       2
  5
9F
 10
-67.07629064
 20
73.21328371
 30
0.0
 11
-59.2328732
 21
62.01172273
 31
0.0
  0
LINE
  8
0
  6
PHANTOM
 62
       2
  5
A0
 10
-75.27073767
 20
67.47547013
 30
0.0
 11
-67.42732023
 21
56.27390915
 31
0.0
  0
LINE
  8
0
  6
PHANTOM
 62
       2
  5
A1
 10
-64.61795653
 20
74.93462778
 30
0.0
 11
-77.72907178
 21
65.75412605
 31
0.0
  0
ARC
  8
0
  6
PHANTOM
 62
       2
  5
A2
 10
-77.26065667
 20
49.38853285
 30
0.0
 40
12.00428725
 50
347.84364304
 51
35.0
  0
ARC
  8
0
  6
PHANTOM
 62
       2
  5
A3
 10
-49.39953676
 20
68.89709903
 30
0.0
 40
12.00428725
 50
215.0
 51
262.15635696
  0
ARC
  8
0
  6
PHANTOM
 62
       2
  5
A4
 10
-79.78023453
 20
82.63604747
 30
0.0
 40
17.0060736
 50
333.07248694
 51
276.92751306
  0
ARC
  8
0
  6
CONTINUOUS
 62
       7
  5
A5
 10
-19.56661844
 20
77.36803867
 30
0.0
 40
17.0060736
 50
253.07248694
 51
196.92751306
  0
LINE
  8
0
  6
CONTINUOUS
 62
       7
  5
A6
 10
-38.7970463
 20
48.82198691
 30
0.0
 11
-37.46566465
 21
51.5115696
 31
0.0
  0
LINE
  8
0
  6
CONTINUOUS
 62
       7
  5
A7
 10
-38.7970463
 20
48.82198694
 30
0.0
 11
-39.1609297
 21
49.0021144
 31
0.0
  0
LINE
  8
0
  6
CONTINUOUS
 62
       7
  5
A8
 10
-37.46566464
 20
51.51156961
 30
0.0
 11
-37.82954805
 21
51.69169706
 31
0.0
  0
LINE
  8
0
  6
PHANTOM
 62
       2
  5
A9
 10
-55.00719022
 20
58.74080316
 30
0.0
 11
-55.24776883
 21
58.41372677
 31
0.0
  0
LINE
  8
0
  6
PHANTOM
 62
       2
  5
AA
 10
-57.42472009
 20
60.51899926
 30
0.0
 11
-57.66529869
 21
60.19192287
 31
0.0
  0
LINE
  8
0
  6
PHANTOM
 62
       2
  5
AB
 10
-55.0071902
 20
58.74080315
 30
0.0
 11
-57.42472008
 21
60.51899925
 31
0.0
  0
CIRCLE
  8
0
  6
CONTINUOUS
 62
       7
  5
AC
 10
-52.81251069
 20
44.12214642
 30
0.0
 40
3.00107181
  0
CIRCLE
  8
0
  6
DASHED
 62
       2
  5
AE
 10
-52.81251069
 20
44.12214642
 30
0.0
 40
4.00142908
  0
LINE
  8
0
  6
CONTINUOUS
 62
       7
  5
AF
 10
83.47744863
 20
34.31864517
 30
0.0
 11
82.09735237
 21
41.74655658
 31
0.0
  0
LINE
  8
0
  6
CONTINUOUS
 62
       7
  5
B0
 10
106.28890854
 20
34.31864517
 30
0.0
 11
107.6690048
 21
41.74655658
 31
0.0
  0
ARC
  8
0
  6
CONTINUOUS
 62
       7
  5
B1
 10
94.88317859
 20
44.12214642
 30
0.0
 40
13.00464452
 50
349.47454063
 51
71.62276637
  0
LINE
  8
0
  6
CONTINUOUS
 62
       2
  5
B2
 10
111.911369
 20
44.12214642
 30
0.0
 11
77.80911567
 21
44.12214642
 31
0.0
  0
CIRCLE
  8
0
  6
CONTINUOUS
 62
       7
  5
B3
 10
94.88317859
 20
28.81668018
 30
0.0
 40
1.50053567
  0
CIRCLE
  8
0
  6
CONTINUOUS
 62
       2
  5
B4
 10
94.88317859
 20
28.81668018
 30
0.0
 40
2.00071383
  0
LINE
  8
0
  6
CONTINUOUS
 62
       2
  5
B5
 10
97.32154943
 20
28.81668018
 30
0.0
 11
92.44480774
 21
28.81668018
 31
0.0
  0
LINE
  8
0
  6
CONTINUOUS
 62
       7
  5
B6
 10
114.62773021
 20
33.3182879
 30
0.0
 11
75.12612249
 21
33.3182879
 31
0.0
  0
LINE
  8
0
  6
CONTINUOUS
 62
       2
  5
B7
 10
73.87567591
 20
28.81668018
 30
0.0
 11
77.38943082
 21
28.81668018
 31
0.0
  0
LINE
  8
0
  6
CONTINUOUS
 62
       2
  5
B8
 10
115.8781768
 20
28.81668018
 30
0.0
 11
113.38978809
 21
28.81668018
 31
0.0
  0
LINE
  8
0
  6
CONTINUOUS
 62
       7
  5
B9
 10
75.12612249
 20
33.3182879
 30
0.0
 11
75.12612249
 21
23.31471519
 31
0.0
  0
LINE
  8
0
  6
CONTINUOUS
 62
       7
  5
BA
 10
75.12612249
 20
33.3182879
 30
0.0
 11
76.12647976
 21
34.31864517
 31
0.0
  0
LINE
  8
0
  6
CONTINUOUS
 62
       7
  5
BB
 10
114.62773021
 20
33.3182879
 30
0.0
 11
113.62737294
 21
34.31864517
 31
0.0
  0
LINE
  8
0
  6
CONTINUOUS
 62
       7
  5
BC
 10
113.62737294
 20
34.31864517
 30
0.0
 11
76.12647976
 21
34.31864517
 31
0.0
  0
LINE
  8
0
  6
CONTINUOUS
 62
       7
  5
BD
 10
114.62773021
 20
33.3182879
 30
0.0
 11
114.62773021
 21
23.31471519
 31
0.0
  0
CIRCLE
  8
0
  6
CONTINUOUS
 62
       7
  5
BE
 10
94.88317859
 20
77.37411227
 30
0.0
 40
17.0
  0
LINE
  8
0
  6
CONTINUOUS
 62
       7
  5
BF
 10
90.78317859
 20
35.62214642
 30
0.0
 11
90.78317859
 21
60.87593055
 31
0.0
  0
LINE
  8
0
  6
CONTINUOUS
 62
       7
  5
C0
 10
98.98317859
 20
35.62214642
 30
0.0
 11
98.98317859
 21
60.87593055
 31
0.0
  0
LINE
  8
0
  6
CONTINUOUS
 62
       7
  5
C1
 10
98.98317859
 20
35.62214642
 30
0.0
 11
90.78317859
 21
35.62214642
 31
0.0
  0
ARC
  8
0
  6
CONTINUOUS
 62
       7
  5
C2
 10
94.88317859
 20
44.12214642
 30
0.0
 40
13.00464452
 50
108.37723363
 51
190.52545937
  0
LINE
  8
0
  6
CONTINUOUS
 62
       2
  5
C3
 10
73.09734435
 20
77.37411227
 30
0.0
 11
116.66901282
 21
77.37411227
 31
0.0
  0
LINE
  8
0
  6
CONTINUOUS
 62
       7
  5
C4
 10
107.8878231
 20
40.12214642
 30
0.0
 11
107.8878231
 21
48.12214642
 31
0.0
  0
LINE
  8
0
  6
CONTINUOUS
 62
       7
  5
C5
 10
80.37853407
 20
41.12214642
 30
0.0
 11
80.37853407
 21
47.12214642
 31
0.0
  0
LINE
  8
0
  6
CONTINUOUS
 62
       7
  5
C6
 10
108.80423097
 20
40.12214642
 30
0.0
 11
107.8878231
 21
40.12214642
 31
0.0
  0
LINE
  8
0
  6
CONTINUOUS
 62
       7
  5
C7
 10
108.80423097
 20
48.12214642
 30
0.0
 11
107.8878231
 21
48.12214642
 31
0.0
  0
ARC
  8
0
  6
CONTINUOUS
 62
       7
  5
C8
 10
95.3878231
 20
44.12214642
 30
0.0
 40
14.0
 50
343.3984504
 51
16.6015496
  0
LINE
  8
0
  6
CONTINUOUS
 62
       7
  5
C9
 10
107.8878231
 20
41.62214642
 30
0.0
 11
107.64588955
 21
41.62214642
 31
0.0
  0
LINE
  8
0
  6
CONTINUOUS
 62
       7
  5
CA
 10
107.8878231
 20
46.62214642
 30
0.0
 11
107.64526223
 21
46.62214642
 31
0.0
  0
LINE
  8
0
  6
CONTINUOUS
 62
       7
  5
CB
 10
81.37853407
 20
48.12214642
 30
0.0
 11
82.50898047
 21
48.12214642
 31
0.0
  0
LINE
  8
0
  6
CONTINUOUS
 62
       7
  5
CC
 10
81.37853407
 20
40.12214642
 30
0.0
 11
82.39916566
 21
40.12214642
 31
0.0
  0
ARC
  8
0
  6
CONTINUOUS
 62
       7
  5
CD
 10
81.37853407
 20
47.12214642
 30
0.0
 40
1.0
 50
90.0
 51
180.0
  0
ARC
  8
0
  6
CONTINUOUS
 62
       7
  5
CE
 10
81.37853407
 20
41.12214642
 30
0.0
 40
1.0
 50
180.0
 51
270.0
  0
LINE
  8
0
  6
CONTINUOUS
 62
       7
  5
CF
 10
-31.81251069
 20
0.32364695
 30
0.0
 11
-31.81251069
 21
23.31471519
 31
0.0
  0
CIRCLE
  8
0
  6
CONTINUOUS
 62
       2
  5
D0
 10
-52.81251069
 20
11.81864517
 30
0.0
 40
6.57849979
  0
CIRCLE
  8
0
  6
CONTINUOUS
 62
       7
  5
D1
 10
-52.81251069
 20
11.81864517
 30
0.0
 40
5.72249985
  0
LINE
  8
0
  6
CONTINUOUS
 62
       7
  5
D2
 10
-73.81251069
 20
0.32364695
 30
0.0
 11
-73.81251069
 21
23.31471519
 31
0.0
  0
LINE
  8
0
  6
CONTINUOUS
 62
       7
  5
D3
 10
-33.06795906
 20
23.31471519
 30
0.0
 11
-33.06795906
 21
0.32364695
 31
0.0
  0
LINE
  8
0
  6
CONTINUOUS
 62
       7
  5
D4
 10
-72.56956678
 20
23.31471519
 30
0.0
 11
-72.56956678
 21
0.32364695
 31
0.0
  0
LINE
  8
0
  6
CONTINUOUS
 62
       7
  5
D5
 10
73.88317859
 20
0.32364695
 30
0.0
 11
73.88317859
 21
23.31471519
 31
0.0
  0
LINE
  8
0
  6
CONTINUOUS
 62
       7
  5
D6
 10
75.12612249
 20
23.31471519
 30
0.0
 11
75.12612249
 21
0.32364695
 31
0.0
  0
LINE
  8
0
  6
CONTINUOUS
 62
       7
  5
D7
 10
115.88317859
 20
23.31471519
 30
0.0
 11
73.88317859
 21
23.31471519
 31
0.0
  0
LINE
  8
0
  6
CONTINUOUS
 62
       7
  5
D8
 10
115.88317859
 20
0.32364695
 30
0.0
 11
115.88317859
 21
23.31471519
 31
0.0
  0
LINE
  8
0
  6
CONTINUOUS
 62
       7
  5
D9
 10
114.62773021
 20
23.31471519
 30
0.0
 11
114.62773021
 21
0.32364695
 31
0.0
  0
CIRCLE
  8
0
  6
CONTINUOUS
 62
       2
  5
DA
 10
94.88317859
 20
11.81864517
 30
0.0
 40
6.57849979
  0
CIRCLE
  8
0
  6
CONTINUOUS
 62
       7
  5
DB
 10
94.88317859
 20
11.81864517
 30
0.0
 40
5.72249985
  0
LINE
  8
0
  6
CONTINUOUS
 62
       7
  5
DC
 10
115.92819466
 20
0.32364695
 30
0.0
 11
73.82565804
 21
0.32364695
 31
0.0
  0
LINE
  8
0
  6
CONTINUOUS
 62
       7
  5
DD
 10
115.92819466
 20
0.32364695
 30
0.0
 11
115.92819466
 21
-10.48021157
 31
0.0
  0
LINE
  8
0
  6
CONTINUOUS
 62
       7
  5
DE
 10
116.37835543
 20
-1.67706759
 30
0.0
 11
116.37835543
 21
-8.67956848
 31
0.0
  0
ARC
  8
0
  6
CONTINUOUS
 62
       7
  5
DF
 10
116.37839445
 20
-6.07867859
 30
0.0
 40
2.60088989
 50
269.99914058
 51
0.00085942
  0
ARC
  8
0
  6
CONTINUOUS
 62
       7
  5
E0
 10
116.38819591
 20
-4.26815602
 30
0.0
 40
2.59110712
 50
359.78240229
 51
90.21759771
  0
LINE
  8
0
  6
CONTINUOUS
 62
       7
  5
E1
 10
118.97928434
 20
-4.27799649
 30
0.0
 11
118.97928434
 21
-6.07863958
 31
0.0
  0
LINE
  8
0
  6
CONTINUOUS
 62
       7
  5
E2
 10
116.37835543
 20
-1.67706759
 30
0.0
 11
115.92819466
 21
-1.67706759
 31
0.0
  0
LINE
  8
0
  6
CONTINUOUS
 62
       2
  5
E3
 10
119.77957015
 20
-5.17831803
 30
0.0
 11
115.11540438
 21
-5.17831803
 31
0.0
  0
CIRCLE
  8
0
  6
CONTINUOUS
 62
       7
  5
E4
 10
94.88317859
 20
-5.17831803
 30
0.0
 40
3.50124949
  0
LINE
  8
0
  6
CONTINUOUS
 62
       7
  5
E5
 10
93.75180774
 20
-4.04694718
 30
0.0
 11
96.01454944
 21
-6.30968888
 31
0.0
  0
LINE
  8
0
  6
CONTINUOUS
 62
       7
  5
E6
 10
93.74884217
 20
-6.30671552
 30
0.0
 11
96.01751501
 21
-4.04992055
 31
0.0
  0
LINE
  8
0
  6
CONTINUOUS
 62
       2
  5
E7
 10
99.00965233
 20
-5.17831803
 30
0.0
 11
90.75670484
 21
-5.17831803
 31
0.0
  0
LINE
  8
0
  6
CONTINUOUS
 62
       7
  5
E8
 10
73.82565804
 20
0.32364695
 30
0.0
 11
73.82565804
 21
-10.48021157
 31
0.0
  0
ARC
  8
0
  6
CONTINUOUS
 62
       7
  5
E9
 10
73.36630941
 20
-4.26880863
 30
0.0
 40
2.59175733
 50
89.79688427
 51
180.20311573
  0
ARC
  8
0
  6
CONTINUOUS
 62
       7
  5
EA
 10
73.37610842
 20
-6.07802843
 30
0.0
 40
2.60154012
 50
180.01345977
 51
269.98654023
  0
LINE
  8
0
  6
CONTINUOUS
 62
       7
  5
EB
 10
73.37549727
 20
-8.67956848
 30
0.0
 11
73.82565804
 21
-8.67956848
 31
0.0
  0
LINE
  8
0
  6
CONTINUOUS
 62
       7
  5
EC
 10
73.37549727
 20
-1.67706759
 30
0.0
 11
73.82565804
 21
-1.67706759
 31
0.0
  0
LINE
  8
0
  6
CONTINUOUS
 62
       7
  5
ED
 10
70.77456837
 20
-4.27799649
 30
0.0
 11
70.77456837
 21
-6.07863958
 31
0.0
  0
LINE
  8
0
  6
CONTINUOUS
 62
       7
  5
EE
 10
73.37549727
 20
-1.67706759
 30
0.0
 11
73.37549727
 21
-8.67956848
 31
0.0
  0
LINE
  8
0
  6
CONTINUOUS
 62
       2
  5
EF
 10
69.97428255
 20
-5.17831803
 30
0.0
 11
74.58843046
 21
-5.17831803
 31
0.0
  0
LINE
  8
0
  6
CONTINUOUS
 62
       7
  5
F0
 10
123.38317859
 20
-13.68135483
 30
0.0
 11
66.38317859
 21
-13.68135483
 31
0.0
  0
LINE
  8
0
  6
CONTINUOUS
 62
       7
  5
F1
 10
123.38317859
 20
-12.48092611
 30
0.0
 11
66.38317859
 21
-12.48092611
 31
0.0
  0
ARC
  8
0
  6
CONTINUOUS
 62
       7
  5
F2
 10
71.8172435
 20
-10.47251157
 30
0.0
 40
2.0084293
 50
270.21966347
 51
359.78033653
  0
ARC
  8
0
  6
CONTINUOUS
 62
       7
  5
F3
 10
117.93724209
 20
-10.47187868
 30
0.0
 40
2.00906471
 50
180.23764326
 51
269.76235674
  0
LINE
  8
0
  6
CONTINUOUS
 62
       2
  5
F4
 10
48.9717579
 20
11.81864517
 30
0.0
 11
120.35898162
 21
11.81864517
 31
0.0
  0
LINE
  8
0
  6
CONTINUOUS
 62
       2
  5
F5
 10
94.88317859
 20
-18.07321664
 30
0.0
 11
94.88317859
 21
99.1599465
 31
0.0
  0
LINE
  8
0
  6
CONTINUOUS
 62
       7
  5
F6
 10
-44.82501069
 20
23.31864517
 30
0.0
 11
-44.82501069
 21
0.31864517
 31
0.0
  0
LINE
  8
0
  6
CONTINUOUS
 62
       7
  5
F7
 10
-60.81251069
 20
23.31864517
 30
0.0
 11
-60.81251069
 21
0.31864517
 31
0.0
  0
LINE
  8
0
  6
CONTINUOUS
 62
       7
  5
F8
 10
102.87067859
 20
23.31864517
 30
0.0
 11
102.87067859
 21
0.31864517
 31
0.0
  0
LINE
  8
0
  6
CONTINUOUS
 62
       7
  5
F9
 10
86.88317859
 20
23.31864517
 30
0.0
 11
86.88317859
 21
0.31864517
 31
0.0
  0
LINE
  8
0
  6
CONTINUOUS
 62
       7
  5
FA
 10
54.88317859
 20
17.65614517
 30
0.0
 11
54.88317859
 21
5.98114517
 31
0.0
  0
LINE
  8
0
  6
CONTINUOUS
 62
       7
  5
FB
 10
64.88317859
 20
16.43114517
 30
0.0
 11
64.88317859
 21
7.20614517
 31
0.0
  0
LINE
  8
0
  6
CONTINUOUS
 62
       7
  5
FC
 10
63.48317859
 20
17.90614517
 30
0.0
 11
63.48317859
 21
5.73114517
 31
0.0
  0
LINE
  8
0
  6
CONTINUOUS
 62
       7
  5
FD
 10
55.28317859
 20
18.34364517
 30
0.0
 11
55.28317859
 21
5.30614517
 31
0.0
  0
LINE
  8
0
  6
CONTINUOUS
 62
       7
  5
FE
 10
54.88317859
 20
17.65614517
 30
0.0
 11
55.28317859
 21
18.34364517
 31
0.0
  0
LINE
  8
0
  6
CONTINUOUS
 62
       7
  5
FF
 10
64.88317859
 20
16.43114517
 30
0.0
 11
63.40817859
 21
17.91864517
 31
0.0
  0
LINE
  8
0
  6
CONTINUOUS
 62
       7
  5
100
 10
55.28317859
 20
18.34364517
 30
0.0
 11
63.40817859
 21
17.91864517
 31
0.0
  0
LINE
  8
0
  6
CONTINUOUS
 62
       2
  5
101
 10
54.88317859
 20
17.31864517
 30
0.0
 11
63.99567859
 21
17.31864517
 31
0.0
  0
LINE
  8
0
  6
CONTINUOUS
 62
       7
  5
102
 10
64.88317859
 20
7.20614517
 30
0.0
 11
63.40817859
 21
5.73114517
 31
0.0
  0
LINE
  8
0
  6
CONTINUOUS
 62
       7
  5
103
 10
54.88317859
 20
5.98114517
 30
0.0
 11
55.28317859
 21
5.30614517
 31
0.0
  0
LINE
  8
0
  6
CONTINUOUS
 62
       7
  5
104
 10
55.28317859
 20
5.30614517
 30
0.0
 11
63.40817859
 21
5.73114517
 31
0.0
  0
LINE
  8
0
  6
CONTINUOUS
 62
       2
  5
105
 10
54.88317859
 20
6.31864517
 30
0.0
 11
63.99567859
 21
6.31864517
 31
0.0
  0
LINE
  8
0
  6
CONTINUOUS
 62
       2
  5
106
 10
-52.81251069
 20
-18.87820917
 30
0.0
 11
-52.81251069
 21
114.26786409
 31
0.0
  0
TEXT
  8
0
  6
CONTINUOUS
 62
       7
  5
107
 10
-185.71052632
 20
115.3500061
 30
0.0
 40
4.5
  1
MODEL:250V
 41
1.05263158
  7
MX_NOTE_STANDARD
 11
-185.71052632
 21
117.6000061
 31
0.0
 73
       2
  0
LINE
  8
0
  6
CONTINUOUS
 62
       7
  5
108
 10
-194.25
 20
132.6000061
 30
0.0
 11
194.80000305
 21
132.6000061
 31
0.0
  0
LINE
  8
0
  6
CONTINUOUS
 62
       7
  5
109
 10
194.80000305
 20
132.6000061
 30
0.0
 11
194.80000305
 21
-133.5
 31
0.0
  0
LINE
  8
0
  6
CONTINUOUS
 62
       7
  5
10A
 10
-194.25
 20
132.6000061
 30
0.0
 11
-194.25
 21
-133.5
 31
0.0
  0
LINE
  8
0
  6
CONTINUOUS
 62
       7
  5
10B
 10
-194.25
 20
-133.5
 30
0.0
 11
194.80000305
 21
-133.5
 31
0.0
  0
ENDSEC
  0
EOF
