  0
SECTION
  2
HEADER
  0
ENDSEC
  0
SECTION
  2
TABLES
  0
TABLE
  2
LTYPE
 70
     4
  0
LTYPE
  2
CONTINUOUS
 70
    64
  3
Solid line
 72
    65
 73
     0
 40
0.000000
  0
LTYPE
  2
DASHED
 70
    64
  3
__ __ __ __ __ __ __ __ __ __ __ __ __ __ __
 72
    65
 73
     2
 40
3.500000
 49
2.000000
 49
-1.500000
  0
LTYPE
  2
CENTER
 70
    64
  3
____ _ ____ _ ____ _ ____ _ ____ _ ____ _ ____
 72
    65
 73
     4
 40
17.500000
 49
13.000000
 49
-1.500000
 49
1.500000
 49
-1.500000
  0
LTYPE
  2
PHANTOM
 70
    64
  3
_____ _ _ _____ _ _ _____ _ _ _____ _ _ ____  
 72
    65
 73
     6
 40
15.500000
 49
8.000000
 49
-1.500000
 49
1.500000
 49
-1.500000
 49
1.500000
 49
-1.500000
  0
LTYPE
  2
DASHED1
 70
    64
  3
__ __ __ __ __ __ __ __ __ __ __ __ __ __ __
 72
    65
 73
     2
 40
1.500000
 49
1.000000
 49
-0.500000
  0
LTYPE
  2
DASHED2
 70
    64
  3
__ __ __ __ __ __ __ __ __ __ __ __ __ __ __
 72
    65
 73
     2
 40
3.500000
 49
2.500000
 49
-1.000000
  0
LTYPE
  2
DASHED3
 70
    64
  3
__ __ __ __ __ __ __ __ __ __ __ __ __ __ __
 72
    65
 73
     2
 40
6.000000
 49
4.000000
 49
-2.000000
  0
LTYPE
  2
DASHED4
 70
    64
  3
__ __ __ __ __ __ __ __ __ __ __ __ __ __ __
 72
    65
 73
     2
 40
12.000000
 49
10.000000
 49
-2.000000
  0
LTYPE
  2
DASHED5
 70
    64
  3
__ __ __ __ __ __ __ __ __ __ __ __ __ __ __
 72
    65
 73
     2
 40
17.000000
 49
15.000000
 49
-2.000000
  0
LTYPE
  2
DASHED6
 70
    64
  3
__ __ __ __ __ __ __ __ __ __ __ __ __ __ __
 72
    65
 73
     2
 40
29.000000
 49
27.000000
 49
-2.000000
  0
LTYPE
  2
PHANTOM1
 70
    64
  3
_____ _ _ _____ _ _ _____ _ _ _____ _ _ ____  
 72
    65
 73
     6
 40
31.000000
 49
25.000000
 49
-1.500000
 49
1.000000
 49
-1.000000
 49
1.000000
 49
-1.500000
  0
LTYPE
  2
PHANTOM2
 70
    64
  3
_____ _ _ _____ _ _ _____ _ _ _____ _ _ ____  
 72
    65
 73
     6
 40
36.000000
 49
27.000000
 49
-1.500000
 49
2.500000
 49
-1.000000
 49
2.500000
 49
-1.500000
  0
LTYPE
  2
PHANTOM3
 70
    64
  3
_____ _ _ _____ _ _ _____ _ _ _____ _ _ ____  
 72
    65
 73
     6
 40
78.000000
 49
64.000000
 49
-2.000000
 49
4.000000
 49
-2.000000
 49
4.000000
 49
-2.000000
  0
LTYPE
  2
CENTER1
 70
    64
  3
____ _ ____ _ ____ _ ____ _ ____ _ ____ _ ____
 72
    65
 73
     4
 40
19.000000
 49
14.000000
 49
-1.000000
 49
3.000000
 49
-1.000000
  0
LTYPE
  2
CENTER2
 70
    64
  3
____ _ ____ _ ____ _ ____ _ ____ _ ____ _ ____
 72
    65
 73
     4
 40
28.500000
 49
25.000000
 49
-1.000000
 49
1.500000
 49
-1.000000
  0
LTYPE
  2
CENTER3
 70
    64
  3
____ _ ____ _ ____ _ ____ _ ____ _ ____ _ ____
 72
    65
 73
     4
 40
31.500000
 49
27.000000
 49
-1.000000
 49
2.500000
 49
-1.000000
  0
LTYPE
  2
CENTER4
 70
    64
  3
____ _ ____ _ ____ _ ____ _ ____ _ ____ _ ____
 72
    65
 73
     4
 40
50.000000
 49
45.000000
 49
-1.000000
 49
3.000000
 49
-1.000000
  0
LTYPE
  2
CENTER5
 70
    64
  3
____ _ ____ _ ____ _ ____ _ ____ _ ____ _ ____
 72
    65
 73
     4
 40
100.000000
 49
92.000000
 49
-2.000000
 49
4.000000
 49
-2.000000
  0
LTYPE
  2
SBK1
 70
    64
  3
______ _ _ _ ______ _ _ _ ______ _ _ _ _____  
 72
    65
 73
     8
 40
60.500000
 49
45.000000
 49
-2.000000
 49
2.500000
 49
-2.000000
 49
2.500000
 49
-2.000000
 49
2.500000
 49
-2.000000
  0
LTYPE
  2
SBK2
 70
    64
  3
______ _ _ _ ______ _ _ _ ______ _ _ _ _____  
 72
    65
 73
     8
 40
84.000000
 49
64.000000
 49
-2.000000
 49
4.000000
 49
-2.000000
 49
4.000000
 49
-2.000000
 49
4.000000
 49
-2.000000
  0
LTYPE
  2
STCH
 70
    64
  3
__ __ __ __ __ __ __ __ __ __ __ __ __ __ __
 72
    65
 73
     2
 40
3.000000
 49
1.000000
 49
-2.000000
  0
LTYPE
  2
MTCH
 70
    64
  3
_____ _ _ _____ _ _ _____ _ _ _____ _ _ ____  
 72
    65
 73
     6
 40
80.000000
 49
66.000000
 49
-2.000000
 49
4.000000
 49
-2.000000
 49
4.000000
 49
-2.000000
  0
ENDTAB
  0
TABLE
  2
LAYER
 70
     1
  0
LAYER
  2
0
 70
     0
 62
     7
  6
CONTINUOUS
  0
ENDTAB
  0
TABLE
  2
STYLE
 70
     1
  0
STYLE
  2
STANDARD
 70
     0
 40
0.000000
 41
1.000000
 50
0.000000
 71
     0
 42
0.200000
  3
txt
  4
BIGFONT
  0
ENDTAB
  0
TABLE
  2
VIEW
 70
     0
  0
ENDTAB
  0
ENDSEC
  0
SECTION
  2
BLOCKS
  0
ENDSEC
  0
SECTION
  2
ENTITIES
  0
LINE
  8
0
 10
-281.250000
 20
195.500000
 11
282.099976
 21
195.500000
  0
LINE
  8
0
 10
-281.250000
 20
195.500000
 11
-281.250000
 21
-195.000000
  0
LINE
  8
0
 10
282.099976
 20
195.500000
 11
282.099976
 21
-195.000000
  0
LINE
  8
0
 10
-281.250000
 20
-195.000000
 11
282.099976
 21
-195.000000
  0
LINE
  8
0
 10
162.099976
 20
-175.000000
 11
162.099976
 21
-195.000000
  0
LINE
  8
0
 10
162.099976
 20
-175.000000
 11
282.099976
 21
-175.000000
  0
LINE
  8
0
 10
162.099976
 20
175.500000
 11
282.099976
 21
175.500000
  0
LINE
  8
0
 10
-281.250000
 20
175.500000
 11
-161.250000
 21
175.500000
  0
LINE
  8
0
 10
162.099976
 20
195.500000
 11
162.099976
 21
175.500000
  0
LINE
  8
0
 10
-161.250000
 20
195.500000
 11
-161.250000
 21
175.500000
  0
LINE
  8
0
  6
CENTER
 62
     2
 10
-140.412506
 20
121.921539
 11
-140.412506
 21
62.011139
  0
LINE
  8
0
 10
-128.912506
 20
74.875000
 11
-151.912506
 21
74.875000
  0
LINE
  8
0
 10
-243.412506
 20
74.875092
 11
-208.412506
 21
74.875092
  0
LINE
  8
0
 10
-243.412506
 20
74.875092
 11
-208.412506
 21
74.875092
  0
LINE
  8
0
 10
-207.912537
 20
74.875031
 11
-207.912537
 21
74.874969
  0
LINE
  8
0
  6
PHANTOM
 62
     2
 10
-128.912506
 20
41.914749
 11
-151.912506
 21
41.914749
  0
LINE
  8
0
  6
PHANTOM
 62
     2
 10
-128.912506
 20
6.914749
 11
-151.912506
 21
6.914749
  0
LINE
  8
0
  6
PHANTOM
 62
     2
 10
-151.912506
 20
41.914742
 11
-151.912506
 21
6.914749
  0
LINE
  8
0
  6
PHANTOM
 62
     2
 10
-128.912506
 20
41.914742
 11
-128.912506
 21
6.914749
  0
LINE
  8
0
  6
CENTER
 62
     2
 10
-140.412506
 20
55.913971
 11
-140.412506
 21
3.448441
  0
LINE
  8
0
  6
CENTER
 62
     2
 10
-130.412506
 20
12.914749
 11
-136.412506
 21
12.914749
  0
LINE
  8
0
  6
CENTER
 62
     2
 10
-133.412506
 20
15.914749
 11
-133.412506
 21
9.914749
  0
LINE
  8
0
  6
CENTER
 62
     2
 10
-150.412506
 20
35.914749
 11
-144.412506
 21
35.914749
  0
LINE
  8
0
  6
CENTER
 62
     2
 10
-147.412506
 20
32.914749
 11
-147.412506
 21
38.914742
  0
LINE
  8
0
  6
PHANTOM
 62
     2
 10
-132.412506
 20
37.414749
 11
-128.912506
 21
37.414749
  0
LINE
  8
0
  6
PHANTOM
 62
     2
 10
-132.412506
 20
31.414749
 11
-128.912506
 21
31.414749
  0
LINE
  8
0
  6
PHANTOM
 62
     2
 10
-151.912506
 20
17.414749
 11
-148.412506
 21
17.414749
  0
LINE
  8
0
  6
PHANTOM
 62
     2
 10
-151.912506
 20
11.414749
 11
-148.412506
 21
11.414749
  0
LINE
  8
0
  6
PHANTOM
 62
     2
 10
-149.501251
 20
13.326279
 11
-147.445511
 21
15.382002
  0
LINE
  8
0
  6
PHANTOM
 62
     2
 10
-149.573593
 20
15.575257
 11
-147.381882
 21
13.383546
  0
LINE
  8
0
  6
PHANTOM
 62
     2
 10
-133.501236
 20
33.326248
 11
-131.445511
 21
35.381973
  0
LINE
  8
0
  6
PHANTOM
 62
     2
 10
-133.573486
 20
35.575302
 11
-131.381790
 21
33.383606
  0
LINE
  8
0
 10
-128.912506
 20
-110.375000
 11
-151.912506
 21
-110.375000
  0
LINE
  8
0
  6
PHANTOM
 62
     2
 10
152.762451
 20
-71.161598
 11
129.762451
 21
-71.161598
  0
LINE
  8
0
  6
PHANTOM
 62
     2
 10
152.762451
 20
-106.161598
 11
129.762451
 21
-106.161598
  0
LINE
  8
0
  6
PHANTOM
 62
     2
 10
129.762451
 20
-71.161629
 11
129.762451
 21
-106.161629
  0
LINE
  8
0
  6
PHANTOM
 62
     2
 10
152.762451
 20
-71.161629
 11
152.762451
 21
-106.161629
  0
LINE
  8
0
  6
CENTER
 62
     2
 10
141.262451
 20
-37.900330
 11
141.262451
 21
-108.686104
  0
LINE
  8
0
  6
CENTER
 62
     2
 10
151.262451
 20
-100.161598
 11
145.262451
 21
-100.161598
  0
LINE
  8
0
  6
CENTER
 62
     2
 10
148.262451
 20
-97.161629
 11
148.262451
 21
-103.161629
  0
LINE
  8
0
  6
CENTER
 62
     2
 10
131.262451
 20
-77.161598
 11
137.262451
 21
-77.161598
  0
LINE
  8
0
  6
CENTER
 62
     2
 10
134.262451
 20
-80.161629
 11
134.262451
 21
-74.161629
  0
LINE
  8
0
  6
PHANTOM
 62
     2
 10
149.262451
 20
-75.661598
 11
152.762451
 21
-75.661598
  0
LINE
  8
0
  6
PHANTOM
 62
     2
 10
149.262451
 20
-81.661598
 11
152.762451
 21
-81.661598
  0
LINE
  8
0
  6
PHANTOM
 62
     2
 10
129.762451
 20
-95.661598
 11
133.262451
 21
-95.661598
  0
LINE
  8
0
  6
PHANTOM
 62
     2
 10
129.762451
 20
-101.661598
 11
133.262451
 21
-101.661598
  0
LINE
  8
0
  6
PHANTOM
 62
     2
 10
132.173813
 20
-99.750160
 11
134.229523
 21
-97.694435
  0
LINE
  8
0
  6
PHANTOM
 62
     2
 10
132.101471
 20
-97.501030
 11
134.293182
 21
-99.692741
  0
LINE
  8
0
  6
PHANTOM
 62
     2
 10
148.174011
 20
-79.750320
 11
150.229736
 21
-77.694656
  0
LINE
  8
0
  6
PHANTOM
 62
     2
 10
148.101501
 20
-77.500992
 11
150.293213
 21
-79.692703
  0
LINE
  8
0
  6
CENTER
 62
     2
 10
-140.412506
 20
-115.460121
 11
-140.412506
 21
-85.375000
  0
LINE
  8
0
  6
PHANTOM
 62
     2
 10
-128.912506
 20
-156.786606
 11
-151.912506
 21
-156.786606
  0
LINE
  8
0
  6
PHANTOM
 62
     2
 10
-128.912506
 20
-191.786606
 11
-151.912506
 21
-191.786606
  0
LINE
  8
0
  6
PHANTOM
 62
     2
 10
-151.912506
 20
-156.786606
 11
-151.912506
 21
-191.786606
  0
LINE
  8
0
  6
PHANTOM
 62
     2
 10
-128.912506
 20
-156.786606
 11
-128.912506
 21
-191.786606
  0
LINE
  8
0
  6
CENTER
 62
     2
 10
-140.412506
 20
-130.105331
 11
-140.412506
 21
-193.798218
  0
LINE
  8
0
  6
CENTER
 62
     2
 10
-130.412506
 20
-185.786606
 11
-136.412506
 21
-185.786606
  0
LINE
  8
0
  6
CENTER
 62
     2
 10
-133.412506
 20
-182.786606
 11
-133.412506
 21
-188.786606
  0
LINE
  8
0
  6
CENTER
 62
     2
 10
-150.412506
 20
-162.786606
 11
-144.412506
 21
-162.786606
  0
LINE
  8
0
  6
CENTER
 62
     2
 10
-147.412506
 20
-165.786606
 11
-147.412506
 21
-159.786606
  0
LINE
  8
0
  6
PHANTOM
 62
     2
 10
-132.412506
 20
-161.286606
 11
-128.912506
 21
-161.286606
  0
LINE
  8
0
  6
PHANTOM
 62
     2
 10
-132.412506
 20
-167.286606
 11
-128.912506
 21
-167.286606
  0
LINE
  8
0
  6
PHANTOM
 62
     2
 10
-151.912506
 20
-181.286606
 11
-148.412506
 21
-181.286606
  0
LINE
  8
0
  6
PHANTOM
 62
     2
 10
-151.912506
 20
-187.286606
 11
-148.412506
 21
-187.286606
  0
LINE
  8
0
  6
PHANTOM
 62
     2
 10
-149.501221
 20
-185.375076
 11
-147.445480
 21
-183.319336
  0
LINE
  8
0
  6
PHANTOM
 62
     2
 10
-149.573532
 20
-183.126068
 11
-147.381821
 21
-185.317780
  0
LINE
  8
0
  6
PHANTOM
 62
     2
 10
-133.501236
 20
-165.375137
 11
-131.445496
 21
-163.319397
  0
LINE
  8
0
  6
PHANTOM
 62
     2
 10
-133.573471
 20
-163.126007
 11
-131.381760
 21
-165.317719
  0
LINE
  8
0
 10
129.762451
 20
0.250000
 11
152.762451
 21
0.250000
  0
LINE
  8
0
 10
-208.412506
 20
74.875092
 11
-243.412506
 21
74.875092
  0
LINE
  8
0
 10
-207.479462
 20
-110.374962
 11
-242.479492
 21
-110.374962
  0
LINE
  8
0
 10
73.262451
 20
0.250000
 11
38.262451
 21
0.250000
  0
LINE
  8
0
 10
-74.932983
 20
-110.375000
 11
-39.932983
 21
-110.375000
  0
LINE
  8
0
 10
205.742004
 20
0.250000
 11
240.742004
 21
0.250000
  0
LINE
  8
0
 10
-281.250000
 20
0.250000
 11
0.424988
 21
0.250000
  0
LINE
  8
0
 10
0.424988
 20
-195.000000
 11
0.424988
 21
195.500000
  0
LINE
  8
0
  6
CENTER
 62
     2
 10
141.262451
 20
39.307129
 11
141.262451
 21
-2.382965
  0
LINE
  8
0
 10
-75.932983
 20
74.875000
 11
-40.932983
 21
74.875000
  0
LINE
  8
0
 62
     4
 10
-151.912506
 20
95.875000
 11
-151.912506
 21
74.875000
  0
LINE
  8
0
 62
     4
 10
-128.912506
 20
95.875000
 11
-128.912506
 21
74.875000
  0
LINE
  8
0
 62
     4
 10
-151.912506
 20
94.875000
 11
-149.912506
 21
94.875000
  0
LINE
  8
0
 62
     4
 10
-151.912506
 20
95.875000
 11
-149.912506
 21
95.875000
  0
LINE
  8
0
 62
     4
 10
-129.912521
 20
97.875023
 11
-128.912521
 21
95.875000
  0
LINE
  8
0
 62
     4
 10
-151.162506
 20
96.575012
 11
-149.912506
 21
96.575012
  0
LINE
  8
0
 62
     4
 10
-151.162506
 20
96.575012
 11
-151.162506
 21
95.875000
  0
LINE
  8
0
 62
     4
 10
-150.912506
 20
97.875000
 11
-150.682404
 21
97.875000
  0
LINE
  8
0
 62
     4
 10
-133.162506
 20
98.575012
 11
-131.662506
 21
98.575012
  0
LINE
  8
0
 62
     4
 10
-138.912506
 20
97.875000
 11
-129.912537
 21
97.875000
  0
LINE
  8
0
 62
     4
 10
-151.912506
 20
93.875000
 11
-149.912506
 21
93.875000
  0
LINE
  8
0
 62
     4
 10
-151.912506
 20
89.875000
 11
-136.912506
 21
89.875000
  0
LINE
  8
0
 62
     4
 10
-138.912506
 20
95.875000
 11
-128.912506
 21
95.875000
  0
LINE
  8
0
 62
     4
 10
-138.912506
 20
94.875000
 11
-128.912506
 21
94.875000
  0
LINE
  8
0
 62
     4
 10
-138.912506
 20
93.875000
 11
-128.912506
 21
93.875000
  0
LINE
  8
0
 62
     4
 10
-136.912506
 20
93.875000
 11
-136.912506
 21
89.875000
  0
LINE
  8
0
 62
     4
 10
-147.232513
 20
115.875000
 11
-147.232513
 21
125.875000
  0
LINE
  8
0
 62
     4
 10
-147.762543
 20
115.875000
 11
-146.062531
 21
115.875000
  0
LINE
  8
0
 62
     4
 10
-147.232513
 20
125.875000
 11
-146.592499
 21
125.875000
  0
LINE
  8
0
 62
     4
 10
-146.592499
 20
115.875000
 11
-146.592499
 21
125.875000
  0
LINE
  8
0
 62
     4
 10
-142.232513
 20
115.875000
 11
-142.232513
 21
125.875000
  0
LINE
  8
0
 62
     4
 10
-142.232513
 20
125.875000
 11
-141.592499
 21
125.875000
  0
LINE
  8
0
 62
     4
 10
-141.592499
 20
115.875000
 11
-141.592499
 21
125.875000
  0
LINE
  8
0
 62
     4
 10
-141.062531
 20
110.753845
 11
-141.062531
 21
115.875000
  0
LINE
  8
0
 62
     4
 10
-142.762543
 20
111.209351
 11
-142.762543
 21
115.875000
  0
LINE
  8
0
 62
     4
 10
-146.062531
 20
112.093567
 11
-146.062531
 21
115.875000
  0
LINE
  8
0
 62
     4
 10
-147.762543
 20
112.549103
 11
-147.762543
 21
115.875000
  0
LINE
  8
0
 62
     4
 10
-141.062531
 20
105.875031
 11
-141.062531
 21
109.200928
  0
LINE
  8
0
 62
     4
 10
-142.762543
 20
115.875000
 11
-141.062531
 21
115.875000
  0
LINE
  8
0
 62
     4
 10
-142.762543
 20
105.875031
 11
-142.762543
 21
109.656433
  0
LINE
  8
0
 62
     4
 10
-148.412506
 20
103.875031
 11
-140.412506
 21
103.875031
  0
LINE
  8
0
 62
     4
 10
-148.412506
 20
98.203735
 11
-140.412506
 21
98.203735
  0
LINE
  8
0
 62
     4
 10
-138.912506
 20
89.875000
 11
-138.912506
 21
105.875031
  0
LINE
  8
0
 62
     4
 10
-149.912506
 20
105.875031
 11
-138.912506
 21
105.875031
  0
LINE
  8
0
 62
     4
 10
-149.912506
 20
89.875000
 11
-149.912506
 21
105.875031
  0
LINE
  8
0
 62
     4
 10
-148.412506
 20
89.875000
 11
-148.412506
 21
105.875031
  0
LINE
  8
0
 62
     4
 10
-140.412506
 20
89.875000
 11
-140.412506
 21
105.875031
  0
LINE
  8
0
 62
     4
 10
-147.762543
 20
105.875031
 11
-147.762543
 21
110.996185
  0
LINE
  8
0
 62
     4
 10
-146.062531
 20
105.875031
 11
-146.062531
 21
110.540680
  0
LINE
  8
0
 62
     4
 10
-150.912308
 20
97.874870
 11
-151.912308
 21
95.874886
  0
LINE
  8
0
 62
     1
 10
-139.062469
 20
110.218010
 11
-149.762482
 21
113.085075
  0
LINE
  8
0
 62
     1
 10
-139.062454
 20
108.665070
 11
-149.762436
 21
111.532120
  0
LINE
  8
0
  6
CENTER
 62
     1
 10
-141.912506
 20
102.875031
 11
-141.912506
 21
128.875000
  0
LINE
  8
0
  6
CENTER
 62
     1
 10
-146.912506
 20
102.875031
 11
-146.912506
 21
128.875000
  0
LINE
  8
0
 62
     4
 10
-212.412506
 20
94.875092
 11
-243.412506
 21
94.875092
  0
LINE
  8
0
 62
     4
 10
-203.412506
 20
93.875092
 11
-204.412506
 21
93.875092
  0
LINE
  8
0
 62
     4
 10
-212.412506
 20
95.875092
 11
-243.412506
 21
95.875092
  0
LINE
  8
0
 62
     4
 10
-212.412506
 20
95.875000
 11
-212.412506
 21
94.875031
  0
LINE
  8
0
 62
     4
 10
-212.412369
 20
95.875031
 11
-213.412415
 21
97.875099
  0
LINE
  8
0
 62
     4
 10
-219.912506
 20
97.875000
 11
-219.912506
 21
95.875000
  0
LINE
  8
0
 62
     4
 10
-242.412018
 20
97.874947
 11
-243.412109
 21
95.874786
  0
LINE
  8
0
 62
     4
 10
-218.662506
 20
96.575104
 11
-213.162506
 21
96.575104
  0
LINE
  8
0
 62
     4
 10
-213.162506
 20
96.575012
 11
-213.162506
 21
95.875000
  0
LINE
  8
0
 62
     4
 10
-218.662506
 20
96.575012
 11
-218.662506
 21
95.875000
  0
LINE
  8
0
 62
     4
 10
-216.662567
 20
98.575104
 11
-215.162567
 21
98.575104
  0
LINE
  8
0
 62
     4
 10
-236.662567
 20
98.575104
 11
-235.162506
 21
98.575104
  0
LINE
  8
0
 62
     4
 10
-213.412689
 20
97.875092
 11
-213.642670
 21
97.875092
  0
LINE
  8
0
 62
     4
 10
-202.412506
 20
89.875092
 11
-212.412506
 21
89.875092
  0
LINE
  8
0
 10
-207.912537
 20
74.875031
 11
-207.912537
 21
74.874969
  0
LINE
  8
0
 62
     4
 10
-212.412567
 20
94.875092
 11
-205.412537
 21
94.875092
  0
LINE
  8
0
 62
     4
 10
-205.412537
 20
89.875000
 11
-205.412537
 21
95.375000
  0
LINE
  8
0
 62
     4
 10
-211.412567
 20
94.875000
 11
-211.412567
 21
96.875000
  0
LINE
  8
0
 62
     4
 10
-203.412506
 20
104.875092
 11
-204.412506
 21
104.875092
  0
LINE
  8
0
 62
     4
 10
-210.412506
 20
103.375092
 11
-211.412506
 21
103.375092
  0
LINE
  8
0
 62
     4
 10
-211.412567
 20
104.875000
 11
-211.412567
 21
103.375000
  0
LINE
  8
0
 62
     4
 10
-210.412567
 20
103.375000
 11
-210.412567
 21
96.875000
  0
LINE
  8
0
 62
     4
 10
-209.012512
 20
104.875000
 11
-209.012512
 21
94.875000
  0
LINE
  8
0
 62
     4
 10
-207.212524
 20
104.875000
 11
-207.212524
 21
94.875000
  0
LINE
  8
0
 62
     4
 10
-204.412537
 20
89.875000
 11
-204.412537
 21
97.203705
  0
LINE
  8
0
 62
     4
 10
-203.412537
 20
104.875000
 11
-203.412537
 21
102.875000
  0
LINE
  8
0
 62
     4
 10
-204.412537
 20
104.875000
 11
-204.412537
 21
103.375000
  0
LINE
  8
0
 62
     4
 10
-203.412491
 20
102.875015
 11
-204.412506
 21
97.203697
  0
LINE
  8
0
 62
     4
 10
-204.413025
 20
103.375008
 11
-205.413025
 21
97.703766
  0
LINE
  8
0
 62
     4
 10
-206.412537
 20
94.875000
 11
-206.412537
 21
95.375000
  0
LINE
  8
0
 62
     4
 10
-210.412506
 20
96.875092
 11
-211.412506
 21
96.875092
  0
LINE
  8
0
 62
     4
 10
-206.112518
 20
104.574989
 11
-206.412582
 21
104.875023
  0
LINE
  8
0
 62
     4
 10
-206.412567
 20
98.374931
 11
-206.112564
 21
98.674934
  0
LINE
  8
0
 62
     4
 10
-206.112518
 20
98.675018
 11
-206.112518
 21
104.574982
  0
LINE
  8
0
 62
     4
 10
-205.412537
 20
97.375000
 11
-205.412537
 21
97.703705
  0
LINE
  8
0
 62
     4
 10
-206.412537
 20
97.375000
 11
-206.412537
 21
104.875000
  0
LINE
  8
0
 62
     4
 10
-206.412506
 20
104.875092
 11
-211.412506
 21
104.875092
  0
LINE
  8
0
 62
     1
 10
-207.912537
 20
101.875000
 11
-207.912537
 21
127.875000
  0
LINE
  8
0
 62
     4
 10
-208.762512
 20
104.875000
 11
-208.762512
 21
108.870789
  0
LINE
  8
0
 62
     4
 10
-207.062500
 20
104.875000
 11
-207.062500
 21
109.326294
  0
LINE
  8
0
 62
     4
 10
-207.592529
 20
114.875000
 11
-207.592529
 21
124.875000
  0
LINE
  8
0
 62
     4
 10
-208.232513
 20
114.875000
 11
-208.232513
 21
124.875000
  0
LINE
  8
0
 62
     4
 10
-207.062500
 20
114.875092
 11
-208.762512
 21
114.875092
  0
LINE
  8
0
 62
     4
 10
-207.592529
 20
124.875092
 11
-208.232513
 21
124.875092
  0
LINE
  8
0
 62
     1
 10
-210.762390
 20
108.335037
 11
-205.062408
 21
109.862335
  0
LINE
  8
0
 62
     1
 10
-210.762390
 20
109.887596
 11
-205.062363
 21
111.414894
  0
LINE
  8
0
 62
     4
 10
-207.062500
 20
110.879211
 11
-207.062500
 21
114.875000
  0
LINE
  8
0
 62
     4
 10
-208.762512
 20
110.423706
 11
-208.762512
 21
114.875000
  0
LINE
  8
0
 62
     4
 10
-202.412506
 20
92.875000
 11
-202.412506
 21
75.875000
  0
LINE
  8
0
 62
     4
 10
-212.412506
 20
94.875031
 11
-212.412506
 21
74.875031
  0
LINE
  8
0
 62
     4
 10
-243.412506
 20
95.875000
 11
-243.412506
 21
74.875000
  0
LINE
  8
0
 62
     4
 10
-203.412506
 20
74.875092
 11
-208.412506
 21
74.875092
  0
LINE
  8
0
 62
     4
 10
-218.182465
 20
97.875092
 11
-242.412079
 21
97.875092
  0
LINE
  8
0
 62
     4
 10
-71.932983
 20
94.875000
 11
-40.932983
 21
94.875000
  0
LINE
  8
0
 62
     4
 10
-80.932983
 20
93.875031
 11
-71.932983
 21
93.875031
  0
LINE
  8
0
 62
     4
 10
-71.932983
 20
95.875000
 11
-40.932983
 21
95.875000
  0
LINE
  8
0
 62
     4
 10
-71.932983
 20
95.875000
 11
-71.932983
 21
94.875031
  0
LINE
  8
0
 62
     4
 10
-71.932838
 20
95.874901
 11
-70.932800
 21
97.874977
  0
LINE
  8
0
 62
     4
 10
-41.933262
 20
97.875008
 11
-40.933170
 21
95.874847
  0
LINE
  8
0
 62
     4
 10
-51.182922
 20
96.575012
 11
-45.682953
 21
96.575012
  0
LINE
  8
0
 62
     4
 10
-45.682953
 20
96.575012
 11
-45.682953
 21
95.875000
  0
LINE
  8
0
 62
     4
 10
-51.182922
 20
96.575012
 11
-51.182922
 21
95.875000
  0
LINE
  8
0
 62
     4
 10
-49.182953
 20
98.575043
 11
-47.682983
 21
98.575043
  0
LINE
  8
0
 62
     4
 10
-69.182953
 20
98.575043
 11
-67.682922
 21
98.575043
  0
LINE
  8
0
 62
     4
 10
-70.932831
 20
97.875000
 11
-50.702850
 21
97.875000
  0
LINE
  8
0
 62
     4
 10
-78.932953
 20
93.875031
 11
-78.932953
 21
95.375000
  0
LINE
  8
0
 62
     4
 10
-72.932953
 20
93.875031
 11
-72.932953
 21
96.875000
  0
LINE
  8
0
 62
     4
 10
-80.932983
 20
104.875000
 11
-79.932983
 21
104.875000
  0
LINE
  8
0
 62
     4
 10
-73.932983
 20
103.375000
 11
-72.932983
 21
103.375000
  0
LINE
  8
0
 62
     4
 10
-72.932953
 20
104.875000
 11
-72.932953
 21
103.375000
  0
LINE
  8
0
 62
     4
 10
-73.932953
 20
103.375000
 11
-73.932953
 21
96.875000
  0
LINE
  8
0
 62
     4
 10
-75.332977
 20
104.875000
 11
-75.332977
 21
93.875031
  0
LINE
  8
0
 62
     4
 10
-77.132965
 20
104.875000
 11
-77.132965
 21
93.875031
  0
LINE
  8
0
 62
     4
 10
-79.932953
 20
93.875031
 11
-79.932953
 21
97.203705
  0
LINE
  8
0
 62
     4
 10
-80.932953
 20
104.875000
 11
-80.932953
 21
102.875000
  0
LINE
  8
0
 62
     4
 10
-79.932953
 20
104.875000
 11
-79.932953
 21
103.375000
  0
LINE
  8
0
 62
     4
 10
-80.932861
 20
102.874992
 11
-79.932854
 21
97.203720
  0
LINE
  8
0
 62
     4
 10
-79.932961
 20
103.375038
 11
-78.932961
 21
97.703781
  0
LINE
  8
0
 62
     4
 10
-77.932953
 20
93.875031
 11
-77.932953
 21
94.875000
  0
LINE
  8
0
 62
     4
 10
-73.932983
 20
96.875000
 11
-72.932983
 21
96.875000
  0
LINE
  8
0
 62
     4
 10
-78.232796
 20
104.574829
 11
-77.932793
 21
104.874809
  0
LINE
  8
0
 62
     4
 10
-77.932983
 20
98.374863
 11
-78.232994
 21
98.674873
  0
LINE
  8
0
 62
     4
 10
-78.232971
 20
98.675018
 11
-78.232971
 21
104.574982
  0
LINE
  8
0
 62
     4
 10
-78.932953
 20
97.375000
 11
-78.932953
 21
97.703705
  0
LINE
  8
0
 62
     4
 10
-77.932953
 20
97.375000
 11
-77.932953
 21
104.875000
  0
LINE
  8
0
 62
     4
 10
-77.932983
 20
104.875000
 11
-72.932983
 21
104.875000
  0
LINE
  8
0
 62
     1
 10
-76.432953
 20
101.875000
 11
-76.432953
 21
127.875000
  0
LINE
  8
0
 62
     4
 10
-75.582977
 20
104.875000
 11
-75.582977
 21
108.870789
  0
LINE
  8
0
 62
     4
 10
-77.282990
 20
104.875000
 11
-77.282990
 21
109.326294
  0
LINE
  8
0
 62
     4
 10
-76.752960
 20
114.875000
 11
-76.752960
 21
124.875000
  0
LINE
  8
0
 62
     4
 10
-76.112976
 20
114.875000
 11
-76.112976
 21
124.875000
  0
LINE
  8
0
 62
     4
 10
-77.282990
 20
114.875000
 11
-75.582977
 21
114.875000
  0
LINE
  8
0
 62
     4
 10
-76.752960
 20
124.875000
 11
-76.112976
 21
124.875000
  0
LINE
  8
0
 62
     1
 10
-73.583076
 20
108.334602
 11
-79.283096
 21
109.861916
  0
LINE
  8
0
 62
     1
 10
-73.583153
 20
109.887421
 11
-79.283142
 21
111.414719
  0
LINE
  8
0
 62
     4
 10
-77.282990
 20
110.879211
 11
-77.282990
 21
114.875000
  0
LINE
  8
0
 62
     4
 10
-75.582977
 20
110.423706
 11
-75.582977
 21
114.875000
  0
LINE
  8
0
 62
     4
 10
-81.932983
 20
92.875000
 11
-81.932983
 21
75.875000
  0
LINE
  8
0
 62
     4
 10
-71.932983
 20
94.875031
 11
-71.932983
 21
74.875031
  0
LINE
  8
0
 62
     4
 10
-40.932983
 20
95.875000
 11
-40.932983
 21
74.875000
  0
LINE
  8
0
 62
     4
 10
-46.163086
 20
97.875000
 11
-41.933380
 21
97.875000
  0
LINE
  8
0
 62
     4
 10
-80.932983
 20
74.875000
 11
-75.932983
 21
74.875000
  0
LINE
  8
0
 62
     4
 10
-52.432953
 20
97.875000
 11
-52.432953
 21
95.875000
  0
LINE
  8
0
 62
     4
 10
-44.432953
 20
97.875000
 11
-44.432953
 21
95.875000
  0
LINE
  8
0
  6
CENTER
 62
     2
 10
-140.412537
 20
133.151550
 11
-140.412537
 21
182.870819
  0
LINE
  8
0
 62
     4
 10
-128.912506
 20
166.388336
 11
-132.412506
 21
166.388336
  0
LINE
  8
0
 62
     4
 10
-128.912506
 20
172.388336
 11
-132.412506
 21
172.388336
  0
LINE
  8
0
 62
     4
 10
-131.324295
 20
170.477386
 11
-133.380035
 21
168.421661
  0
LINE
  8
0
 62
     4
 10
-131.251495
 20
168.227692
 11
-133.443237
 21
170.419418
  0
LINE
  8
0
 62
     4
 10
-128.912506
 20
176.888336
 11
-151.912506
 21
176.888336
  0
LINE
  8
0
 62
     4
 10
-129.912506
 20
175.888336
 11
-150.912506
 21
175.888336
  0
LINE
  8
0
 62
     4
 10
-128.912537
 20
136.888245
 11
-128.912537
 21
176.888245
  0
LINE
  8
0
 62
     4
 10
-129.912537
 20
146.888245
 11
-129.912537
 21
166.388245
  0
LINE
  8
0
 62
     4
 10
-128.912247
 20
176.887985
 11
-129.912216
 21
175.888000
  0
LINE
  8
0
 62
     4
 10
-151.912552
 20
176.888138
 11
-150.912537
 21
175.888123
  0
LINE
  8
0
 62
     4
 10
-128.912567
 20
145.888168
 11
-129.912521
 21
146.888153
  0
LINE
  8
0
 62
     4
 10
-129.912537
 20
172.388245
 11
-129.912537
 21
175.888245
  0
LINE
  8
0
 62
     4
 10
-148.412506
 20
152.388306
 11
-151.912506
 21
152.388306
  0
LINE
  8
0
 62
     4
 10
-147.324188
 20
150.477264
 11
-149.379913
 21
148.421539
  0
LINE
  8
0
 62
     4
 10
-147.251648
 20
148.227600
 11
-149.443359
 21
150.419312
  0
LINE
  8
0
 62
     4
 10
-128.912506
 20
145.888306
 11
-151.912506
 21
145.888306
  0
LINE
  8
0
 62
     4
 10
-129.912506
 20
146.888306
 11
-145.412506
 21
146.888306
  0
LINE
  8
0
 62
     4
 10
-151.912537
 20
176.888245
 11
-151.912537
 21
136.888245
  0
LINE
  8
0
 62
     4
 10
-150.912537
 20
175.888245
 11
-150.912537
 21
152.388245
  0
LINE
  8
0
 62
     4
 10
-145.412537
 20
149.388245
 11
-145.412537
 21
145.888245
  0
LINE
  8
0
 62
     4
 10
-129.912506
 20
135.888306
 11
-150.912506
 21
135.888306
  0
LINE
  8
0
 62
     4
 10
-140.212494
 20
138.888336
 11
-148.612518
 21
138.888336
  0
LINE
  8
0
 62
     4
 10
-138.712494
 20
142.488342
 11
-140.412506
 21
142.488342
  0
LINE
  8
0
 62
     4
 10
-138.712494
 20
140.488342
 11
-140.212494
 21
140.488342
  0
LINE
  8
0
 62
     4
 10
-148.612549
 20
138.888275
 11
-148.612549
 21
140.488281
  0
LINE
  8
0
 62
     4
 10
-140.212524
 20
138.888275
 11
-140.212524
 21
140.488281
  0
LINE
  8
0
 62
     4
 10
-150.112549
 20
140.488281
 11
-150.112549
 21
142.488281
  0
LINE
  8
0
 62
     4
 10
-138.712524
 20
140.488281
 11
-138.712524
 21
142.488281
  0
LINE
  8
0
 62
     4
 10
-140.212524
 20
142.488281
 11
-140.212524
 21
144.888275
  0
LINE
  8
0
 62
     4
 10
-148.612549
 20
142.488281
 11
-148.612549
 21
144.888275
  0
LINE
  8
0
 62
     4
 10
-148.612518
 20
140.488342
 11
-150.112518
 21
140.488342
  0
LINE
  8
0
 62
     4
 10
-148.412506
 20
142.488342
 11
-150.112518
 21
142.488342
  0
LINE
  8
0
 62
     4
 10
-138.912506
 20
140.688324
 11
-140.412506
 21
140.688324
  0
LINE
  8
0
 62
     4
 10
-140.412506
 20
137.888336
 11
-148.412506
 21
137.888336
  0
LINE
  8
0
 62
     4
 10
-138.912537
 20
140.688263
 11
-138.912537
 21
142.488281
  0
LINE
  8
0
 62
     4
 10
-149.912537
 20
140.688263
 11
-149.912537
 21
142.488281
  0
LINE
  8
0
 62
     4
 10
-140.411728
 20
139.887527
 11
-140.711700
 21
139.587555
  0
LINE
  8
0
 62
     4
 10
-148.412613
 20
139.888077
 11
-148.112625
 21
139.588089
  0
LINE
  8
0
 62
     4
 10
-140.412537
 20
142.488281
 11
-140.412537
 21
144.888275
  0
LINE
  8
0
 62
     4
 10
-148.412537
 20
142.488281
 11
-148.412537
 21
144.888275
  0
LINE
  8
0
 62
     4
 10
-148.412506
 20
140.688324
 11
-149.912506
 21
140.688324
  0
LINE
  8
0
 62
     4
 10
-140.962494
 20
142.338318
 11
-142.862518
 21
142.338318
  0
LINE
  8
0
 62
     4
 10
-140.962524
 20
140.238281
 11
-140.962524
 21
142.338257
  0
LINE
  8
0
 62
     4
 10
-142.862549
 20
140.238281
 11
-142.862549
 21
142.338257
  0
LINE
  8
0
 62
     4
 10
-143.462524
 20
140.238281
 11
-143.462524
 21
142.338257
  0
LINE
  8
0
 62
     4
 10
-145.362549
 20
140.238281
 11
-145.362549
 21
142.338257
  0
LINE
  8
0
 62
     4
 10
-147.862549
 20
140.238281
 11
-147.862549
 21
142.338257
  0
LINE
  8
0
 62
     4
 10
-145.962524
 20
140.238281
 11
-145.962524
 21
142.338257
  0
LINE
  8
0
 62
     4
 10
-143.462494
 20
142.338318
 11
-145.362518
 21
142.338318
  0
LINE
  8
0
 62
     4
 10
-145.962494
 20
142.338318
 11
-147.862518
 21
142.338318
  0
LINE
  8
0
 62
     4
 10
-140.212494
 20
139.888336
 11
-148.612518
 21
139.888336
  0
LINE
  8
0
 62
     4
 10
-140.712494
 20
139.588318
 11
-148.112518
 21
139.588318
  0
LINE
  8
0
 62
     4
 10
-140.412506
 20
136.888336
 11
-148.412506
 21
136.888336
  0
LINE
  8
0
 62
     4
 10
-148.412537
 20
136.888275
 11
-148.412537
 21
140.688263
  0
LINE
  8
0
 62
     4
 10
-140.412537
 20
136.888275
 11
-140.412537
 21
140.688263
  0
LINE
  8
0
 62
     4
 10
-140.962494
 20
140.238342
 11
-142.862518
 21
140.238342
  0
LINE
  8
0
 62
     4
 10
-143.462494
 20
140.238342
 11
-145.362518
 21
140.238342
  0
LINE
  8
0
 62
     4
 10
-145.962494
 20
140.238342
 11
-147.862518
 21
140.238342
  0
LINE
  8
0
 62
     4
 10
-136.912506
 20
144.888336
 11
-151.912506
 21
144.888336
  0
LINE
  8
0
 62
     4
 10
-136.912537
 20
135.888245
 11
-136.912537
 21
145.888245
  0
LINE
  8
0
 62
     4
 10
-150.912506
 20
51.914749
 11
-129.912506
 21
51.914749
  0
LINE
  8
0
 62
     4
 10
-151.912506
 20
50.914749
 11
-151.912506
 21
41.914749
  0
LINE
  8
0
 62
     4
 10
-128.912506
 20
50.914749
 11
-128.912506
 21
41.914749
  0
LINE
  8
0
 62
     4
 10
-148.612518
 20
-88.874985
 11
-140.212494
 21
-88.874985
  0
LINE
  8
0
 62
     4
 10
-150.112518
 20
-92.474991
 11
-148.412506
 21
-92.474991
  0
LINE
  8
0
 62
     4
 10
-150.112518
 20
-90.474991
 11
-148.612518
 21
-90.474991
  0
LINE
  8
0
 62
     4
 10
-140.212494
 20
-88.874985
 11
-140.212494
 21
-90.474991
  0
LINE
  8
0
 62
     4
 10
-148.612518
 20
-88.874985
 11
-148.612518
 21
-90.474991
  0
LINE
  8
0
 62
     4
 10
-138.712494
 20
-90.474991
 11
-138.712494
 21
-92.474991
  0
LINE
  8
0
 62
     4
 10
-150.112518
 20
-90.474991
 11
-150.112518
 21
-92.474991
  0
LINE
  8
0
 62
     4
 10
-148.612518
 20
-92.474991
 11
-148.612518
 21
-94.874985
  0
LINE
  8
0
 62
     4
 10
-140.212494
 20
-92.474991
 11
-140.212494
 21
-94.874985
  0
LINE
  8
0
 62
     4
 10
-140.212494
 20
-90.474991
 11
-138.712494
 21
-90.474991
  0
LINE
  8
0
 62
     4
 10
-140.412506
 20
-92.474991
 11
-138.712494
 21
-92.474991
  0
LINE
  8
0
 62
     4
 10
-149.912506
 20
-90.674973
 11
-148.412506
 21
-90.674973
  0
LINE
  8
0
 62
     4
 10
-148.412506
 20
-87.874985
 11
-140.412506
 21
-87.874985
  0
LINE
  8
0
 62
     4
 10
-149.912506
 20
-90.674973
 11
-149.912506
 21
-92.474991
  0
LINE
  8
0
 62
     4
 10
-138.912506
 20
-90.674973
 11
-138.912506
 21
-92.474991
  0
LINE
  8
0
 62
     4
 10
-148.412384
 20
-89.875160
 11
-148.112396
 21
-89.575157
  0
LINE
  8
0
 62
     4
 10
-140.412552
 20
-89.874962
 11
-140.712540
 21
-89.574966
  0
LINE
  8
0
 62
     4
 10
-148.412506
 20
-92.474991
 11
-148.412506
 21
-94.874985
  0
LINE
  8
0
 62
     4
 10
-140.412506
 20
-92.474991
 11
-140.412506
 21
-94.874985
  0
LINE
  8
0
 62
     4
 10
-140.412506
 20
-90.674973
 11
-138.912506
 21
-90.674973
  0
LINE
  8
0
 62
     4
 10
-147.862518
 20
-92.324966
 11
-145.962494
 21
-92.324966
  0
LINE
  8
0
 62
     4
 10
-147.862518
 20
-90.224991
 11
-147.862518
 21
-92.324966
  0
LINE
  8
0
 62
     4
 10
-145.962494
 20
-90.224991
 11
-145.962494
 21
-92.324966
  0
LINE
  8
0
 62
     4
 10
-145.362518
 20
-90.224991
 11
-145.362518
 21
-92.324966
  0
LINE
  8
0
 62
     4
 10
-143.462494
 20
-90.224991
 11
-143.462494
 21
-92.324966
  0
LINE
  8
0
 62
     4
 10
-140.962494
 20
-90.224991
 11
-140.962494
 21
-92.324966
  0
LINE
  8
0
 62
     4
 10
-142.862518
 20
-90.224991
 11
-142.862518
 21
-92.324966
  0
LINE
  8
0
 62
     4
 10
-145.362518
 20
-92.324966
 11
-143.462494
 21
-92.324966
  0
LINE
  8
0
 62
     4
 10
-142.862518
 20
-92.324966
 11
-140.962494
 21
-92.324966
  0
LINE
  8
0
 62
     4
 10
-148.612518
 20
-89.874985
 11
-140.212494
 21
-89.874985
  0
LINE
  8
0
 62
     4
 10
-148.112518
 20
-89.574966
 11
-140.712494
 21
-89.574966
  0
LINE
  8
0
 62
     4
 10
-148.412506
 20
-86.874985
 11
-140.412506
 21
-86.874985
  0
LINE
  8
0
 62
     4
 10
-140.412506
 20
-86.874985
 11
-140.412506
 21
-90.674973
  0
LINE
  8
0
 62
     4
 10
-148.412506
 20
-86.874985
 11
-148.412506
 21
-90.674973
  0
LINE
  8
0
 62
     4
 10
-147.862518
 20
-90.224991
 11
-145.962494
 21
-90.224991
  0
LINE
  8
0
 62
     4
 10
-145.362518
 20
-90.224991
 11
-143.462494
 21
-90.224991
  0
LINE
  8
0
 62
     4
 10
-142.862518
 20
-90.224991
 11
-140.962494
 21
-90.224991
  0
LINE
  8
0
 62
     4
 10
-148.612518
 20
-94.874985
 11
-140.212494
 21
-94.874985
  0
LINE
  8
0
 62
     4
 10
-151.912506
 20
-89.375000
 11
-151.912506
 21
-110.375000
  0
LINE
  8
0
 62
     4
 10
-128.912506
 20
-89.375000
 11
-128.912506
 21
-110.375000
  0
LINE
  8
0
 62
     4
 10
-151.912506
 20
-90.375000
 11
-148.612518
 21
-90.375000
  0
LINE
  8
0
 62
     4
 10
-151.912506
 20
-89.375000
 11
-148.612518
 21
-89.375000
  0
LINE
  8
0
 62
     4
 10
-129.912537
 20
-87.374992
 11
-128.912537
 21
-89.375000
  0
LINE
  8
0
 62
     4
 10
-151.162506
 20
-88.674988
 11
-148.412506
 21
-88.674988
  0
LINE
  8
0
 62
     4
 10
-151.162506
 20
-88.674988
 11
-151.162506
 21
-89.375000
  0
LINE
  8
0
 62
     4
 10
-150.912491
 20
-87.375000
 11
-150.682373
 21
-87.375000
  0
LINE
  8
0
 62
     4
 10
-133.162506
 20
-86.674988
 11
-131.662506
 21
-86.674988
  0
LINE
  8
0
 62
     4
 10
-140.412506
 20
-87.375000
 11
-129.912521
 21
-87.375000
  0
LINE
  8
0
 62
     4
 10
-151.912506
 20
-91.375000
 11
-150.112518
 21
-91.375000
  0
LINE
  8
0
 62
     4
 10
-151.912506
 20
-95.375000
 11
-136.912506
 21
-95.375000
  0
LINE
  8
0
 62
     4
 10
-140.212494
 20
-89.375000
 11
-128.912506
 21
-89.375000
  0
LINE
  8
0
 62
     4
 10
-140.212494
 20
-90.375000
 11
-128.912506
 21
-90.375000
  0
LINE
  8
0
 62
     4
 10
-138.712494
 20
-91.375000
 11
-128.912506
 21
-91.375000
  0
LINE
  8
0
 62
     4
 10
-136.912506
 20
-91.375000
 11
-136.912506
 21
-95.375000
  0
LINE
  8
0
 62
     4
 10
-150.912537
 20
-87.375008
 11
-151.912537
 21
-89.375023
  0
LINE
  8
0
 62
     4
 10
-147.662506
 20
-86.674988
 11
-149.162506
 21
-86.674988
  0
LINE
  8
0
 62
     4
 10
-242.479431
 20
-89.375000
 11
-242.479431
 21
-110.375000
  0
LINE
  8
0
 62
     4
 10
-202.479462
 20
-110.374962
 11
-207.479431
 21
-110.374962
  0
LINE
  8
0
 62
     4
 10
-211.479462
 20
-90.374954
 11
-242.479462
 21
-90.374954
  0
LINE
  8
0
 62
     4
 10
-211.479431
 20
-90.374985
 11
-211.479431
 21
-110.374985
  0
LINE
  8
0
 62
     4
 10
-202.479462
 20
-91.374939
 11
-211.479462
 21
-91.374939
  0
LINE
  8
0
 62
     4
 10
-211.479462
 20
-89.374954
 11
-242.479462
 21
-89.374954
  0
LINE
  8
0
 62
     4
 10
-211.479431
 20
-89.375000
 11
-211.479431
 21
-90.374985
  0
LINE
  8
0
 62
     4
 10
-211.479492
 20
-89.374977
 11
-212.479507
 21
-87.374931
  0
LINE
  8
0
 62
     4
 10
-241.478622
 20
-87.375153
 11
-242.478714
 21
-89.375298
  0
LINE
  8
0
 62
     4
 10
-217.729401
 20
-88.674942
 11
-212.229401
 21
-88.674942
  0
LINE
  8
0
 62
     4
 10
-215.729431
 20
-86.674927
 11
-214.229431
 21
-86.674927
  0
LINE
  8
0
 62
     4
 10
-235.729431
 20
-86.674927
 11
-234.229401
 21
-86.674927
  0
LINE
  8
0
 62
     4
 10
-241.479095
 20
-87.374954
 11
-217.249329
 21
-87.374954
  0
LINE
  8
0
 62
     4
 10
-201.479431
 20
-92.375000
 11
-201.479431
 21
-109.375000
  0
LINE
  8
0
 62
     4
 10
-211.729614
 20
-88.874924
 11
-199.979462
 21
-88.874924
  0
LINE
  8
0
 62
     4
 10
-201.479462
 20
-94.874931
 11
-198.479462
 21
-94.874931
  0
LINE
  8
0
 62
     4
 10
-190.479446
 20
-86.874939
 11
-190.479446
 21
-87.874939
  0
LINE
  8
0
 62
     4
 10
-191.979446
 20
-93.874939
 11
-191.979446
 21
-94.874939
  0
LINE
  8
0
 62
     4
 10
-190.479462
 20
-94.874931
 11
-191.979462
 21
-94.874931
  0
LINE
  8
0
 62
     4
 10
-191.979462
 20
-93.874931
 11
-198.479462
 21
-93.874931
  0
LINE
  8
0
 62
     4
 10
-190.479462
 20
-92.474899
 11
-201.479462
 21
-92.474899
  0
LINE
  8
0
 62
     4
 10
-190.479462
 20
-90.674911
 11
-202.379456
 21
-90.674911
  0
LINE
  8
0
 62
     4
 10
-209.479462
 20
-87.874924
 11
-198.150726
 21
-87.874924
  0
LINE
  8
0
 62
     4
 10
-190.479462
 20
-86.874939
 11
-192.479462
 21
-86.874939
  0
LINE
  8
0
 62
     4
 10
-190.479462
 20
-87.874924
 11
-191.979462
 21
-87.874924
  0
LINE
  8
0
 62
     4
 10
-192.479492
 20
-86.875023
 11
-198.150772
 21
-87.875038
  0
LINE
  8
0
 62
     4
 10
-191.979553
 20
-87.874596
 11
-197.650787
 21
-88.874596
  0
LINE
  8
0
 62
     4
 10
-202.379456
 20
-89.874924
 11
-199.979462
 21
-89.874924
  0
LINE
  8
0
 62
     4
 10
-198.479446
 20
-93.874939
 11
-198.479446
 21
-94.874939
  0
LINE
  8
0
 62
     4
 10
-190.779541
 20
-89.574944
 11
-190.479538
 21
-89.874947
  0
LINE
  8
0
 62
     4
 10
-196.979416
 20
-89.874901
 11
-196.679398
 21
-89.574890
  0
LINE
  8
0
 62
     4
 10
-196.679443
 20
-89.574905
 11
-190.779449
 21
-89.574905
  0
LINE
  8
0
 62
     4
 10
-197.979462
 20
-88.874924
 11
-197.650726
 21
-88.874924
  0
LINE
  8
0
 62
     4
 10
-197.979462
 20
-89.874924
 11
-190.479462
 21
-89.874924
  0
LINE
  8
0
 62
     4
 10
-190.479446
 20
-89.874939
 11
-190.479446
 21
-94.874939
  0
LINE
  8
0
 62
     4
 10
-190.479462
 20
-92.224899
 11
-186.483673
 21
-92.224899
  0
LINE
  8
0
 62
     4
 10
-190.479462
 20
-90.524887
 11
-186.028168
 21
-90.524887
  0
LINE
  8
0
 62
     4
 10
-180.479462
 20
-91.054916
 11
-170.479462
 21
-91.054916
  0
LINE
  8
0
 62
     4
 10
-180.479462
 20
-91.694901
 11
-170.479462
 21
-91.694901
  0
LINE
  8
0
 62
     4
 10
-180.479446
 20
-90.524933
 11
-180.479446
 21
-92.224945
  0
LINE
  8
0
 62
     4
 10
-170.479446
 20
-91.054962
 11
-170.479446
 21
-91.694946
  0
LINE
  8
0
 62
     4
 10
-184.475250
 20
-90.524887
 11
-180.479462
 21
-90.524887
  0
LINE
  8
0
 62
     4
 10
-184.930756
 20
-92.224899
 11
-180.479462
 21
-92.224899
  0
LINE
  8
0
 62
     4
 10
-212.709534
 20
-87.374954
 11
-212.479584
 21
-87.374954
  0
LINE
  8
0
 62
     4
 10
-217.729370
 20
-88.674988
 11
-217.729370
 21
-89.375000
  0
LINE
  8
0
 62
     4
 10
-212.229370
 20
-88.674988
 11
-212.229370
 21
-89.375000
  0
LINE
  8
0
 62
     4
 10
-218.979370
 20
-87.375000
 11
-218.979370
 21
-89.375000
  0
LINE
  8
0
  6
CENTER
 62
     1
 10
-193.479462
 20
-91.374924
 11
-167.479462
 21
-91.374924
  0
LINE
  8
0
 62
     1
 10
-187.019791
 20
-94.224823
 11
-185.492477
 21
-88.524773
  0
LINE
  8
0
 62
     1
 10
-185.466904
 20
-94.224831
 11
-183.939621
 21
-88.524841
  0
LINE
  8
0
 62
     4
 10
-200.679474
 20
-92.475067
 11
-200.679474
 21
-93.975067
  0
LINE
  8
0
 62
     4
 10
-200.679443
 20
-93.974930
 11
-201.479462
 21
-93.974930
  0
LINE
  8
0
 62
     4
 10
-209.479431
 20
-87.874969
 11
-209.479431
 21
-88.874969
  0
LINE
  8
0
 62
     4
 10
-202.379425
 20
-89.874969
 11
-202.379425
 21
-91.374985
  0
LINE
  8
0
 62
     4
 10
-201.479462
 20
-95.374962
 11
-211.479462
 21
-95.374962
  0
LINE
  8
0
 62
     4
 10
-39.932983
 20
-89.375000
 11
-39.932983
 21
-110.375000
  0
LINE
  8
0
 62
     4
 10
-79.932983
 20
-110.375000
 11
-74.932983
 21
-110.375000
  0
LINE
  8
0
 62
     4
 10
-70.932983
 20
-90.375000
 11
-39.932983
 21
-90.375000
  0
LINE
  8
0
 62
     4
 10
-70.932983
 20
-90.374985
 11
-70.932983
 21
-110.374985
  0
LINE
  8
0
 62
     4
 10
-79.932983
 20
-91.374985
 11
-70.932983
 21
-91.374985
  0
LINE
  8
0
 62
     4
 10
-70.932983
 20
-89.375000
 11
-39.932983
 21
-89.375000
  0
LINE
  8
0
 62
     4
 10
-70.932983
 20
-89.375000
 11
-70.932983
 21
-90.374985
  0
LINE
  8
0
 62
     4
 10
-70.932915
 20
-89.375008
 11
-69.932892
 21
-87.374969
  0
LINE
  8
0
 62
     4
 10
-43.432983
 20
-87.375000
 11
-43.432983
 21
-89.375000
  0
LINE
  8
0
 62
     4
 10
-40.933525
 20
-87.375130
 11
-39.933449
 21
-89.375275
  0
LINE
  8
0
 62
     4
 10
-50.182983
 20
-88.674988
 11
-44.682983
 21
-88.674988
  0
LINE
  8
0
 62
     4
 10
-48.183014
 20
-86.674973
 11
-46.683014
 21
-86.674973
  0
LINE
  8
0
 62
     4
 10
-68.183014
 20
-86.674973
 11
-66.682983
 21
-86.674973
  0
LINE
  8
0
 62
     4
 10
-40.933350
 20
-87.375000
 11
-45.163147
 21
-87.375000
  0
LINE
  8
0
 62
     4
 10
-80.932983
 20
-92.375000
 11
-80.932983
 21
-109.375000
  0
LINE
  8
0
 62
     4
 10
-70.682846
 20
-88.874969
 11
-82.432983
 21
-88.874969
  0
LINE
  8
0
 62
     4
 10
-80.932983
 20
-94.874969
 11
-83.932983
 21
-94.874969
  0
LINE
  8
0
 62
     4
 10
-91.932983
 20
-86.874939
 11
-91.932983
 21
-87.874939
  0
LINE
  8
0
 62
     4
 10
-90.432983
 20
-93.874939
 11
-90.432983
 21
-94.874939
  0
LINE
  8
0
 62
     4
 10
-91.932983
 20
-94.874969
 11
-90.432983
 21
-94.874969
  0
LINE
  8
0
 62
     4
 10
-90.432983
 20
-93.874969
 11
-83.932983
 21
-93.874969
  0
LINE
  8
0
 62
     4
 10
-91.932983
 20
-92.474945
 11
-80.932983
 21
-92.474945
  0
LINE
  8
0
 62
     4
 10
-91.932983
 20
-90.674957
 11
-80.032990
 21
-90.674957
  0
LINE
  8
0
 62
     4
 10
-72.932983
 20
-87.874969
 11
-84.261719
 21
-87.874969
  0
LINE
  8
0
 62
     4
 10
-91.932983
 20
-86.874985
 11
-89.932983
 21
-86.874985
  0
LINE
  8
0
 62
     4
 10
-91.932983
 20
-87.874969
 11
-90.432983
 21
-87.874969
  0
LINE
  8
0
 62
     4
 10
-89.932991
 20
-86.875061
 11
-84.261726
 21
-87.875076
  0
LINE
  8
0
 62
     4
 10
-90.432938
 20
-87.874672
 11
-84.761711
 21
-88.874657
  0
LINE
  8
0
 62
     4
 10
-80.032990
 20
-89.874969
 11
-82.432983
 21
-89.874969
  0
LINE
  8
0
 62
     4
 10
-83.932983
 20
-93.874939
 11
-83.932983
 21
-94.874939
  0
LINE
  8
0
 62
     4
 10
-91.632935
 20
-89.574966
 11
-91.932922
 21
-89.874962
  0
LINE
  8
0
 62
     4
 10
-85.432968
 20
-89.874985
 11
-85.732994
 21
-89.574974
  0
LINE
  8
0
 62
     4
 10
-85.733002
 20
-89.574951
 11
-91.632996
 21
-89.574951
  0
LINE
  8
0
 62
     4
 10
-84.432983
 20
-88.874969
 11
-84.761719
 21
-88.874969
  0
LINE
  8
0
 62
     4
 10
-84.432983
 20
-89.874969
 11
-91.932983
 21
-89.874969
  0
LINE
  8
0
 62
     4
 10
-91.932983
 20
-89.874939
 11
-91.932983
 21
-94.874939
  0
LINE
  8
0
 62
     4
 10
-91.932983
 20
-92.224945
 11
-95.928772
 21
-92.224945
  0
LINE
  8
0
 62
     4
 10
-91.932983
 20
-90.524933
 11
-96.384277
 21
-90.524933
  0
LINE
  8
0
 62
     4
 10
-101.932983
 20
-91.054962
 11
-111.932983
 21
-91.054962
  0
LINE
  8
0
 62
     4
 10
-101.932983
 20
-91.694946
 11
-111.932983
 21
-91.694946
  0
LINE
  8
0
 62
     4
 10
-101.932983
 20
-90.524933
 11
-101.932983
 21
-92.224945
  0
LINE
  8
0
 62
     4
 10
-106.932983
 20
-91.054962
 11
-106.932983
 21
-91.694946
  0
LINE
  8
0
 62
     4
 10
-97.937195
 20
-90.524933
 11
-101.932983
 21
-90.524933
  0
LINE
  8
0
 62
     4
 10
-97.481689
 20
-92.224945
 11
-101.932983
 21
-92.224945
  0
LINE
  8
0
 62
     4
 10
-49.702881
 20
-87.375000
 11
-69.932861
 21
-87.375000
  0
LINE
  8
0
 62
     4
 10
-50.182983
 20
-88.674988
 11
-50.182983
 21
-89.375000
  0
LINE
  8
0
 62
     4
 10
-44.682983
 20
-88.674988
 11
-44.682983
 21
-89.375000
  0
LINE
  8
0
 62
     4
 10
-51.432983
 20
-87.375000
 11
-51.432983
 21
-89.375000
  0
LINE
  8
0
  6
CENTER
 62
     1
 10
-88.932983
 20
-91.374969
 11
-114.932983
 21
-91.374969
  0
LINE
  8
0
 62
     1
 10
-95.392570
 20
-94.224792
 11
-96.919899
 21
-88.524742
  0
LINE
  8
0
 62
     1
 10
-96.945549
 20
-94.224854
 11
-98.472847
 21
-88.524849
  0
LINE
  8
0
 62
     4
 10
-81.732925
 20
-92.475052
 11
-81.732925
 21
-93.975067
  0
LINE
  8
0
 62
     4
 10
-81.733002
 20
-93.974960
 11
-80.932983
 21
-93.974960
  0
LINE
  8
0
 62
     4
 10
-72.932983
 20
-87.874969
 11
-72.932983
 21
-88.874969
  0
LINE
  8
0
 62
     4
 10
-80.032990
 20
-89.874969
 11
-80.032990
 21
-91.374985
  0
LINE
  8
0
 62
     4
 10
-151.912506
 20
-46.361694
 11
-151.912506
 21
-6.361694
  0
LINE
  8
0
 62
     4
 10
-128.912476
 20
-6.361664
 11
-151.912476
 21
-6.361664
  0
LINE
  8
0
 62
     4
 10
-128.912506
 20
-46.361694
 11
-128.912506
 21
-6.361694
  0
LINE
  8
0
  6
CENTER
 62
     2
 10
-140.412491
 20
-50.135223
 11
-140.412491
 21
-2.843750
  0
LINE
  8
0
 62
     4
 10
-148.412476
 20
-30.861664
 11
-151.912476
 21
-30.861664
  0
LINE
  8
0
 62
     4
 10
-128.912476
 20
-16.861664
 11
-132.412476
 21
-16.861664
  0
LINE
  8
0
 62
     4
 10
-128.912476
 20
-10.861664
 11
-132.412476
 21
-10.861664
  0
LINE
  8
0
 62
     4
 10
-131.324020
 20
-12.772979
 11
-133.379745
 21
-14.828710
  0
LINE
  8
0
 62
     4
 10
-131.251724
 20
-15.022393
 11
-133.443436
 21
-12.830682
  0
LINE
  8
0
 62
     4
 10
-147.324051
 20
-32.772888
 11
-149.379761
 21
-34.828606
  0
LINE
  8
0
 62
     4
 10
-147.251724
 20
-35.022442
 11
-149.443451
 21
-32.830708
  0
LINE
  8
0
 62
     4
 10
-128.912476
 20
-6.361664
 11
-151.912476
 21
-6.361664
  0
LINE
  8
0
 62
     4
 10
-129.912476
 20
-7.361664
 11
-150.912476
 21
-7.361664
  0
LINE
  8
0
 62
     4
 10
-128.912476
 20
-37.361664
 11
-151.912476
 21
-37.361664
  0
LINE
  8
0
 62
     4
 10
-129.912476
 20
-36.361664
 11
-145.412476
 21
-36.361664
  0
LINE
  8
0
 62
     4
 10
-150.912506
 20
-7.361694
 11
-150.912506
 21
-30.861694
  0
LINE
  8
0
 62
     4
 10
-129.912506
 20
-36.361694
 11
-129.912506
 21
-16.861694
  0
LINE
  8
0
 62
     4
 10
-128.912384
 20
-6.361808
 11
-129.912384
 21
-7.361809
  0
LINE
  8
0
 62
     4
 10
-151.912476
 20
-6.361706
 11
-150.912476
 21
-7.361707
  0
LINE
  8
0
 62
     4
 10
-128.912521
 20
-37.361660
 11
-129.912521
 21
-36.361645
  0
LINE
  8
0
 62
     4
 10
-145.412491
 20
-33.861694
 11
-145.412491
 21
-37.361694
  0
LINE
  8
0
 62
     4
 10
-129.912506
 20
-10.861694
 11
-129.912506
 21
-7.361694
  0
LINE
  8
0
 62
     4
 10
-129.912476
 20
-47.361664
 11
-138.912460
 21
-47.361664
  0
LINE
  8
0
 62
     4
 10
-136.912476
 20
-37.861633
 11
-151.912476
 21
-37.861633
  0
LINE
  8
0
 62
     4
 10
-136.912491
 20
-47.361694
 11
-136.912491
 21
-37.361694
  0
LINE
  8
0
 62
     4
 10
-137.412430
 20
-46.961670
 11
-140.412415
 21
-46.961670
  0
LINE
  8
0
 62
     4
 10
-140.412445
 20
-56.361664
 11
-148.412445
 21
-56.361664
  0
LINE
  8
0
 62
     4
 10
-140.412445
 20
-50.690369
 11
-148.412445
 21
-50.690369
  0
LINE
  8
0
 62
     4
 10
-140.412415
 20
-39.361664
 11
-148.412415
 21
-39.361664
  0
LINE
  8
0
 62
     4
 10
-148.612488
 20
-37.861694
 11
-148.612488
 21
-41.361694
  0
LINE
  8
0
 62
     4
 10
-140.212448
 20
-37.861694
 11
-140.212448
 21
-41.361694
  0
LINE
  8
0
 62
     4
 10
-140.212402
 20
-41.361664
 11
-140.412415
 21
-41.361664
  0
LINE
  8
0
 62
     4
 10
-140.212402
 20
-42.361664
 11
-140.412415
 21
-42.361664
  0
LINE
  8
0
 62
     4
 10
-148.612488
 20
-42.361694
 11
-148.612488
 21
-46.961700
  0
LINE
  8
0
 62
     4
 10
-140.212448
 20
-42.361694
 11
-140.212448
 21
-46.961670
  0
LINE
  8
0
 62
     4
 10
-148.412415
 20
-46.961670
 11
-151.412415
 21
-46.961670
  0
LINE
  8
0
 62
     4
 10
-148.412415
 20
-42.361664
 11
-148.612427
 21
-42.361664
  0
LINE
  8
0
 62
     4
 10
-148.412415
 20
-41.361664
 11
-148.612427
 21
-41.361664
  0
LINE
  8
0
 62
     4
 10
-137.412460
 20
-37.861694
 11
-137.412460
 21
-47.361664
  0
LINE
  8
0
 62
     4
 10
-151.412476
 20
-37.861694
 11
-151.412476
 21
-47.361694
  0
LINE
  8
0
 62
     4
 10
-149.912476
 20
-46.961700
 11
-149.912476
 21
-58.361694
  0
LINE
  8
0
 62
     4
 10
-138.912445
 20
-58.361664
 11
-149.912445
 21
-58.361664
  0
LINE
  8
0
 62
     4
 10
-138.912460
 20
-46.961670
 11
-138.912460
 21
-58.361694
  0
LINE
  8
0
 62
     4
 10
-140.412460
 20
-39.361694
 11
-140.412460
 21
-58.361694
  0
LINE
  8
0
 62
     4
 10
-148.412460
 20
-39.361694
 11
-148.412460
 21
-58.361694
  0
LINE
  8
0
 62
     4
 10
-141.062454
 20
-58.361694
 11
-141.062454
 21
-63.482841
  0
LINE
  8
0
 62
     4
 10
-142.762466
 20
-58.361694
 11
-142.762466
 21
-63.027344
  0
LINE
  8
0
 62
     4
 10
-141.592453
 20
-68.361687
 11
-141.592453
 21
-78.361679
  0
LINE
  8
0
 62
     4
 10
-141.062439
 20
-68.361656
 11
-142.762451
 21
-68.361656
  0
LINE
  8
0
 62
     4
 10
-141.592438
 20
-78.361664
 11
-142.232452
 21
-78.361664
  0
LINE
  8
0
 62
     4
 10
-142.232468
 20
-68.361687
 11
-142.232468
 21
-78.361679
  0
LINE
  8
0
 62
     4
 10
-146.592484
 20
-68.361687
 11
-146.592484
 21
-78.361694
  0
LINE
  8
0
 62
     4
 10
-146.592468
 20
-78.361664
 11
-147.232452
 21
-78.361664
  0
LINE
  8
0
 62
     4
 10
-147.232468
 20
-68.361687
 11
-147.232468
 21
-78.361694
  0
LINE
  8
0
 62
     4
 10
-146.062485
 20
-58.361694
 11
-146.062485
 21
-62.143127
  0
LINE
  8
0
 62
     4
 10
-146.062469
 20
-68.361656
 11
-147.762451
 21
-68.361656
  0
LINE
  8
0
 62
     4
 10
-147.762466
 20
-58.361694
 11
-147.762466
 21
-61.687622
  0
LINE
  8
0
 62
     1
 10
-149.762451
 20
-61.151802
 11
-139.062454
 21
-64.018852
  0
LINE
  8
0
 62
     1
 10
-149.762375
 20
-62.704739
 11
-139.062378
 21
-65.571793
  0
LINE
  8
0
 62
     4
 10
-141.062454
 20
-65.035759
 11
-141.062454
 21
-68.361687
  0
LINE
  8
0
 62
     4
 10
-142.762466
 20
-64.580254
 11
-142.762466
 21
-68.361687
  0
LINE
  8
0
 62
     4
 10
-146.062485
 20
-63.696037
 11
-146.062485
 21
-68.361687
  0
LINE
  8
0
 62
     4
 10
-147.762466
 20
-63.240540
 11
-147.762466
 21
-68.361687
  0
LINE
  8
0
 62
     4
 10
-151.412476
 20
-47.361694
 11
-149.912476
 21
-47.361694
  0
LINE
  8
0
 62
     4
 10
-147.762466
 20
-139.786621
 11
-147.762466
 21
-134.665436
  0
LINE
  8
0
 62
     4
 10
-146.062454
 20
-139.786621
 11
-146.062454
 21
-135.120941
  0
LINE
  8
0
 62
     4
 10
-147.232468
 20
-129.786621
 11
-147.232468
 21
-119.786613
  0
LINE
  8
0
 62
     4
 10
-147.762497
 20
-129.786591
 11
-146.062485
 21
-129.786591
  0
LINE
  8
0
 62
     4
 10
-147.232498
 20
-119.786598
 11
-146.592484
 21
-119.786598
  0
LINE
  8
0
 62
     4
 10
-146.592453
 20
-129.786621
 11
-146.592453
 21
-119.786613
  0
LINE
  8
0
 62
     4
 10
-142.232437
 20
-129.786591
 11
-142.232437
 21
-119.786598
  0
LINE
  8
0
 62
     4
 10
-142.232468
 20
-119.786598
 11
-141.592484
 21
-119.786598
  0
LINE
  8
0
 62
     4
 10
-141.592453
 20
-129.786591
 11
-141.592453
 21
-119.786598
  0
LINE
  8
0
 62
     4
 10
-142.762436
 20
-139.786591
 11
-142.762436
 21
-136.005157
  0
LINE
  8
0
 62
     4
 10
-142.762466
 20
-129.786591
 11
-141.062485
 21
-129.786591
  0
LINE
  8
0
 62
     4
 10
-141.062454
 20
-139.786591
 11
-141.062454
 21
-136.460693
  0
LINE
  8
0
 62
     1
 10
-139.062515
 20
-136.996536
 11
-149.762512
 21
-134.129471
  0
LINE
  8
0
 62
     1
 10
-139.062561
 20
-135.443634
 11
-149.762543
 21
-132.576584
  0
LINE
  8
0
 62
     4
 10
-147.762466
 20
-133.112518
 11
-147.762466
 21
-129.786621
  0
LINE
  8
0
 62
     4
 10
-146.062454
 20
-133.568024
 11
-146.062454
 21
-129.786621
  0
LINE
  8
0
 62
     4
 10
-142.762436
 20
-134.452240
 11
-142.762436
 21
-129.786591
  0
LINE
  8
0
 62
     4
 10
-141.062454
 20
-134.907776
 11
-141.062454
 21
-129.786591
  0
LINE
  8
0
 62
     4
 10
-150.912506
 20
-150.786591
 11
-129.912506
 21
-150.786591
  0
LINE
  8
0
 62
     4
 10
-151.912506
 20
-151.786591
 11
-151.912506
 21
-156.786606
  0
LINE
  8
0
 62
     4
 10
-128.912506
 20
-151.786591
 11
-128.912506
 21
-156.786606
  0
LINE
  8
0
 62
     4
 10
-148.352478
 20
-147.786591
 11
-140.412460
 21
-147.786591
  0
LINE
  8
0
 62
     4
 10
-148.352478
 20
-141.286591
 11
-140.412460
 21
-141.286591
  0
LINE
  8
0
 62
     4
 10
-149.912476
 20
-139.786591
 11
-138.912460
 21
-139.786591
  0
LINE
  8
0
 62
     4
 10
-149.912476
 20
-139.786591
 11
-149.912476
 21
-150.786591
  0
LINE
  8
0
 62
     4
 10
-138.912460
 20
-139.786591
 11
-138.912460
 21
-150.786591
  0
LINE
  8
0
 62
     4
 10
-140.412460
 20
-139.786591
 11
-140.412460
 21
-150.786591
  0
LINE
  8
0
 62
     4
 10
-148.352478
 20
-139.786591
 11
-148.352478
 21
-150.786591
  0
LINE
  8
0
 62
     4
 10
129.762451
 20
21.250000
 11
129.762451
 21
0.250000
  0
LINE
  8
0
 62
     4
 10
152.762451
 20
21.250000
 11
152.762451
 21
0.250000
  0
LINE
  8
0
 62
     4
 10
129.762451
 20
20.250000
 11
133.862427
 21
20.250000
  0
LINE
  8
0
 62
     4
 10
129.762451
 20
21.250000
 11
133.862427
 21
21.250000
  0
LINE
  8
0
 62
     4
 10
151.762253
 20
23.249971
 11
152.762268
 21
21.249929
  0
LINE
  8
0
 62
     4
 10
148.662476
 20
23.950012
 11
150.012451
 21
23.950012
  0
LINE
  8
0
 62
     4
 10
130.762451
 20
23.250000
 11
130.992554
 21
23.250000
  0
LINE
  8
0
 62
     4
 10
130.762604
 20
23.249916
 11
129.762604
 21
21.249882
  0
LINE
  8
0
 62
     4
 10
133.862427
 20
20.250000
 11
148.662476
 21
20.250000
  0
LINE
  8
0
 62
     4
 10
133.862427
 20
5.449982
 11
148.662476
 21
5.449982
  0
LINE
  8
0
 62
     4
 10
133.862427
 20
30.549988
 11
148.662476
 21
30.549988
  0
LINE
  8
0
 62
     4
 10
135.462524
 20
37.949982
 11
147.062500
 21
37.949982
  0
LINE
  8
0
 62
     4
 10
133.862427
 20
31.549988
 11
148.662476
 21
31.549988
  0
LINE
  8
0
 62
     4
 10
148.662476
 20
31.549988
 11
148.662476
 21
30.549988
  0
LINE
  8
0
 62
     4
 10
133.862427
 20
31.549988
 11
133.862427
 21
30.549988
  0
LINE
  8
0
 62
     4
 10
134.762451
 20
37.545837
 11
134.762451
 21
31.549988
  0
LINE
  8
0
 62
     4
 10
147.762451
 20
37.545837
 11
147.762451
 21
31.549988
  0
LINE
  8
0
 62
     4
 10
147.062531
 20
37.950069
 11
147.762527
 21
37.545925
  0
LINE
  8
0
 62
     4
 10
135.462524
 20
37.949924
 11
134.762527
 21
37.545780
  0
LINE
  8
0
 62
     4
 10
141.075562
 20
37.026215
 11
141.449341
 21
37.026215
  0
LINE
  8
0
 62
     4
 10
141.449341
 20
37.026215
 11
141.449341
 21
31.549988
  0
LINE
  8
0
 62
     4
 10
141.075562
 20
37.026215
 11
141.075562
 21
31.549988
  0
LINE
  8
0
 62
     4
 10
133.862427
 20
30.549988
 11
133.862427
 21
5.449982
  0
LINE
  8
0
 62
     4
 10
148.662476
 20
30.549988
 11
148.662476
 21
5.449982
  0
LINE
  8
0
 62
     4
 10
142.323257
 20
11.789351
 11
140.201935
 21
13.910671
  0
LINE
  8
0
 62
     4
 10
140.201797
 20
11.789276
 11
142.323120
 21
13.910596
  0
LINE
  8
0
 62
     4
 10
148.662476
 20
23.250000
 11
151.762451
 21
23.250000
  0
LINE
  8
0
 62
     4
 10
148.662476
 20
21.250000
 11
152.762451
 21
21.250000
  0
LINE
  8
0
 62
     4
 10
148.662476
 20
20.250000
 11
152.762451
 21
20.250000
  0
LINE
  8
0
 62
     4
 10
130.512451
 20
21.950012
 11
133.862427
 21
21.950012
  0
LINE
  8
0
 62
     4
 10
132.512451
 20
23.950012
 11
133.862427
 21
23.950012
  0
LINE
  8
0
 62
     4
 10
130.512451
 20
21.950012
 11
130.512451
 21
21.250000
  0
LINE
  8
0
 62
     4
 10
101.262451
 20
37.026215
 11
101.262451
 21
30.549988
  0
LINE
  8
0
 62
     4
 10
86.462402
 20
37.026215
 11
86.462402
 21
30.549988
  0
LINE
  8
0
 62
     4
 10
88.062500
 20
37.949982
 11
99.662476
 21
37.949982
  0
LINE
  8
0
 62
     4
 10
102.804932
 20
10.049988
 11
101.762451
 21
10.049988
  0
LINE
  8
0
 62
     4
 10
102.804932
 20
15.649994
 11
101.762451
 21
15.649994
  0
LINE
  8
0
 62
     4
 10
101.762451
 20
9.599976
 11
101.762451
 21
16.099976
  0
LINE
  8
0
 62
     4
 10
101.762451
 20
9.600098
 11
101.262451
 21
9.600098
  0
LINE
  8
0
 62
     4
 10
101.762451
 20
16.099976
 11
101.262451
 21
16.099976
  0
LINE
  8
0
 62
     4
 10
86.462402
 20
30.549988
 11
101.262451
 21
30.549988
  0
LINE
  8
0
 62
     4
 10
86.462402
 20
31.549988
 11
101.262451
 21
31.549988
  0
LINE
  8
0
 62
     4
 10
88.862427
 20
17.849976
 11
98.862427
 21
17.849976
  0
LINE
  8
0
 62
     4
 10
88.862427
 20
7.849976
 11
98.862427
 21
7.849976
  0
LINE
  8
0
 62
     4
 10
88.862427
 20
17.849976
 11
88.862427
 21
7.849976
  0
LINE
  8
0
 62
     4
 10
98.862427
 20
17.849976
 11
98.862427
 21
7.849976
  0
LINE
  8
0
 62
     4
 10
99.662453
 20
37.950062
 11
101.262466
 21
37.026295
  0
LINE
  8
0
 62
     4
 10
88.062401
 20
37.950027
 11
86.462387
 21
37.026257
  0
LINE
  8
0
 62
     4
 10
90.001831
 20
37.026215
 11
90.001831
 21
31.549988
  0
LINE
  8
0
 62
     4
 10
90.325562
 20
37.026215
 11
90.325562
 21
31.549988
  0
LINE
  8
0
 62
     4
 10
97.399414
 20
37.026215
 11
97.399414
 21
31.549988
  0
LINE
  8
0
 62
     4
 10
97.723145
 20
37.026215
 11
97.723145
 21
31.549988
  0
LINE
  8
0
 62
     4
 10
90.001831
 20
37.026215
 11
90.325562
 21
37.026215
  0
LINE
  8
0
 62
     4
 10
97.399414
 20
37.026215
 11
97.723145
 21
37.026215
  0
LINE
  8
0
 62
     4
 10
78.262451
 20
20.250000
 11
101.262451
 21
20.250000
  0
LINE
  8
0
 62
     4
 10
79.262451
 20
5.449982
 11
101.262451
 21
5.449982
  0
LINE
  8
0
 62
     4
 10
101.262451
 20
30.549988
 11
101.262451
 21
5.449982
  0
LINE
  8
0
 62
     4
 10
86.462402
 20
30.549988
 11
86.462402
 21
20.250000
  0
LINE
  8
0
 62
     4
 10
38.262451
 20
21.250000
 11
38.262451
 21
0.250000
  0
LINE
  8
0
 62
     4
 10
78.262451
 20
0.250000
 11
73.262451
 21
0.250000
  0
LINE
  8
0
 62
     4
 10
78.262451
 20
20.250000
 11
38.262451
 21
20.250000
  0
LINE
  8
0
 62
     4
 10
69.262451
 20
20.250000
 11
69.262451
 21
0.250000
  0
LINE
  8
0
 62
     4
 10
69.262451
 20
21.250000
 11
38.262451
 21
21.250000
  0
LINE
  8
0
 62
     4
 10
69.262451
 20
21.250000
 11
69.262451
 21
20.250000
  0
LINE
  8
0
 62
     4
 10
69.262489
 20
21.249947
 11
68.262459
 21
23.250015
  0
LINE
  8
0
 62
     4
 10
41.762451
 20
23.250000
 11
41.762451
 21
21.250000
  0
LINE
  8
0
 62
     4
 10
39.262947
 20
23.250015
 11
38.262844
 21
21.249809
  0
LINE
  8
0
 62
     4
 10
48.512451
 20
21.950012
 11
43.012451
 21
21.950012
  0
LINE
  8
0
 62
     4
 10
46.512451
 20
23.950012
 11
45.012451
 21
23.950012
  0
LINE
  8
0
 62
     4
 10
66.512451
 20
23.950012
 11
65.012451
 21
23.950012
  0
LINE
  8
0
 62
     4
 10
39.262817
 20
23.250000
 11
43.492676
 21
23.250000
  0
LINE
  8
0
 62
     4
 10
79.262451
 20
19.250000
 11
79.262451
 21
1.250000
  0
LINE
  8
0
 62
     4
 10
48.032349
 20
23.250000
 11
68.262329
 21
23.250000
  0
LINE
  8
0
 62
     4
 10
48.512451
 20
21.950012
 11
48.512451
 21
21.250000
  0
LINE
  8
0
 62
     4
 10
43.012451
 20
21.950012
 11
43.012451
 21
21.250000
  0
LINE
  8
0
 62
     4
 10
49.762451
 20
23.250000
 11
49.762451
 21
21.250000
  0
LINE
  8
0
 62
     4
 10
209.742004
 20
21.250000
 11
209.742004
 21
20.250000
  0
LINE
  8
0
 62
     4
 10
209.741928
 20
21.250086
 11
210.741943
 21
23.250143
  0
LINE
  8
0
 62
     4
 10
237.242004
 20
23.250000
 11
237.242004
 21
21.250000
  0
LINE
  8
0
 62
     4
 10
239.741379
 20
23.249836
 11
240.741455
 21
21.249716
  0
LINE
  8
0
 62
     4
 10
209.742004
 20
21.250000
 11
240.742004
 21
21.250000
  0
LINE
  8
0
 62
     4
 10
209.742004
 20
20.250000
 11
209.742004
 21
0.250000
  0
LINE
  8
0
 62
     4
 10
200.742004
 20
20.250000
 11
240.742004
 21
20.250000
  0
LINE
  8
0
 62
     4
 10
200.742004
 20
0.250000
 11
205.742004
 21
0.250000
  0
LINE
  8
0
 62
     4
 10
240.742004
 20
21.250000
 11
240.742004
 21
0.250000
  0
LINE
  8
0
 62
     4
 10
230.492004
 20
21.950012
 11
235.992004
 21
21.950012
  0
LINE
  8
0
 62
     4
 10
232.492004
 20
23.950012
 11
233.992004
 21
23.950012
  0
LINE
  8
0
 62
     4
 10
212.492004
 20
23.950012
 11
213.992004
 21
23.950012
  0
LINE
  8
0
 62
     4
 10
239.741638
 20
23.250000
 11
235.511841
 21
23.250000
  0
LINE
  8
0
 62
     4
 10
199.742004
 20
19.250000
 11
199.742004
 21
1.250000
  0
LINE
  8
0
 62
     4
 10
230.972107
 20
23.250000
 11
210.742126
 21
23.250000
  0
LINE
  8
0
 62
     4
 10
230.492004
 20
21.950012
 11
230.492004
 21
21.250000
  0
LINE
  8
0
 62
     4
 10
235.992004
 20
21.950012
 11
235.992004
 21
21.250000
  0
LINE
  8
0
 62
     4
 10
229.242004
 20
23.250000
 11
229.242004
 21
21.250000
  0
LINE
  8
0
 62
     4
 10
192.542053
 20
30.549988
 11
177.742004
 21
30.549988
  0
LINE
  8
0
 62
     4
 10
192.542053
 20
31.549988
 11
177.742004
 21
31.549988
  0
LINE
  8
0
 62
     4
 10
192.542053
 20
30.549988
 11
192.542053
 21
20.250000
  0
LINE
  8
0
 62
     4
 10
177.742004
 20
30.549988
 11
177.742004
 21
5.449982
  0
LINE
  8
0
 62
     4
 10
199.742004
 20
5.449982
 11
177.742004
 21
5.449982
  0
LINE
  8
0
 62
     4
 10
200.742004
 20
20.250000
 11
177.742004
 21
20.250000
  0
LINE
  8
0
 62
     4
 10
190.142029
 20
17.849976
 11
180.142029
 21
17.849976
  0
LINE
  8
0
 62
     4
 10
190.142029
 20
7.849976
 11
180.142029
 21
7.849976
  0
LINE
  8
0
 62
     4
 10
190.142029
 20
17.849976
 11
190.142029
 21
7.849976
  0
LINE
  8
0
 62
     4
 10
181.605103
 20
37.026215
 11
181.281311
 21
37.026215
  0
LINE
  8
0
 62
     4
 10
189.002686
 20
37.026215
 11
188.678955
 21
37.026215
  0
LINE
  8
0
 62
     4
 10
181.281311
 20
37.026215
 11
181.281311
 21
31.549988
  0
LINE
  8
0
 62
     4
 10
181.605103
 20
37.026215
 11
181.605103
 21
31.549988
  0
LINE
  8
0
 62
     4
 10
188.678955
 20
37.026215
 11
188.678955
 21
31.549988
  0
LINE
  8
0
 62
     4
 10
189.002686
 20
37.026215
 11
189.002686
 21
31.549988
  0
LINE
  8
0
 62
     4
 10
190.942032
 20
37.950089
 11
192.542023
 21
37.026302
  0
LINE
  8
0
 62
     4
 10
179.342010
 20
37.950008
 11
177.741989
 21
37.026241
  0
LINE
  8
0
 62
     4
 10
180.142029
 20
17.849976
 11
180.142029
 21
7.849976
  0
LINE
  8
0
 62
     4
 10
177.742004
 20
37.026215
 11
177.742004
 21
30.549988
  0
LINE
  8
0
 62
     4
 10
192.542053
 20
37.026215
 11
192.542053
 21
30.549988
  0
LINE
  8
0
 62
     4
 10
190.942017
 20
37.949982
 11
179.342041
 21
37.949982
  0
LINE
  8
0
 62
     4
 10
177.242004
 20
16.099976
 11
177.742004
 21
16.099976
  0
LINE
  8
0
 62
     4
 10
176.199585
 20
10.049988
 11
177.242004
 21
10.049988
  0
LINE
  8
0
 62
     4
 10
176.199585
 20
15.649994
 11
177.242004
 21
15.649994
  0
LINE
  8
0
 62
     4
 10
177.242004
 20
9.599976
 11
177.242004
 21
16.099976
  0
LINE
  8
0
 62
     4
 10
177.242004
 20
9.600098
 11
177.742004
 21
9.600098
  0
LINE
  8
0
 62
     4
 10
141.075485
 20
82.061020
 11
134.949295
 21
78.524063
  0
LINE
  8
0
 62
     4
 10
147.575668
 20
70.802612
 11
141.449478
 21
67.265656
  0
LINE
  8
0
 62
     4
 10
134.762451
 20
78.200317
 11
134.762451
 21
71.126404
  0
LINE
  8
0
 62
     4
 10
147.762451
 20
78.200317
 11
147.762451
 21
71.126404
  0
LINE
  8
0
 62
     4
 10
129.762482
 20
130.263321
 11
130.762451
 21
129.263351
  0
LINE
  8
0
 62
     4
 10
152.762390
 20
130.263428
 11
151.762451
 21
129.263504
  0
LINE
  8
0
 62
     4
 10
152.762344
 20
99.263260
 11
151.762314
 21
100.263283
  0
LINE
  8
0
 62
     4
 10
151.762451
 20
125.763374
 11
151.762451
 21
129.263367
  0
LINE
  8
0
 62
     4
 10
151.762451
 20
100.263344
 11
136.262451
 21
100.263344
  0
LINE
  8
0
 62
     4
 10
151.762451
 20
129.263336
 11
130.762451
 21
129.263336
  0
LINE
  8
0
 62
     4
 10
151.762451
 20
100.263374
 11
151.762451
 21
119.763374
  0
LINE
  8
0
 62
     4
 10
151.762451
 20
89.263329
 11
130.762451
 21
89.263329
  0
LINE
  8
0
 62
     4
 10
136.262451
 20
102.763374
 11
136.262451
 21
99.263374
  0
LINE
  8
0
 62
     4
 10
129.762451
 20
130.263367
 11
129.762451
 21
90.263374
  0
LINE
  8
0
 62
     4
 10
152.762451
 20
99.263344
 11
129.762451
 21
99.263344
  0
LINE
  8
0
 62
     4
 10
134.423386
 20
101.602783
 11
132.231674
 21
103.794495
  0
LINE
  8
0
 62
     4
 10
134.351089
 20
103.852058
 11
132.295334
 21
101.796318
  0
LINE
  8
0
 62
     4
 10
133.262451
 20
105.763344
 11
129.762451
 21
105.763344
  0
LINE
  8
0
 62
     4
 10
152.762451
 20
90.263374
 11
152.762451
 21
130.263367
  0
LINE
  8
0
 62
     4
 10
152.762451
 20
130.263336
 11
129.762451
 21
130.263336
  0
LINE
  8
0
 62
     4
 10
150.423553
 20
121.602867
 11
148.231796
 21
123.794624
  0
LINE
  8
0
 62
     4
 10
150.351059
 20
123.852036
 11
148.295334
 21
121.796326
  0
LINE
  8
0
 62
     4
 10
152.762451
 20
125.763344
 11
149.262451
 21
125.763344
  0
LINE
  8
0
 62
     4
 10
152.762451
 20
119.763344
 11
149.262451
 21
119.763344
  0
LINE
  8
0
 62
     4
 10
144.512451
 20
66.763306
 11
138.012451
 21
66.763306
  0
LINE
  8
0
 62
     4
 10
148.662476
 20
89.263367
 11
148.662476
 21
67.263336
  0
LINE
  8
0
 62
     4
 10
133.862427
 20
89.263367
 11
133.862427
 21
67.263336
  0
LINE
  8
0
 62
     4
 10
138.012451
 20
66.763336
 11
138.012451
 21
67.263336
  0
LINE
  8
0
 62
     4
 10
144.512451
 20
66.763336
 11
144.512451
 21
67.263336
  0
LINE
  8
0
 62
     4
 10
144.062500
 20
65.720886
 11
144.062500
 21
66.763336
  0
LINE
  8
0
 62
     4
 10
138.462524
 20
65.720886
 11
138.462524
 21
66.763336
  0
LINE
  8
0
 62
     4
 10
148.662476
 20
67.263336
 11
133.862427
 21
67.263336
  0
LINE
  8
0
 62
     4
 10
147.575577
 20
78.524094
 11
141.449448
 21
82.061020
  0
LINE
  8
0
 62
     4
 10
141.075623
 20
67.265938
 11
134.949478
 21
70.802864
  0
LINE
  8
0
  6
CENTER
 62
     2
 10
141.262451
 20
132.512909
 11
141.262451
 21
62.649414
  0
LINE
  8
0
 62
     4
 10
130.762451
 20
105.763344
 11
130.762451
 21
129.263336
  0
LINE
  8
0
 62
     4
 10
144.512451
 20
-42.661591
 11
144.512451
 21
-43.161598
  0
LINE
  8
0
 62
     4
 10
138.462524
 20
-41.619141
 11
138.462524
 21
-42.661591
  0
LINE
  8
0
 62
     4
 10
144.062500
 20
-41.619141
 11
144.062500
 21
-42.661591
  0
LINE
  8
0
 62
     4
 10
138.012451
 20
-42.661591
 11
144.512451
 21
-42.661591
  0
LINE
  8
0
 62
     4
 10
138.012573
 20
-42.661591
 11
138.012573
 21
-43.161598
  0
LINE
  8
0
 62
     4
 10
129.762451
 20
-66.161598
 11
129.762451
 21
-71.161598
  0
LINE
  8
0
 62
     4
 10
152.762451
 20
-66.161598
 11
152.762451
 21
-71.161598
  0
LINE
  8
0
 62
     4
 10
151.762451
 20
-65.161598
 11
130.762451
 21
-65.161598
  0
LINE
  8
0
 62
     4
 10
148.662476
 20
-43.161598
 11
133.862427
 21
-43.161598
  0
LINE
  8
0
 62
     4
 10
148.662476
 20
-43.161598
 11
148.662476
 21
-65.161598
  0
LINE
  8
0
 62
     4
 10
133.862427
 20
-43.161598
 11
133.862427
 21
-65.161598
  0
CIRCLE
  8
0
  6
CENTER
 62
     2
 10
-133.412506
 20
12.914749
 40
1.500000
  0
CIRCLE
  8
0
  6
PHANTOM
 62
     2
 10
-133.412506
 20
12.914749
 40
1.250000
  0
CIRCLE
  8
0
  6
CENTER
 62
     2
 10
-147.412506
 20
35.914749
 40
1.500000
  0
CIRCLE
  8
0
  6
PHANTOM
 62
     2
 10
-147.412506
 20
35.914749
 40
1.250000
  0
ARC
  8
0
  6
PHANTOM
 62
     2
 10
-148.412506
 20
14.414749
 40
3.000000
 50
0.000000
 51
90.000000
  0
ARC
  8
0
  6
PHANTOM
 62
     2
 10
-132.412506
 20
34.414749
 40
3.000000
 50
0.000000
 51
2.873160
  0
ARC
  8
0
  6
PHANTOM
 62
     2
 10
-132.412506
 20
34.414749
 40
3.000000
 50
90.000000
 51
270.000000
  0
ARC
  8
0
  6
PHANTOM
 62
     2
 10
-148.412506
 20
14.414749
 40
3.000000
 50
270.000000
 51
0.000000
  0
CIRCLE
  8
0
  6
PHANTOM
 62
     2
 10
-132.412506
 20
34.414749
 40
2.750000
  0
CIRCLE
  8
0
  6
PHANTOM
 62
     2
 10
-148.412506
 20
14.414749
 40
2.750000
  0
CIRCLE
  8
0
  6
CENTER
 62
     2
 10
148.262451
 20
-100.161629
 40
1.500000
  0
CIRCLE
  8
0
  6
PHANTOM
 62
     2
 10
148.262451
 20
-100.161629
 40
1.250000
  0
CIRCLE
  8
0
  6
CENTER
 62
     2
 10
134.262451
 20
-77.161629
 40
1.500000
  0
CIRCLE
  8
0
  6
PHANTOM
 62
     2
 10
134.262451
 20
-77.161629
 40
1.250000
  0
ARC
  8
0
  6
PHANTOM
 62
     2
 10
133.262451
 20
-98.661629
 40
3.000000
 50
0.000000
 51
90.000000
  0
ARC
  8
0
  6
PHANTOM
 62
     2
 10
149.262451
 20
-78.661629
 40
3.000000
 50
0.000000
 51
2.873160
  0
ARC
  8
0
  6
PHANTOM
 62
     2
 10
149.262451
 20
-78.661629
 40
3.000000
 50
90.000000
 51
270.000000
  0
ARC
  8
0
  6
PHANTOM
 62
     2
 10
133.262451
 20
-98.661629
 40
3.000000
 50
270.000000
 51
0.000000
  0
CIRCLE
  8
0
  6
PHANTOM
 62
     2
 10
149.262451
 20
-78.661629
 40
2.750000
  0
CIRCLE
  8
0
  6
PHANTOM
 62
     2
 10
133.262451
 20
-98.661629
 40
2.750000
  0
CIRCLE
  8
0
  6
CENTER
 62
     2
 10
-133.412506
 20
-185.786606
 40
1.500000
  0
CIRCLE
  8
0
  6
PHANTOM
 62
     2
 10
-133.412506
 20
-185.786606
 40
1.250000
  0
CIRCLE
  8
0
  6
CENTER
 62
     2
 10
-147.412506
 20
-162.786606
 40
1.500000
  0
CIRCLE
  8
0
  6
PHANTOM
 62
     2
 10
-147.412506
 20
-162.786606
 40
1.250000
  0
ARC
  8
0
  6
PHANTOM
 62
     2
 10
-148.412506
 20
-184.286606
 40
3.000000
 50
0.000000
 51
90.000000
  0
ARC
  8
0
  6
PHANTOM
 62
     2
 10
-132.412506
 20
-164.286606
 40
3.000000
 50
0.000000
 51
2.873160
  0
ARC
  8
0
  6
PHANTOM
 62
     2
 10
-132.412506
 20
-164.286606
 40
3.000000
 50
90.000000
 51
270.000000
  0
ARC
  8
0
  6
PHANTOM
 62
     2
 10
-148.412506
 20
-184.286606
 40
3.000000
 50
270.000000
 51
0.000000
  0
CIRCLE
  8
0
  6
PHANTOM
 62
     2
 10
-132.412506
 20
-164.286606
 40
2.750000
  0
CIRCLE
  8
0
  6
PHANTOM
 62
     2
 10
-148.412506
 20
-184.286606
 40
2.750000
  0
ARC
  8
0
 62
     4
 10
-131.662506
 20
96.575012
 40
2.000001
 50
40.541695
 51
90.000000
  0
ARC
  8
0
 62
     4
 10
-131.662506
 20
96.574982
 40
2.000000
 50
90.000000
 51
95.183586
  0
ARC
  8
0
 62
     4
 10
-149.162506
 20
96.575012
 40
2.000000
 50
112.024315
 51
180.000000
  0
ARC
  8
0
 62
     4
 10
-133.162506
 20
96.575012
 40
2.000000
 50
90.000000
 51
139.458298
  0
ARC
  8
0
 62
     4
 10
-131.662506
 20
96.575012
 40
2.000000
 50
90.000000
 51
95.183586
  0
ARC
  8
0
 62
     4
 10
-205.912506
 20
95.375000
 40
0.500000
 50
0.000000
 51
180.000000
  0
ARC
  8
0
 62
     4
 10
-203.412506
 20
75.875000
 40
1.000000
 50
270.000000
 51
0.000000
  0
ARC
  8
0
 62
     4
 10
-216.662506
 20
96.575012
 40
2.000000
 50
90.000000
 51
180.000000
  0
ARC
  8
0
 62
     4
 10
-215.162506
 20
96.575012
 40
2.000000
 50
0.000000
 51
90.000000
  0
ARC
  8
0
 62
     4
 10
-236.662506
 20
96.575012
 40
2.000000
 50
90.000000
 51
139.458298
  0
ARC
  8
0
 62
     4
 10
-235.162506
 20
96.575012
 40
2.000004
 50
40.787987
 51
90.000000
  0
ARC
  8
0
 62
     4
 10
-203.412506
 20
92.875000
 40
1.000000
 50
0.000000
 51
90.000000
  0
ARC
  8
0
 62
     4
 10
-205.912506
 20
97.375000
 40
0.500000
 50
180.000000
 51
0.000000
  0
ARC
  8
0
 62
     4
 10
-80.932983
 20
75.875000
 40
1.000000
 50
180.000000
 51
270.000000
  0
ARC
  8
0
 62
     4
 10
-78.432983
 20
95.375000
 40
0.500000
 50
0.000000
 51
180.000000
  0
ARC
  8
0
 62
     4
 10
-78.432983
 20
97.375000
 40
0.500000
 50
180.000000
 51
0.000000
  0
ARC
  8
0
 62
     4
 10
-80.932983
 20
92.875000
 40
1.000000
 50
90.000000
 51
180.000000
  0
ARC
  8
0
 62
     4
 10
-67.682922
 20
96.575012
 40
1.999998
 50
40.788128
 51
90.000000
  0
ARC
  8
0
 62
     4
 10
-49.182953
 20
96.575012
 40
2.000000
 50
90.000000
 51
180.000000
  0
ARC
  8
0
 62
     4
 10
-47.682983
 20
96.575012
 40
2.000000
 50
0.000000
 51
90.000000
  0
ARC
  8
0
 62
     4
 10
-69.182953
 20
96.575012
 40
2.000000
 50
90.000000
 51
139.458298
  0
ARC
  8
0
 62
     4
 10
-132.412476
 20
169.388245
 40
3.000000
 50
180.000000
 51
270.000000
  0
ARC
  8
0
 62
     4
 10
-132.412476
 20
169.388245
 40
3.000000
 50
90.000000
 51
180.000000
  0
CIRCLE
  8
0
 62
     4
 10
-132.412476
 20
169.388245
 40
2.750000
  0
ARC
  8
0
 62
     4
 10
-129.912476
 20
136.888245
 40
1.000000
 50
270.000000
 51
0.000000
  0
ARC
  8
0
 62
     4
 10
-148.412476
 20
149.388245
 40
3.000000
 50
180.000000
 51
182.873154
  0
ARC
  8
0
 62
     4
 10
-148.412476
 20
149.388245
 40
3.000000
 50
0.000000
 51
90.000000
  0
CIRCLE
  8
0
 62
     4
 10
-148.412476
 20
149.388245
 40
2.750000
  0
ARC
  8
0
 62
     4
 10
-150.912476
 20
136.888245
 40
1.000000
 50
180.000000
 51
270.000000
  0
ARC
  8
0
 62
     4
 10
-150.912506
 20
50.914749
 40
1.000000
 50
90.000000
 51
180.000000
  0
ARC
  8
0
 62
     4
 10
-129.912506
 20
50.914749
 40
1.000000
 50
0.000000
 51
90.000000
  0
ARC
  8
0
 62
     4
 10
-131.662506
 20
-88.675003
 40
2.000000
 50
90.000000
 51
95.183586
  0
ARC
  8
0
 62
     4
 10
-149.162506
 20
-88.674988
 40
2.000000
 50
90.000000
 51
180.000000
  0
ARC
  8
0
 62
     4
 10
-133.162506
 20
-88.674988
 40
2.000000
 50
90.000000
 51
139.458298
  0
ARC
  8
0
 62
     4
 10
-131.662506
 20
-88.674988
 40
2.000000
 50
90.000000
 51
95.183586
  0
ARC
  8
0
 62
     4
 10
-131.662506
 20
-88.674988
 40
2.000001
 50
40.541695
 51
90.000000
  0
ARC
  8
0
 62
     4
 10
-147.662506
 20
-88.674988
 40
2.000003
 50
64.158089
 51
90.000000
  0
ARC
  8
0
 62
     4
 10
-203.379456
 20
-89.874969
 40
1.000000
 50
0.000000
 51
90.000000
  0
ARC
  8
0
 62
     4
 10
-199.979462
 20
-89.374939
 40
0.500000
 50
270.000000
 51
90.000000
  0
ARC
  8
0
 62
     4
 10
-214.229431
 20
-88.674988
 40
2.000000
 50
0.000000
 51
90.000000
  0
ARC
  8
0
 62
     4
 10
-235.729431
 20
-88.674988
 40
2.000000
 50
90.000000
 51
139.458298
  0
ARC
  8
0
 62
     4
 10
-234.229401
 20
-88.674988
 40
2.000004
 50
40.787987
 51
90.000000
  0
ARC
  8
0
 62
     4
 10
-202.479462
 20
-92.375000
 40
1.000000
 50
0.000000
 51
90.000000
  0
ARC
  8
0
 62
     4
 10
-202.479462
 20
-109.375000
 40
1.000000
 50
270.000000
 51
0.000000
  0
ARC
  8
0
 62
     4
 10
-197.979462
 20
-89.374939
 40
0.500000
 50
90.000000
 51
270.000000
  0
ARC
  8
0
 62
     4
 10
-215.729431
 20
-88.674988
 40
2.000000
 50
90.000877
 51
180.000000
  0
ARC
  8
0
 62
     4
 10
-48.183014
 20
-88.674988
 40
2.000000
 50
90.000000
 51
180.000000
  0
ARC
  8
0
 62
     4
 10
-46.683014
 20
-88.674988
 40
2.000000
 50
0.000000
 51
90.000000
  0
ARC
  8
0
 62
     4
 10
-68.183014
 20
-88.674988
 40
2.000000
 50
90.000000
 51
139.458298
  0
ARC
  8
0
 62
     4
 10
-66.682983
 20
-88.674988
 40
1.999998
 50
40.788128
 51
90.000000
  0
ARC
  8
0
 62
     4
 10
-79.932983
 20
-92.375000
 40
1.000000
 50
90.000000
 51
180.000000
  0
ARC
  8
0
 62
     4
 10
-79.932983
 20
-109.375000
 40
1.000000
 50
180.000000
 51
270.000000
  0
ARC
  8
0
 62
     4
 10
-84.432983
 20
-89.374939
 40
0.500000
 50
270.000000
 51
90.000000
  0
ARC
  8
0
 62
     4
 10
-82.432983
 20
-89.374939
 40
0.500000
 50
90.000000
 51
270.000000
  0
ARC
  8
0
 62
     4
 10
-79.032990
 20
-89.874969
 40
1.000000
 50
90.000000
 51
180.000000
  0
ARC
  8
0
 62
     4
 10
-132.412476
 20
-13.861694
 40
3.000000
 50
180.000015
 51
270.000000
  0
ARC
  8
0
 62
     4
 10
-148.412476
 20
-33.861694
 40
3.000000
 50
180.000000
 51
182.873154
  0
ARC
  8
0
 62
     4
 10
-148.412476
 20
-33.861694
 40
3.000000
 50
0.000000
 51
90.000000
  0
ARC
  8
0
 62
     4
 10
-132.412476
 20
-13.861694
 40
3.000000
 50
90.000000
 51
180.000000
  0
CIRCLE
  8
0
 62
     4
 10
-148.412476
 20
-33.861694
 40
2.750000
  0
CIRCLE
  8
0
 62
     4
 10
-132.412476
 20
-13.861694
 40
2.750000
  0
ARC
  8
0
 62
     4
 10
-129.912476
 20
-46.361694
 40
1.000000
 50
270.000000
 51
0.000000
  0
ARC
  8
0
 62
     4
 10
-150.912476
 20
-46.361694
 40
1.000000
 50
180.000000
 51
239.999954
  0
ARC
  8
0
 62
     4
 10
-150.912506
 20
-151.786591
 40
1.000000
 50
90.000000
 51
180.000000
  0
ARC
  8
0
 62
     4
 10
-129.912506
 20
-151.786591
 40
1.000000
 50
0.000000
 51
90.000000
  0
ARC
  8
0
 62
     4
 10
132.512451
 20
21.950012
 40
2.000000
 50
90.000877
 51
179.999939
  0
CIRCLE
  8
0
 62
     4
 10
141.262451
 20
12.849976
 40
2.800000
  0
ARC
  8
0
 62
     4
 10
144.605957
 20
27.698456
 40
9.847381
 50
71.304039
 51
108.695961
  0
ARC
  8
0
 62
     4
 10
137.919067
 20
27.698456
 40
9.847381
 50
71.304039
 51
108.695961
  0
CIRCLE
  8
0
 62
     4
 10
141.262451
 20
12.849976
 40
3.250000
  0
ARC
  8
0
 62
     4
 10
150.012451
 20
21.950012
 40
2.000000
 50
90.000000
 51
95.183586
  0
ARC
  8
0
 62
     4
 10
150.012451
 20
21.950012
 40
1.999998
 50
40.541615
 51
90.000000
  0
ARC
  8
0
 62
     4
 10
78.262451
 20
19.250000
 40
1.000000
 50
0.000000
 51
90.000000
  0
ARC
  8
0
 62
     4
 10
78.262451
 20
1.250000
 40
1.000000
 50
270.000000
 51
360.000000
  0
ARC
  8
0
 62
     4
 10
65.012451
 20
21.950012
 40
2.000000
 50
90.000000
 51
139.211792
  0
ARC
  8
0
 62
     4
 10
66.512451
 20
21.950012
 40
2.000001
 50
40.541695
 51
90.000000
  0
ARC
  8
0
 62
     4
 10
45.012451
 20
21.950012
 40
2.000000
 50
90.000000
 51
180.000000
  0
ARC
  8
0
 62
     4
 10
46.512451
 20
21.950012
 40
2.000000
 50
0.000000
 51
90.000000
  0
ARC
  8
0
 62
     4
 10
98.662476
 20
12.849976
 40
5.000000
 50
325.944214
 51
34.055752
  0
ARC
  8
0
 62
     4
 10
88.232056
 20
34.272583
 40
3.273266
 50
57.272732
 51
117.272942
  0
ARC
  8
0
 62
     4
 10
93.862427
 20
25.248352
 40
12.297485
 50
73.284737
 51
106.715263
  0
ARC
  8
0
 62
     4
 10
99.492798
 20
34.272583
 40
3.273248
 50
62.728844
 51
122.727333
  0
ARC
  8
0
 62
     4
 10
200.742004
 20
19.250000
 40
1.000000
 50
90.000000
 51
180.000000
  0
ARC
  8
0
 62
     4
 10
200.742004
 20
1.250000
 40
1.000000
 50
180.000000
 51
270.000000
  0
ARC
  8
0
 62
     4
 10
213.992004
 20
21.950012
 40
1.999993
 50
40.788311
 51
90.000000
  0
ARC
  8
0
 62
     4
 10
212.492004
 20
21.950012
 40
2.000000
 50
90.000000
 51
139.458298
  0
ARC
  8
0
 62
     4
 10
233.992004
 20
21.950012
 40
2.000000
 50
0.000000
 51
90.000000
  0
ARC
  8
0
 62
     4
 10
232.492004
 20
21.950012
 40
2.000000
 50
90.000000
 51
179.999939
  0
ARC
  8
0
 62
     4
 10
190.772400
 20
34.272583
 40
3.273266
 50
62.727055
 51
122.727158
  0
ARC
  8
0
 62
     4
 10
185.142029
 20
25.248352
 40
12.297483
 50
73.284698
 51
106.715225
  0
ARC
  8
0
 62
     4
 10
179.511658
 20
34.272583
 40
3.273246
 50
57.272667
 51
117.271034
  0
ARC
  8
0
 62
     4
 10
180.342041
 20
12.849976
 40
5.000006
 50
145.944275
 51
214.055710
  0
ARC
  8
0
 62
     4
 10
130.762451
 20
90.263374
 40
1.000000
 50
180.000000
 51
270.000000
  0
CIRCLE
  8
0
 62
     4
 10
133.262451
 20
102.763374
 40
2.750000
  0
ARC
  8
0
 62
     4
 10
133.262451
 20
102.763374
 40
3.000000
 50
0.000000
 51
90.000000
  0
ARC
  8
0
 62
     4
 10
133.262451
 20
102.763374
 40
3.000000
 50
180.000000
 51
182.873154
  0
ARC
  8
0
 62
     4
 10
151.762451
 20
90.263374
 40
1.000000
 50
270.000000
 51
0.000000
  0
CIRCLE
  8
0
 62
     4
 10
149.262451
 20
122.763374
 40
2.750000
  0
ARC
  8
0
 62
     4
 10
149.262451
 20
122.763374
 40
3.000000
 50
90.000000
 51
180.000000
  0
ARC
  8
0
 62
     4
 10
149.262451
 20
122.763374
 40
3.000000
 50
180.000000
 51
270.000000
  0
ARC
  8
0
 62
     4
 10
141.262451
 20
69.863365
 40
5.000006
 50
235.944427
 51
304.056061
  0
CIRCLE
  8
0
 62
     4
 10
141.262451
 20
74.663353
 40
5.800000
  0
CIRCLE
  8
0
 62
     4
 10
141.262451
 20
74.663353
 40
3.800000
  0
CIRCLE
  8
0
 62
     4
 10
141.262451
 20
74.663353
 40
7.400000
  0
ARC
  8
0
 62
     4
 10
141.262451
 20
-45.761604
 40
5.000002
 50
55.944176
 51
124.055824
  0
ARC
  8
0
 62
     4
 10
130.762451
 20
-66.161598
 40
1.000000
 50
90.000000
 51
180.000000
  0
ARC
  8
0
 62
     4
 10
151.762451
 20
-66.161598
 40
1.000000
 50
0.000000
 51
90.000000
  0
TEXT
  8
0
 10
174.200241
 20
180.830002
 40
6.300000
  1
DATE: NOV ,1993
 50
0.000000
 41
1.052632
 51
0.000000
  7
STANDARD
  0
TEXT
  8
0
 10
167.564667
 20
-192.100006
 40
9.000000
  1
KOGANEI CORP.
 50
0.000000
 41
1.052632
 51
0.000000
  7
STANDARD
  0
TEXT
  8
0
 10
-256.549713
 20
180.830002
 40
6.300000
  1
240SOLENOID
 50
0.000000
 41
1.052632
 51
0.000000
  7
STANDARD
  0
TEXT
  8
0
 10
11.625269
 20
175.830002
 40
6.300000
  1
MODEL:-39
 50
0.000000
 41
1.052632
 51
0.000000
  7
STANDARD
  0
TEXT
  8
0
 10
-270.049713
 20
155.830002
 40
6.300000
  1
MODEL:-PSL
 50
0.000000
 41
1.052632
 51
0.000000
  7
STANDARD
  0
TEXT
  8
0
 10
-270.049713
 20
-19.420000
 40
6.300000
  1
MODEL:-PLL
 50
0.000000
 41
1.052632
 51
0.000000
  7
STANDARD
  0
ENDSEC
  0
EOF
