  0
SECTION
  2
HEADER
  0
ENDSEC
  0
SECTION
  2
TABLES
  0
TABLE
  2
LTYPE
 70
     4
  0
LTYPE
  2
CONTINUOUS
 70
    64
  3
Solid line
 72
    65
 73
     0
 40
0.000000
  0
LTYPE
  2
DASHED
 70
    64
  3
__ __ __ __ __ __ __ __ __ __ __ __ __ __ __
 72
    65
 73
     2
 40
3.500000
 49
2.000000
 49
-1.500000
  0
LTYPE
  2
CENTER
 70
    64
  3
____ _ ____ _ ____ _ ____ _ ____ _ ____ _ ____
 72
    65
 73
     4
 40
17.500000
 49
13.000000
 49
-1.500000
 49
1.500000
 49
-1.500000
  0
LTYPE
  2
PHANTOM
 70
    64
  3
_____ _ _ _____ _ _ _____ _ _ _____ _ _ ____  
 72
    65
 73
     6
 40
15.500000
 49
8.000000
 49
-1.500000
 49
1.500000
 49
-1.500000
 49
1.500000
 49
-1.500000
  0
LTYPE
  2
DASHED1
 70
    64
  3
__ __ __ __ __ __ __ __ __ __ __ __ __ __ __
 72
    65
 73
     2
 40
1.500000
 49
1.000000
 49
-0.500000
  0
LTYPE
  2
DASHED2
 70
    64
  3
__ __ __ __ __ __ __ __ __ __ __ __ __ __ __
 72
    65
 73
     2
 40
3.500000
 49
2.500000
 49
-1.000000
  0
LTYPE
  2
DASHED3
 70
    64
  3
__ __ __ __ __ __ __ __ __ __ __ __ __ __ __
 72
    65
 73
     2
 40
6.000000
 49
4.000000
 49
-2.000000
  0
LTYPE
  2
DASHED4
 70
    64
  3
__ __ __ __ __ __ __ __ __ __ __ __ __ __ __
 72
    65
 73
     2
 40
12.000000
 49
10.000000
 49
-2.000000
  0
LTYPE
  2
DASHED5
 70
    64
  3
__ __ __ __ __ __ __ __ __ __ __ __ __ __ __
 72
    65
 73
     2
 40
17.000000
 49
15.000000
 49
-2.000000
  0
LTYPE
  2
DASHED6
 70
    64
  3
__ __ __ __ __ __ __ __ __ __ __ __ __ __ __
 72
    65
 73
     2
 40
29.000000
 49
27.000000
 49
-2.000000
  0
LTYPE
  2
PHANTOM1
 70
    64
  3
_____ _ _ _____ _ _ _____ _ _ _____ _ _ ____  
 72
    65
 73
     6
 40
31.000000
 49
25.000000
 49
-1.500000
 49
1.000000
 49
-1.000000
 49
1.000000
 49
-1.500000
  0
LTYPE
  2
PHANTOM2
 70
    64
  3
_____ _ _ _____ _ _ _____ _ _ _____ _ _ ____  
 72
    65
 73
     6
 40
36.000000
 49
27.000000
 49
-1.500000
 49
2.500000
 49
-1.000000
 49
2.500000
 49
-1.500000
  0
LTYPE
  2
PHANTOM3
 70
    64
  3
_____ _ _ _____ _ _ _____ _ _ _____ _ _ ____  
 72
    65
 73
     6
 40
78.000000
 49
64.000000
 49
-2.000000
 49
4.000000
 49
-2.000000
 49
4.000000
 49
-2.000000
  0
LTYPE
  2
CENTER1
 70
    64
  3
____ _ ____ _ ____ _ ____ _ ____ _ ____ _ ____
 72
    65
 73
     4
 40
19.000000
 49
14.000000
 49
-1.000000
 49
3.000000
 49
-1.000000
  0
LTYPE
  2
CENTER2
 70
    64
  3
____ _ ____ _ ____ _ ____ _ ____ _ ____ _ ____
 72
    65
 73
     4
 40
28.500000
 49
25.000000
 49
-1.000000
 49
1.500000
 49
-1.000000
  0
LTYPE
  2
CENTER3
 70
    64
  3
____ _ ____ _ ____ _ ____ _ ____ _ ____ _ ____
 72
    65
 73
     4
 40
31.500000
 49
27.000000
 49
-1.000000
 49
2.500000
 49
-1.000000
  0
LTYPE
  2
CENTER4
 70
    64
  3
____ _ ____ _ ____ _ ____ _ ____ _ ____ _ ____
 72
    65
 73
     4
 40
50.000000
 49
45.000000
 49
-1.000000
 49
3.000000
 49
-1.000000
  0
LTYPE
  2
CENTER5
 70
    64
  3
____ _ ____ _ ____ _ ____ _ ____ _ ____ _ ____
 72
    65
 73
     4
 40
100.000000
 49
92.000000
 49
-2.000000
 49
4.000000
 49
-2.000000
  0
LTYPE
  2
SBK1
 70
    64
  3
______ _ _ _ ______ _ _ _ ______ _ _ _ _____  
 72
    65
 73
     8
 40
60.500000
 49
45.000000
 49
-2.000000
 49
2.500000
 49
-2.000000
 49
2.500000
 49
-2.000000
 49
2.500000
 49
-2.000000
  0
LTYPE
  2
SBK2
 70
    64
  3
______ _ _ _ ______ _ _ _ ______ _ _ _ _____  
 72
    65
 73
     8
 40
84.000000
 49
64.000000
 49
-2.000000
 49
4.000000
 49
-2.000000
 49
4.000000
 49
-2.000000
 49
4.000000
 49
-2.000000
  0
LTYPE
  2
STCH
 70
    64
  3
__ __ __ __ __ __ __ __ __ __ __ __ __ __ __
 72
    65
 73
     2
 40
3.000000
 49
1.000000
 49
-2.000000
  0
LTYPE
  2
MTCH
 70
    64
  3
_____ _ _ _____ _ _ _____ _ _ _____ _ _ ____  
 72
    65
 73
     6
 40
80.000000
 49
66.000000
 49
-2.000000
 49
4.000000
 49
-2.000000
 49
4.000000
 49
-2.000000
  0
ENDTAB
  0
TABLE
  2
LAYER
 70
     1
  0
LAYER
  2
0
 70
     0
 62
     7
  6
CONTINUOUS
  0
ENDTAB
  0
TABLE
  2
STYLE
 70
     1
  0
STYLE
  2
STANDARD
 70
     0
 40
0.000000
 41
1.000000
 50
0.000000
 71
     0
 42
0.200000
  3
txt
  4
BIGFONT
  0
ENDTAB
  0
TABLE
  2
VIEW
 70
     0
  0
ENDTAB
  0
ENDSEC
  0
SECTION
  2
BLOCKS
  0
ENDSEC
  0
SECTION
  2
ENTITIES
  0
LINE
  8
0
 10
-194.250000
 20
132.600006
 11
194.800003
 21
132.600006
  0
LINE
  8
0
 10
194.800003
 20
132.600006
 11
194.800003
 21
-133.500000
  0
LINE
  8
0
 10
-194.250000
 20
132.600006
 11
-194.250000
 21
-133.500000
  0
LINE
  8
0
 10
-194.250000
 20
-133.500000
 11
194.800003
 21
-133.500000
  0
LINE
  8
0
 10
109.800003
 20
-118.500000
 11
109.800003
 21
-133.500000
  0
LINE
  8
0
 10
109.800003
 20
-118.500000
 11
194.800003
 21
-118.500000
  0
LINE
  8
0
 10
109.800003
 20
132.600006
 11
109.800003
 21
117.600006
  0
LINE
  8
0
 10
109.800003
 20
117.600006
 11
194.800003
 21
117.600006
  0
LINE
  8
0
 10
-194.250000
 20
117.600006
 11
-109.250000
 21
117.600006
  0
LINE
  8
0
 10
-109.250000
 20
132.600006
 11
-109.250000
 21
117.600006
  0
LINE
  8
0
 62
     4
 10
-74.979523
 20
95.000000
 11
-74.979523
 21
74.000000
  0
LINE
  8
0
 62
     4
 10
-97.979523
 20
95.000000
 11
-97.979523
 21
74.000000
  0
LINE
  8
0
 10
-74.979523
 20
3.500000
 11
-97.979523
 21
3.500000
  0
LINE
  8
0
 10
-74.979523
 20
56.500000
 11
-97.979523
 21
56.500000
  0
LINE
  8
0
 10
-74.979523
 20
74.000000
 11
-97.979523
 21
74.000000
  0
LINE
  8
0
 62
     4
 10
-74.979523
 20
94.000000
 11
-97.979523
 21
94.000000
  0
LINE
  8
0
 62
     4
 10
-74.979523
 20
95.000000
 11
-97.979523
 21
95.000000
  0
LINE
  8
0
 62
     4
 10
-96.979340
 20
96.999939
 11
-97.979347
 21
94.999924
  0
LINE
  8
0
 10
-74.979523
 20
-5.500000
 11
-97.979523
 21
-5.500000
  0
LINE
  8
0
 62
     4
 10
-75.979584
 20
97.000000
 11
-96.979462
 21
97.000000
  0
LINE
  8
0
 62
     4
 10
-77.729523
 20
97.700012
 11
-79.229523
 21
97.700012
  0
LINE
  8
0
 62
     4
 10
-93.729523
 20
97.700012
 11
-95.229523
 21
97.700012
  0
LINE
  8
0
 10
-76.390785
 20
48.911491
 11
-78.446503
 21
50.967213
  0
LINE
  8
0
 10
-76.318649
 20
51.160728
 11
-78.510338
 21
48.969040
  0
LINE
  8
0
 10
-94.390465
 20
8.911838
 11
-96.446159
 21
10.967532
  0
LINE
  8
0
 10
-94.318611
 20
11.160666
 11
-96.510323
 21
8.968954
  0
LINE
  8
0
  6
CENTER
 62
     2
 10
-86.479523
 20
99.286743
 11
-86.479523
 21
-8.708771
  0
LINE
  8
0
 62
     4
 10
-74.979523
 20
93.000000
 11
-97.979523
 21
93.000000
  0
LINE
  8
0
 62
     4
 10
-85.179535
 20
88.699997
 11
-87.779510
 21
88.699997
  0
LINE
  8
0
 62
     4
 10
-85.179535
 20
85.300003
 11
-87.779510
 21
85.300003
  0
LINE
  8
0
  6
CENTER
 62
     2
 10
-91.979523
 20
41.000000
 11
-76.979523
 21
41.000000
  0
LINE
  8
0
  6
CENTER
 62
     2
 10
-84.479523
 20
48.500000
 11
-84.479523
 21
33.500000
  0
LINE
  8
0
  6
CENTER
 62
     2
 10
-88.479523
 20
26.500000
 11
-88.479523
 21
11.500000
  0
LINE
  8
0
  6
CENTER
 62
     2
 10
-95.979523
 20
19.000000
 11
-80.979523
 21
19.000000
  0
LINE
  8
0
 10
-95.479523
 20
7.000000
 11
-97.979523
 21
7.000000
  0
LINE
  8
0
 10
-95.479523
 20
13.000000
 11
-97.979523
 21
13.000000
  0
LINE
  8
0
 10
-77.479523
 20
53.000000
 11
-74.979523
 21
53.000000
  0
LINE
  8
0
 10
-77.479523
 20
47.000000
 11
-74.979523
 21
47.000000
  0
LINE
  8
0
 62
     4
 10
-75.979828
 20
96.999878
 11
-74.979820
 21
94.999863
  0
LINE
  8
0
 10
-97.979523
 20
74.000000
 11
-97.979523
 21
-5.500000
  0
LINE
  8
0
 10
-74.979523
 20
74.000000
 11
-74.979523
 21
-5.500000
  0
LINE
  8
0
  6
PHANTOM
 62
     1
 10
-109.479523
 20
-11.099998
 11
-97.379517
 21
-11.099998
  0
LINE
  8
0
  6
PHANTOM
 62
     1
 10
-73.979523
 20
-5.500000
 11
-73.979523
 21
-9.500000
  0
LINE
  8
0
  6
PHANTOM
 62
     1
 10
-98.979523
 20
-5.500000
 11
-98.979523
 21
-9.500000
  0
LINE
  8
0
  6
PHANTOM
 62
     1
 10
-68.479523
 20
-9.500000
 11
-68.479523
 21
-11.099998
  0
LINE
  8
0
  6
PHANTOM
 62
     1
 10
-104.479523
 20
-9.500000
 11
-104.479523
 21
-11.099998
  0
LINE
  8
0
  6
PHANTOM
 62
     1
 10
-109.479523
 20
-9.500000
 11
-98.979523
 21
-9.500000
  0
LINE
  8
0
  6
PHANTOM
 62
     1
 10
-98.979523
 20
-5.500000
 11
-73.979523
 21
-5.500000
  0
LINE
  8
0
  6
PHANTOM
 62
     1
 10
-75.579529
 20
-7.099998
 11
-75.579529
 21
-11.099998
  0
LINE
  8
0
  6
PHANTOM
 62
     1
 10
-97.379517
 20
-7.099998
 11
-97.379517
 21
-11.099998
  0
LINE
  8
0
  6
PHANTOM
 62
     1
 10
-97.379517
 20
-7.099998
 11
-75.579529
 21
-7.099998
  0
LINE
  8
0
  6
PHANTOM
 62
     1
 10
-75.579529
 20
-11.099998
 11
-63.479523
 21
-11.099998
  0
LINE
  8
0
  6
PHANTOM
 62
     1
 10
-73.979523
 20
-9.500000
 11
-63.479523
 21
-9.500000
  0
LINE
  8
0
  6
CENTER
 62
     1
 10
-104.479523
 20
-6.299995
 11
-104.479523
 21
-14.299995
  0
LINE
  8
0
  6
CENTER
 62
     1
 10
-68.479523
 20
-6.299995
 11
-68.479523
 21
-14.299995
  0
LINE
  8
0
  6
CENTER
 62
     2
 10
-95.479523
 20
14.000000
 11
-95.479523
 21
6.000000
  0
LINE
  8
0
  6
CENTER
 62
     2
 10
-99.479523
 20
10.000000
 11
-91.479523
 21
10.000000
  0
LINE
  8
0
  6
CENTER
 62
     2
 10
-77.479523
 20
54.000000
 11
-77.479523
 21
46.000000
  0
LINE
  8
0
  6
CENTER
 62
     2
 10
-81.479523
 20
50.000000
 11
-73.479523
 21
50.000000
  0
LINE
  8
0
  6
PHANTOM
 62
     1
 10
-109.479523
 20
-9.500000
 11
-109.479523
 21
-11.099998
  0
LINE
  8
0
  6
PHANTOM
 62
     1
 10
-63.479523
 20
-9.500000
 11
-63.479523
 21
-11.099998
  0
LINE
  8
0
  6
PHANTOM
 62
     1
 10
-82.242737
 20
-8.771790
 11
-82.242737
 21
-7.099998
  0
LINE
  8
0
  6
PHANTOM
 62
     1
 10
-76.742737
 20
-8.771702
 11
-76.742737
 21
-7.099998
  0
LINE
  8
0
  6
PHANTOM
 62
     1
 10
-76.742737
 20
-7.803524
 11
-82.242737
 21
-7.803524
  0
LINE
  8
0
  6
PHANTOM
 62
     1
 10
-78.492737
 20
-9.803558
 11
-80.492737
 21
-9.803558
  0
LINE
  8
0
  6
PHANTOM
 62
     1
 10
-92.492737
 20
-9.803558
 11
-94.492737
 21
-9.803558
  0
LINE
  8
0
  6
PHANTOM
 62
     1
 10
-96.242737
 20
-8.771790
 11
-96.242737
 21
-7.099998
  0
LINE
  8
0
  6
PHANTOM
 62
     1
 10
-90.742737
 20
-8.771702
 11
-90.742737
 21
-7.099998
  0
LINE
  8
0
  6
PHANTOM
 62
     1
 10
-90.742737
 20
-7.803524
 11
-96.242737
 21
-7.803524
  0
LINE
  8
0
 62
     4
 10
-25.000000
 20
94.999863
 11
-25.000000
 21
73.999863
  0
LINE
  8
0
 10
10.000059
 20
-5.500000
 11
-24.999941
 21
-5.500000
  0
LINE
  8
0
 10
-20.500000
 20
-2.000116
 11
-20.500000
 21
-5.500116
  0
LINE
  8
0
 10
-14.500000
 20
-2.000093
 11
-14.500000
 21
-5.500093
  0
LINE
  8
0
 10
-14.499954
 20
-2.000000
 11
-20.499954
 21
-2.000000
  0
LINE
  8
0
 62
     4
 10
9.999680
 20
94.000000
 11
-25.000320
 21
94.000000
  0
LINE
  8
0
 62
     4
 10
10.000000
 20
94.000000
 11
10.000000
 21
74.000000
  0
LINE
  8
0
 62
     4
 10
9.999676
 20
95.000000
 11
-25.000324
 21
95.000000
  0
LINE
  8
0
 62
     4
 10
10.000000
 20
95.000000
 11
10.000000
 21
94.000000
  0
LINE
  8
0
 62
     4
 10
9.999986
 20
95.000168
 11
8.999979
 21
97.000183
  0
LINE
  8
0
 62
     4
 10
-1.500000
 20
96.999954
 11
-1.500000
 21
94.999954
  0
LINE
  8
0
 62
     4
 10
-23.999912
 20
96.999710
 11
-24.999933
 21
94.999672
  0
LINE
  8
0
 62
     4
 10
-0.250327
 20
95.700012
 11
5.249673
 21
95.700012
  0
LINE
  8
0
 62
     4
 10
5.250000
 20
95.699997
 11
5.250000
 21
94.999985
  0
LINE
  8
0
 62
     4
 10
-0.250000
 20
95.699974
 11
-0.250000
 21
94.999962
  0
LINE
  8
0
 62
     4
 10
1.749665
 20
97.700012
 11
3.249665
 21
97.700012
  0
LINE
  8
0
 62
     4
 10
-18.250336
 20
97.700012
 11
-16.750336
 21
97.700012
  0
LINE
  8
0
 62
     4
 10
8.999638
 20
97.000000
 11
4.769535
 21
97.000000
  0
LINE
  8
0
 10
10.000000
 20
74.000000
 11
10.000000
 21
-5.500000
  0
LINE
  8
0
 10
9.999756
 20
74.000000
 11
-25.000244
 21
74.000000
  0
LINE
  8
0
 62
     4
 10
0.229801
 20
97.000000
 11
-24.000240
 21
97.000000
  0
LINE
  8
0
  6
CENTER
 62
     2
 10
2.000000
 20
44.210716
 11
2.000000
 21
14.718842
  0
LINE
  8
0
 10
-25.000177
 20
56.500000
 11
9.999823
 21
56.500000
  0
LINE
  8
0
  6
CENTER
 62
     2
 10
-2.000113
 20
39.800003
 11
5.999887
 21
39.800003
  0
LINE
  8
0
  6
CENTER
 62
     2
 10
-2.000039
 20
20.199997
 11
5.999961
 21
20.199997
  0
LINE
  8
0
 10
-24.999975
 20
3.500000
 11
10.000025
 21
3.500000
  0
LINE
  8
0
 62
     4
 10
-37.000290
 20
86.149994
 11
-33.004532
 21
86.149994
  0
LINE
  8
0
 62
     4
 10
-37.000298
 20
87.850006
 11
-32.549004
 21
87.850006
  0
LINE
  8
0
 62
     4
 10
-47.000324
 20
86.679993
 11
-37.000294
 21
86.679993
  0
LINE
  8
0
 62
     4
 10
-47.000324
 20
87.319992
 11
-37.000294
 21
87.319992
  0
LINE
  8
0
 62
     4
 10
-37.000031
 20
87.849792
 11
-37.000031
 21
86.149796
  0
LINE
  8
0
 62
     4
 10
-47.000031
 20
87.319763
 11
-47.000031
 21
86.679779
  0
LINE
  8
0
 62
     1
 10
-33.540165
 20
84.149727
 11
-32.012848
 21
89.849739
  0
LINE
  8
0
 62
     1
 10
-31.987129
 20
84.149712
 11
-30.459820
 21
89.849701
  0
LINE
  8
0
 62
     4
 10
-31.451614
 20
86.149994
 11
-27.000259
 21
86.149994
  0
LINE
  8
0
 62
     4
 10
-30.996086
 20
87.850006
 11
-27.000267
 21
87.850006
  0
LINE
  8
0
 62
     4
 10
-27.000286
 20
85.300003
 11
-25.000286
 21
85.300003
  0
LINE
  8
0
 62
     4
 10
-27.000031
 20
88.699844
 11
-27.000031
 21
85.299850
  0
LINE
  8
0
 62
     4
 10
-27.000301
 20
88.699997
 11
-25.000301
 21
88.699997
  0
LINE
  8
0
 62
     4
 10
6.500000
 20
96.999985
 11
6.500000
 21
94.999985
  0
LINE
  8
0
 10
-25.000000
 20
73.999863
 11
-25.000000
 21
-5.500134
  0
LINE
  8
0
  6
PHANTOM
 62
     1
 10
10.000031
 20
-5.500000
 11
10.000031
 21
-11.100006
  0
LINE
  8
0
  6
PHANTOM
 62
     1
 10
-24.999969
 20
-5.500134
 11
-24.999969
 21
-11.100140
  0
LINE
  8
0
  6
PHANTOM
 62
     1
 10
10.000080
 20
-11.100006
 11
-24.999920
 21
-11.100006
  0
LINE
  8
0
  6
PHANTOM
 62
     1
 10
10.000074
 20
-9.500000
 11
-24.999926
 21
-9.500000
  0
LINE
  8
0
  6
PHANTOM
 62
     1
 10
10.000059
 20
-5.500000
 11
-24.999941
 21
-5.500000
  0
LINE
  8
0
  6
PHANTOM
 62
     1
 10
5.000031
 20
-9.500019
 11
5.000031
 21
-11.100025
  0
LINE
  8
0
  6
PHANTOM
 62
     1
 10
-19.999969
 20
-9.500114
 11
-19.999969
 21
-11.100121
  0
LINE
  8
0
 10
-16.513157
 20
-4.703560
 11
-18.513157
 21
-4.703560
  0
LINE
  8
0
 10
-20.263214
 20
-3.671906
 11
-20.263214
 21
-2.000115
  0
LINE
  8
0
 10
-14.763214
 20
-3.671802
 11
-14.763214
 21
-2.000094
  0
LINE
  8
0
 10
-14.763165
 20
-2.703522
 11
-20.263165
 21
-2.703522
  0
LINE
  8
0
 10
-22.000000
 20
52.999878
 11
-22.000000
 21
46.999878
  0
LINE
  8
0
 10
-25.000164
 20
53.000000
 11
-22.000164
 21
53.000000
  0
LINE
  8
0
 10
-25.000141
 20
47.000000
 11
-22.000141
 21
47.000000
  0
LINE
  8
0
 10
-23.668415
 20
47.250008
 11
-22.000141
 21
47.250008
  0
LINE
  8
0
 10
-23.668438
 20
52.749992
 11
-22.000164
 21
52.749992
  0
LINE
  8
0
 10
-22.700012
 20
52.749866
 11
-22.700012
 21
47.249882
  0
LINE
  8
0
 10
-24.700012
 20
50.999874
 11
-24.700012
 21
48.999859
  0
LINE
  8
0
  6
CENTER
 62
     1
 10
-7.499969
 20
-2.497656
 11
-7.499969
 21
-13.383398
  0
LINE
  8
0
  6
CENTER
 62
     1
 10
-49.051533
 20
87.000000
 11
-22.989735
 21
87.000000
  0
LINE
  8
0
  6
CENTER
 62
     2
 10
7.499847
 20
50.000000
 11
12.499847
 21
50.000000
  0
LINE
  8
0
  6
CENTER
 62
     2
 10
7.500000
 20
10.000000
 11
12.500000
 21
10.000000
  0
LINE
  8
0
 10
-74.979523
 20
-66.500000
 11
-97.979523
 21
-66.500000
  0
LINE
  8
0
 10
-74.979523
 20
-101.500000
 11
-97.979523
 21
-101.500000
  0
LINE
  8
0
 10
-97.979523
 20
-66.500008
 11
-97.979523
 21
-101.500008
  0
LINE
  8
0
 10
-74.979523
 20
-66.500008
 11
-74.979523
 21
-101.500008
  0
LINE
  8
0
  6
CENTER
 62
     2
 10
-86.479523
 20
-39.818729
 11
-86.479523
 21
-109.353836
  0
LINE
  8
0
  6
CENTER
 62
     2
 10
-69.317596
 20
-84.000000
 11
-103.287262
 21
-84.000000
  0
LINE
  8
0
  6
CENTER
 62
     2
 10
-76.479523
 20
-95.500000
 11
-82.479523
 21
-95.500000
  0
LINE
  8
0
  6
CENTER
 62
     2
 10
-79.479523
 20
-92.500008
 11
-79.479523
 21
-98.500008
  0
LINE
  8
0
  6
CENTER
 62
     2
 10
-96.479523
 20
-72.500000
 11
-90.479523
 21
-72.500000
  0
LINE
  8
0
  6
CENTER
 62
     2
 10
-93.479523
 20
-75.500008
 11
-93.479523
 21
-69.500008
  0
LINE
  8
0
 10
-78.479523
 20
-71.000000
 11
-74.979523
 21
-71.000000
  0
LINE
  8
0
 10
-78.479523
 20
-77.000000
 11
-74.979523
 21
-77.000000
  0
LINE
  8
0
 10
-97.979523
 20
-91.000000
 11
-94.479523
 21
-91.000000
  0
LINE
  8
0
 10
-97.979523
 20
-97.000000
 11
-94.479523
 21
-97.000000
  0
LINE
  8
0
 10
-95.568275
 20
-95.088509
 11
-93.512527
 21
-93.032768
  0
LINE
  8
0
 10
-95.640572
 20
-92.839493
 11
-93.448860
 21
-95.031204
  0
LINE
  8
0
 10
-79.568245
 20
-75.088539
 11
-77.512520
 21
-73.032822
  0
LINE
  8
0
 10
-79.640503
 20
-72.839439
 11
-77.448792
 21
-75.031151
  0
LINE
  8
0
  6
CENTER
 62
     2
 10
-95.479523
 20
-99.000000
 11
-95.479523
 21
-104.000000
  0
LINE
  8
0
  6
CENTER
 62
     2
 10
-77.479523
 20
-99.000000
 11
-77.479523
 21
-104.000000
  0
LINE
  8
0
 62
     1
 10
-83.629448
 20
-57.949371
 11
-89.329483
 21
-59.476704
  0
LINE
  8
0
 62
     1
 10
-83.629471
 20
-59.502331
 11
-89.329460
 21
-61.029644
  0
LINE
  8
0
  6
CENTER
 62
     1
 10
-85.179550
 20
-42.438194
 11
-85.179550
 21
-68.500015
  0
LINE
  8
0
 62
     4
 10
-86.029526
 20
-54.500000
 11
-86.029526
 21
-58.592468
  0
LINE
  8
0
 62
     4
 10
-84.329514
 20
-54.500000
 11
-84.329514
 21
-58.136948
  0
LINE
  8
0
 62
     4
 10
-85.499527
 20
-44.499969
 11
-85.499527
 21
-54.500000
  0
LINE
  8
0
 62
     4
 10
-84.859512
 20
-44.499969
 11
-84.859512
 21
-54.500000
  0
LINE
  8
0
 62
     4
 10
-84.329544
 20
-54.499969
 11
-86.029556
 21
-54.499969
  0
LINE
  8
0
 62
     4
 10
-84.859543
 20
-44.499969
 11
-85.499527
 21
-44.499969
  0
LINE
  8
0
 62
     4
 10
-83.479523
 20
-64.500000
 11
-83.479523
 21
-66.500000
  0
LINE
  8
0
 62
     4
 10
-89.479523
 20
-64.500000
 11
-89.479523
 21
-66.500000
  0
LINE
  8
0
 62
     4
 10
-89.479523
 20
-64.500000
 11
-83.479523
 21
-64.500000
  0
LINE
  8
0
 62
     4
 10
-88.629532
 20
-54.500000
 11
-88.629532
 21
-59.289146
  0
LINE
  8
0
 62
     4
 10
-86.929520
 20
-54.500000
 11
-86.929520
 21
-58.833626
  0
LINE
  8
0
 62
     4
 10
-88.099533
 20
-44.499969
 11
-88.099533
 21
-54.500000
  0
LINE
  8
0
 62
     4
 10
-87.459518
 20
-44.499969
 11
-87.459518
 21
-54.500000
  0
LINE
  8
0
 62
     4
 10
-86.929550
 20
-54.499969
 11
-88.629562
 21
-54.499969
  0
LINE
  8
0
 62
     4
 10
-87.459549
 20
-44.499969
 11
-88.099533
 21
-44.499969
  0
LINE
  8
0
  6
CENTER
 62
     1
 10
-87.779556
 20
-42.438194
 11
-87.779556
 21
-68.500015
  0
LINE
  8
0
 62
     4
 10
-88.629532
 20
-60.842117
 11
-88.629532
 21
-64.500000
  0
LINE
  8
0
 62
     4
 10
-86.929520
 20
-60.386597
 11
-86.929520
 21
-64.500000
  0
LINE
  8
0
 62
     4
 10
-86.029526
 20
-60.145439
 11
-86.029526
 21
-64.500000
  0
LINE
  8
0
 62
     4
 10
-84.329514
 20
-59.689926
 11
-84.329514
 21
-64.500000
  0
LINE
  8
0
  6
PHANTOM
 62
     1
 10
96.716309
 20
-8.771779
 11
96.716309
 21
-7.099988
  0
LINE
  8
0
  6
PHANTOM
 62
     1
 10
102.216309
 20
-8.771704
 11
102.216309
 21
-7.100000
  0
LINE
  8
0
  6
PHANTOM
 62
     1
 10
102.216270
 20
-7.803524
 11
96.716270
 21
-7.803524
  0
LINE
  8
0
  6
PHANTOM
 62
     1
 10
100.466263
 20
-9.803558
 11
98.466263
 21
-9.803558
  0
LINE
  8
0
 62
     4
 10
80.979523
 20
95.000046
 11
80.979523
 21
74.000046
  0
LINE
  8
0
 62
     4
 10
103.979523
 20
94.999992
 11
103.979523
 21
73.999992
  0
LINE
  8
0
 10
80.979507
 20
3.500000
 11
103.979507
 21
3.500000
  0
LINE
  8
0
 10
80.979630
 20
56.500000
 11
103.979630
 21
56.500000
  0
LINE
  8
0
 10
80.979668
 20
74.000000
 11
103.979668
 21
74.000000
  0
LINE
  8
0
 62
     4
 10
80.979713
 20
94.000000
 11
103.979713
 21
94.000000
  0
LINE
  8
0
 62
     4
 10
80.979721
 20
95.000000
 11
103.979721
 21
95.000000
  0
LINE
  8
0
 62
     4
 10
102.979561
 20
96.999969
 11
103.979568
 21
94.999954
  0
LINE
  8
0
 10
80.979485
 20
-5.500000
 11
103.979485
 21
-5.500000
  0
LINE
  8
0
 62
     4
 10
83.729721
 20
97.700012
 11
85.229721
 21
97.700012
  0
LINE
  8
0
 62
     4
 10
99.729721
 20
97.700012
 11
101.229721
 21
97.700012
  0
LINE
  8
0
 62
     4
 10
81.979752
 20
97.000000
 11
102.979691
 21
97.000000
  0
LINE
  8
0
  6
CENTER
 62
     2
 10
92.479523
 20
99.286766
 11
92.479523
 21
-8.708750
  0
LINE
  8
0
 62
     4
 10
80.979713
 20
93.000000
 11
103.979713
 21
93.000000
  0
LINE
  8
0
 62
     4
 10
81.979927
 20
96.999947
 11
80.979919
 21
94.999939
  0
LINE
  8
0
  6
CENTER
 62
     2
 10
89.479523
 20
4.500028
 11
89.479523
 21
19.500027
  0
LINE
  8
0
  6
CENTER
 62
     2
 10
102.979607
 20
48.000000
 11
87.979607
 21
48.000000
  0
LINE
  8
0
  6
CENTER
 62
     2
 10
96.979530
 20
12.000000
 11
81.979530
 21
12.000000
  0
LINE
  8
0
  6
CENTER
 62
     2
 10
95.479523
 20
55.500015
 11
95.479523
 21
40.500015
  0
LINE
  8
0
  6
CENTER
 62
     2
 10
84.979568
 20
30.000000
 11
99.979568
 21
30.000000
  0
LINE
  8
0
  6
CENTER
 62
     2
 10
98.479523
 20
10.000000
 11
104.479523
 21
10.000000
  0
LINE
  8
0
  6
CENTER
 62
     2
 10
80.479614
 20
50.000000
 11
86.479614
 21
50.000000
  0
LINE
  8
0
  6
CENTER
 62
     2
 10
101.479523
 20
13.000000
 11
101.479523
 21
7.000000
  0
LINE
  8
0
  6
CENTER
 62
     2
 10
83.479523
 20
53.000042
 11
83.479523
 21
47.000042
  0
LINE
  8
0
 10
80.979523
 20
74.000046
 11
80.979523
 21
-5.499953
  0
LINE
  8
0
 10
103.979523
 20
73.999992
 11
103.979523
 21
-5.500006
  0
LINE
  8
0
  6
CENTER
 62
     2
 10
90.979523
 20
2.663583
 11
90.979523
 21
-4.995315
  0
LINE
  8
0
  6
CENTER
 62
     2
 10
86.932869
 20
-1.000000
 11
94.851387
 21
-1.000000
  0
LINE
  8
0
  6
PHANTOM
 62
     1
 10
69.479477
 20
-11.099998
 11
81.579483
 21
-11.099998
  0
LINE
  8
0
  6
PHANTOM
 62
     1
 10
104.979523
 20
-5.500008
 11
104.979523
 21
-9.500008
  0
LINE
  8
0
  6
PHANTOM
 62
     1
 10
79.979523
 20
-5.499950
 11
79.979523
 21
-9.499950
  0
LINE
  8
0
  6
PHANTOM
 62
     1
 10
110.479523
 20
-9.500021
 11
110.479523
 21
-11.100019
  0
LINE
  8
0
  6
PHANTOM
 62
     1
 10
74.479523
 20
-9.499938
 11
74.479523
 21
-11.099936
  0
LINE
  8
0
  6
PHANTOM
 62
     1
 10
69.479477
 20
-9.500000
 11
79.979477
 21
-9.500000
  0
LINE
  8
0
  6
PHANTOM
 62
     1
 10
79.979485
 20
-5.500000
 11
104.979485
 21
-5.500000
  0
LINE
  8
0
  6
PHANTOM
 62
     1
 10
103.379517
 20
-7.100003
 11
103.379517
 21
-11.100003
  0
LINE
  8
0
  6
PHANTOM
 62
     1
 10
81.579529
 20
-7.099953
 11
81.579529
 21
-11.099953
  0
LINE
  8
0
  6
PHANTOM
 62
     1
 10
81.579491
 20
-7.099998
 11
103.379478
 21
-7.099998
  0
LINE
  8
0
  6
PHANTOM
 62
     1
 10
103.379471
 20
-11.099998
 11
115.479477
 21
-11.099998
  0
LINE
  8
0
  6
PHANTOM
 62
     1
 10
104.979477
 20
-9.500000
 11
115.479477
 21
-9.500000
  0
LINE
  8
0
  6
CENTER
 62
     1
 10
74.479523
 20
-6.299933
 11
74.479523
 21
-14.299933
  0
LINE
  8
0
  6
CENTER
 62
     1
 10
110.479523
 20
-6.300016
 11
110.479523
 21
-14.300016
  0
LINE
  8
0
  6
PHANTOM
 62
     1
 10
86.466263
 20
-9.803558
 11
84.466263
 21
-9.803558
  0
LINE
  8
0
  6
PHANTOM
 62
     1
 10
82.716309
 20
-8.771747
 11
82.716309
 21
-7.099956
  0
LINE
  8
0
  6
PHANTOM
 62
     1
 10
88.216309
 20
-8.771671
 11
88.216309
 21
-7.099968
  0
LINE
  8
0
  6
PHANTOM
 62
     1
 10
88.216270
 20
-7.803524
 11
82.716270
 21
-7.803524
  0
LINE
  8
0
  6
PHANTOM
 62
     1
 10
69.479523
 20
-9.499927
 11
69.479523
 21
-11.099925
  0
LINE
  8
0
  6
PHANTOM
 62
     1
 10
115.479523
 20
-9.500032
 11
115.479523
 21
-11.100031
  0
CIRCLE
  8
0
 10
-95.479523
 20
10.000000
 40
2.250000
  0
CIRCLE
  8
0
 10
-77.479523
 20
50.000000
 40
2.250000
  0
CIRCLE
  8
0
 10
-86.479523
 20
70.500000
 40
2.299999
  0
CIRCLE
  8
0
 10
-86.479523
 20
70.500000
 40
1.500000
  0
ARC
  8
0
 62
     4
 10
-77.729523
 20
95.700012
 40
2.000003
 50
40.541080
 51
90.000000
  0
ARC
  8
0
 62
     4
 10
-79.229523
 20
95.700012
 40
2.000000
 50
90.000000
 51
139.458923
  0
ARC
  8
0
 62
     4
 10
-93.729523
 20
95.700012
 40
1.999996
 50
40.541531
 51
90.000000
  0
ARC
  8
0
 62
     4
 10
-95.229523
 20
95.700012
 40
2.000001
 50
84.816414
 51
90.000000
  0
ARC
  8
0
 62
     4
 10
-95.229523
 20
95.700012
 40
2.000000
 50
90.000000
 51
139.458298
  0
ARC
  8
0
 62
     4
 10
-85.179535
 20
87.000000
 40
1.699997
 50
269.999756
 51
90.000259
  0
ARC
  8
0
 62
     4
 10
-87.779510
 20
87.000000
 40
1.699997
 50
90.000000
 51
270.000000
  0
CIRCLE
  8
0
 62
     4
 10
-87.779510
 20
87.000000
 40
0.850000
  0
CIRCLE
  8
0
 62
     4
 10
-85.179535
 20
87.000000
 40
0.850000
  0
CIRCLE
  8
0
 62
     2
 10
-84.479523
 20
41.000000
 40
6.578500
  0
CIRCLE
  8
0
 10
-84.479523
 20
41.000000
 40
5.722500
  0
CIRCLE
  8
0
 62
     2
 10
-88.479523
 20
19.000000
 40
6.578500
  0
CIRCLE
  8
0
 10
-88.479523
 20
19.000000
 40
5.722500
  0
ARC
  8
0
 10
-95.479523
 20
10.000000
 40
3.000000
 50
270.000000
 51
90.000000
  0
ARC
  8
0
 10
-77.479523
 20
50.000000
 40
3.000000
 50
90.000000
 51
270.000000
  0
ARC
  8
0
  6
PHANTOM
 62
     1
 10
-92.492767
 20
-7.803501
 40
2.000000
 50
270.000000
 51
331.046417
  0
ARC
  8
0
  6
PHANTOM
 62
     1
 10
-94.492767
 20
-7.803513
 40
2.000003
 50
208.956085
 51
270.000000
  0
ARC
  8
0
  6
PHANTOM
 62
     1
 10
-78.492767
 20
-7.803501
 40
2.000000
 50
270.000000
 51
331.046417
  0
ARC
  8
0
  6
PHANTOM
 62
     1
 10
-80.492767
 20
-7.803513
 40
2.000003
 50
208.956085
 51
270.000000
  0
ARC
  8
0
 62
     4
 10
1.749673
 20
95.699982
 40
2.000000
 50
89.999985
 51
180.000000
  0
ARC
  8
0
 62
     4
 10
3.249673
 20
95.699989
 40
2.000000
 50
0.000000
 51
89.999977
  0
ARC
  8
0
 62
     4
 10
-18.250326
 20
95.699905
 40
2.000000
 50
90.000000
 51
139.458267
  0
ARC
  8
0
 62
     4
 10
-16.750326
 20
95.699913
 40
1.999998
 50
40.788128
 51
90.000000
  0
CIRCLE
  8
0
 10
1.999887
 20
39.799973
 40
1.650000
  0
CIRCLE
  8
0
 10
1.999961
 20
20.199966
 40
1.650000
  0
ARC
  8
0
 10
-18.513166
 20
-2.703623
 40
2.000000
 50
208.956146
 51
269.999939
  0
ARC
  8
0
 10
-16.513197
 20
-2.703608
 40
2.000000
 50
269.999939
 51
331.046448
  0
ARC
  8
0
 10
-22.700169
 20
50.999882
 40
1.999999
 50
118.955872
 51
180.000000
  0
ARC
  8
0
 10
-22.700161
 20
48.999866
 40
2.000000
 50
179.999893
 51
241.044128
  0
CIRCLE
  8
0
 62
     2
 10
-79.479523
 20
-95.500008
 40
1.500000
  0
CIRCLE
  8
0
 10
-79.479523
 20
-95.500008
 40
1.250000
  0
CIRCLE
  8
0
 62
     2
 10
-93.479523
 20
-72.500008
 40
1.500000
  0
CIRCLE
  8
0
 10
-93.479523
 20
-72.500008
 40
1.250000
  0
ARC
  8
0
 10
-94.479523
 20
-94.000008
 40
3.000000
 50
0.000000
 51
90.000000
  0
ARC
  8
0
 10
-78.479523
 20
-74.000008
 40
3.000000
 50
0.000000
 51
2.873160
  0
ARC
  8
0
 10
-78.479523
 20
-74.000008
 40
3.000000
 50
90.000000
 51
270.000000
  0
ARC
  8
0
 10
-94.479523
 20
-94.000008
 40
3.000000
 50
270.000000
 51
0.000000
  0
CIRCLE
  8
0
 10
-78.479523
 20
-74.000008
 40
2.750000
  0
CIRCLE
  8
0
 10
-94.479523
 20
-94.000008
 40
2.750000
  0
ARC
  8
0
  6
PHANTOM
 62
     1
 10
100.466240
 20
-7.803499
 40
2.000000
 50
270.000000
 51
331.046417
  0
ARC
  8
0
  6
PHANTOM
 62
     1
 10
98.466255
 20
-7.803505
 40
2.000003
 50
208.956085
 51
270.000000
  0
ARC
  8
0
 62
     4
 10
83.729721
 20
95.700050
 40
2.000000
 50
90.000000
 51
139.458923
  0
ARC
  8
0
 62
     4
 10
85.229721
 20
95.700050
 40
2.000003
 50
40.541080
 51
90.000000
  0
ARC
  8
0
 62
     4
 10
99.729721
 20
95.700020
 40
2.000000
 50
90.000000
 51
139.458298
  0
ARC
  8
0
 62
     4
 10
101.229721
 20
95.700012
 40
2.000000
 50
90.000000
 51
95.183586
  0
ARC
  8
0
 62
     4
 10
101.229721
 20
95.700012
 40
2.000001
 50
40.541695
 51
90.000000
  0
CIRCLE
  8
0
 10
90.979500
 20
-0.999976
 40
2.700000
  0
CIRCLE
  8
0
 10
90.979500
 20
-0.999976
 40
2.000000
  0
CIRCLE
  8
0
 10
92.479568
 20
30.000021
 40
5.722500
  0
CIRCLE
  8
0
 10
101.479523
 20
10.000000
 40
1.650000
  0
CIRCLE
  8
0
 10
83.479614
 20
50.000042
 40
1.650000
  0
CIRCLE
  8
0
 62
     2
 10
89.479530
 20
12.000028
 40
4.864000
  0
CIRCLE
  8
0
 10
89.479530
 20
12.000028
 40
4.278000
  0
CIRCLE
  8
0
 62
     2
 10
95.479607
 20
48.000015
 40
4.864000
  0
CIRCLE
  8
0
 10
95.479607
 20
48.000015
 40
4.278000
  0
CIRCLE
  8
0
 62
     2
 10
92.479568
 20
30.000021
 40
6.578500
  0
CIRCLE
  8
0
 10
93.979652
 20
65.700012
 40
2.700000
  0
CIRCLE
  8
0
 10
93.979652
 20
65.700012
 40
2.000000
  0
ARC
  8
0
  6
PHANTOM
 62
     1
 10
84.466255
 20
-7.803474
 40
2.000003
 50
208.956085
 51
270.000000
  0
ARC
  8
0
  6
PHANTOM
 62
     1
 10
86.466240
 20
-7.803467
 40
2.000000
 50
270.000000
 51
331.046417
  0
TEXT
  8
0
 10
115.907150
 20
122.050003
 40
4.500000
  1
DATE : NOV ,1993
 50
0.000000
 41
1.052631
 51
0.000000
  7
STANDARD
  0
TEXT
  8
0
 10
113.700279
 20
-130.669998
 40
6.300000
  1
KOGANEI CORP.
 50
0.000000
 41
1.052632
 51
0.000000
  7
STANDARD
  0
TEXT
  8
0
 10
-167.892654
 20
122.050003
 40
4.500000
  1
240-4E1
 50
0.000000
 41
1.052632
 51
0.000000
  7
STANDARD
  0
TEXT
  8
0
 10
-186.892654
 20
104.550003
 40
4.500000
  1
MODEL:240-4E1-21
 50
0.000000
 41
1.052632
 51
0.000000
  7
STANDARD
  0
TEXT
  8
0
 10
-96.286522
 20
49.119999
 40
3.200000
  1
A
 50
0.000000
 41
1.052632
 51
0.000000
  7
STANDARD
  0
TEXT
  8
0
 10
-80.286522
 20
7.120000
 40
3.200000
  1
B
 50
0.000000
 41
1.052632
 51
0.000000
  7
STANDARD
  0
TEXT
  8
0
 10
98.672554
 20
20.120003
 40
3.200000
  1
P
 50
0.000000
 41
1.052632
 51
0.000000
  7
STANDARD
  0
TEXT
  8
0
 10
86.072624
 20
52.120026
 40
3.200000
  1
R1
 50
0.000000
 41
1.052632
 51
0.000000
  7
STANDARD
  0
TEXT
  8
0
 10
92.072517
 20
4.120014
 40
3.200000
  1
R2
 50
0.000000
 41
1.052632
 51
0.000000
  7
STANDARD
  0
ENDSEC
  0
EOF
