  0
SECTION
  2
HEADER
  9
$ACADVER
  1
AC1012
  9
$DWGCODEPAGE
  3
dos932
  9
$INSBASE
 10
0.0
 20
0.0
 30
0.0
  9
$EXTMIN
 10
-194.25
 20
-133.5
 30
0.0
  9
$EXTMAX
 10
194.80000305
 20
132.6000061
 30
0.0
  9
$LIMMIN
 10
-210.0
 20
-148.5
  9
$LIMMAX
 10
210.0
 20
148.5
  9
$ORTHOMODE
 70
       0
  9
$REGENMODE
 70
       1
  9
$FILLMODE
 70
       1
  9
$QTEXTMODE
 70
       0
  9
$MIRRTEXT
 70
       1
  9
$DRAGMODE
 70
       2
  9
$LTSCALE
 40
1.0
  9
$OSMODE
 70
       0
  9
$ATTMODE
 70
       1
  9
$TEXTSIZE
 40
3.20000005
  9
$TRACEWID
 40
0.05
  9
$TEXTSTYLE
  7
MX_NOTE_STANDARD
  9
$CLAYER
  8
0
  9
$CELTYPE
  6
CONTINUOUS
  9
$CECOLOR
 62
     256
  9
$CELTSCALE
 40
1.0
  9
$DELOBJ
 70
       1
  9
$DISPSILH
 70
       0
  9
$DIMSCALE
 40
1.0
  9
$DIMASZ
 40
2.5
  9
$DIMEXO
 40
1.5
  9
$DIMDLI
 40
3.75
  9
$DIMRND
 40
0.0
  9
$DIMDLE
 40
0.0
  9
$DIMEXE
 40
1.5
  9
$DIMTP
 40
0.0
  9
$DIMTM
 40
0.0
  9
$DIMTXT
 40
3.20000005
  9
$DIMCEN
 40
2.5
  9
$DIMTSZ
 40
0.0
  9
$DIMTOL
 70
       0
  9
$DIMLIM
 70
       0
  9
$DIMTIH
 70
       0
  9
$DIMTOH
 70
       0
  9
$DIMSE1
 70
       0
  9
$DIMSE2
 70
       0
  9
$DIMTAD
 70
       1
  9
$DIMZIN
 70
       8
  9
$DIMBLK
  1

  9
$DIMASO
 70
       1
  9
$DIMSHO
 70
       1
  9
$DIMPOST
  1

  9
$DIMAPOST
  1

  9
$DIMALT
 70
       0
  9
$DIMALTD
 70
       4
  9
$DIMALTF
 40
0.03937008
  9
$DIMLFAC
 40
1.0
  9
$DIMTOFL
 70
       1
  9
$DIMTVP
 40
0.0
  9
$DIMTIX
 70
       0
  9
$DIMSOXD
 70
       0
  9
$DIMSAH
 70
       1
  9
$DIMBLK1
  1
_OPEN30
  9
$DIMBLK2
  1
_OPEN30
  9
$DIMSTYLE
  2
MXDIMSTYLE
  9
$DIMCLRD
 70
       0
  9
$DIMCLRE
 70
       0
  9
$DIMCLRT
 70
       0
  9
$DIMTFAC
 40
1.0
  9
$DIMGAP
 40
1.0
  9
$DIMJUST
 70
       0
  9
$DIMSD1
 70
       0
  9
$DIMSD2
 70
       0
  9
$DIMTOLJ
 70
       0
  9
$DIMTZIN
 70
       0
  9
$DIMALTZ
 70
       0
  9
$DIMALTTZ
 70
       0
  9
$DIMFIT
 70
       3
  9
$DIMUPT
 70
       1
  9
$DIMUNIT
 70
       2
  9
$DIMDEC
 70
       2
  9
$DIMTDEC
 70
       2
  9
$DIMALTU
 70
       2
  9
$DIMALTTD
 70
       4
  9
$DIMTXSTY
  7
MX_NOTE_STANDARD
  9
$DIMAUNIT
 70
       0
  9
$LUNITS
 70
       2
  9
$LUPREC
 70
       4
  9
$SKETCHINC
 40
0.1
  9
$FILLETRAD
 40
0.0
  9
$AUNITS
 70
       0
  9
$AUPREC
 70
       0
  9
$MENU
  1
acad
  9
$ELEVATION
 40
0.0
  9
$PELEVATION
 40
0.0
  9
$THICKNESS
 40
0.0
  9
$LIMCHECK
 70
       0
  9
$BLIPMODE
 70
       1
  9
$CHAMFERA
 40
0.0
  9
$CHAMFERB
 40
0.0
  9
$CHAMFERC
 40
0.0
  9
$CHAMFERD
 40
0.0
  9
$SKPOLY
 70
       0
  9
$TDCREATE
 40
2454440.658449074
  9
$TDUPDATE
 40
2454440.658449074
  9
$TDINDWG
 40
0.0000000000
  9
$TDUSRTIMER
 40
0.0000000000
  9
$USRTIMER
 70
       1
  9
$ANGBASE
 50
0.0
  9
$ANGDIR
 70
       0
  9
$PDMODE
 70
       0
  9
$PDSIZE
 40
0.0
  9
$PLINEWID
 40
0.0
  9
$COORDS
 70
       1
  9
$SPLFRAME
 70
       0
  9
$SPLINETYPE
 70
       6
  9
$SPLINESEGS
 70
       8
  9
$ATTDIA
 70
       0
  9
$ATTREQ
 70
       1
  9
$HANDLING
 70
       1
  9
$HANDSEED
  5
17E
  9
$SURFTAB1
 70
       6
  9
$SURFTAB2
 70
       6
  9
$SURFTYPE
 70
       6
  9
$SURFU
 70
       6
  9
$SURFV
 70
       6
  9
$UCSNAME
  2

  9
$UCSORG
 10
0.0
 20
0.0
 30
0.0
  9
$UCSXDIR
 10
1.0
 20
0.0
 30
0.0
  9
$UCSYDIR
 10
0.0
 20
1.0
 30
0.0
  9
$PUCSNAME
  2

  9
$PUCSORG
 10
0.0
 20
0.0
 30
0.0
  9
$PUCSXDIR
 10
1.0
 20
0.0
 30
0.0
  9
$PUCSYDIR
 10
0.0
 20
1.0
 30
0.0
  9
$USERI1
 70
       0
  9
$USERI2
 70
       0
  9
$USERI3
 70
       0
  9
$USERI4
 70
       0
  9
$USERI5
 70
       0
  9
$USERR1
 40
0.0
  9
$USERR2
 40
0.0
  9
$USERR3
 40
0.0
  9
$USERR4
 40
0.0
  9
$USERR5
 40
0.0
  9
$WORLDVIEW
 70
       1
  9
$SHADEDGE
 70
       3
  9
$SHADEDIF
 70
      70
  9
$TILEMODE
 70
       1
  9
$MAXACTVP
 70
      16
  9
$PINSBASE
 10
0.0
 20
0.0
 30
0.0
  9
$PLIMCHECK
 70
       0
  9
$PEXTMIN
 10
1.00000000E+20
 20
1.00000000E+20
 30
1.00000000E+20
  9
$PEXTMAX
 10
-1.00000000E+20
 20
-1.00000000E+20
 30
-1.00000000E+20
  9
$PLIMMIN
 10
0.0
 20
0.0
  9
$PLIMMAX
 10
12.0
 20
9.0
  9
$UNITMODE
 70
       0
  9
$VISRETAIN
 70
       0
  9
$PLINEGEN
 70
       1
  9
$PSLTSCALE
 70
       0
  9
$TREEDEPTH
 70
    3020
  9
$PICKSTYLE
 70
       1
  9
$CMLSTYLE
  2
Standard
  9
$CMLJUST
 70
       0
  9
$CMLSCALE
 40
1.0
  9
$SAVEIMAGES
 70
       0
  0
ENDSEC
  0
SECTION
  2
CLASSES
  0
CLASS
  1
LWPOLYLINE
  2
AcDbPolyline
  3
"AutoCAD"
 90
    32768
280
       0
281
       1
  0
CLASS
  1
IMAGE
  2
AcDbRasterImage
  3
ISM
 90
    32895
280
       0
281
       1
  0
CLASS
  1
OLE2FRAME
  2
AcDbOle2Frame
  3
""
 90
    32768
280
       0
281
       1
  0
CLASS
  1
HATCH
  2
AcDbHatch
  3
"ACAD_SEDONA"
 90
    32768
280
       0
281
       1
  0
CLASS
  1
DICTIONARYVAR
  2
AcDbDictionaryVar
  3
"AutoCAD"
 90
    32768
280
       0
281
       0
  0
CLASS
  1
RASTERVARIABLES
  2
AcDbRasterVariables
  3
ISM
 90
    32768
280
       0
281
       0
  0
CLASS
  1
IMAGEDEF
  2
AcDbRasterImageDef
  3
ISM
 90
    32768
280
       0
281
       0
  0
CLASS
  1
IMAGEDEF_REACTOR
  2
AcDbRasterImageDefReactor
  3
ISM
 90
    32769
280
       0
281
       0
  0
CLASS
  1
IDBUFFER
  2
AcDbIdBuffer
  3
"Acad"
 90
    32768
280
       0
281
       0
  0
CLASS
  1
SPATIAL_FILTER
  2
AcDbSpatialFilter
  3
"Acad"
 90
    32768
280
       0
281
       0
  0
CLASS
  1
XRECORD
  2
AcDbXrecord
  3
"<Built In>"
 90
    32768
280
       0
281
       0
  0
CLASS
  1
SORTENTSTABLE
  2
AcDbSortentsTable
  3
"AutoCAD"
 90
    32768
280
       0
281
       0
  0
CLASS
  1
LAYER_INDEX
  2
AcDbLayerIndex
  3
"Acad"
 90
    32768
280
       0
281
       0
  0
CLASS
  1
SPATIAL_INDEX
  2
AcDbSpatialIndex
  3
"Acad"
 90
    32768
280
       0
281
       0
  0
CLASS
  1
OBJECT_PTR
  2
CAseDLPNTableRecord
  3
"ASE-LPNTableRecord"
 90
    32769
280
       0
281
       0
  0
CLASS
  1
LAYOUT
  2
AcDbLayout
  3
"AutoCAD 2000"
 90
    32768
280
       0
281
       0
  0
CLASS
  1
PLOTSETTINGS
  2
AcDbPlotSettings
  3
"AutoCAD 2000"
 90
    32768
280
       0
281
       0
  0
CLASS
  1
ACDBDICTIONARYWDFLT
  2
AcDbDictionaryWithDefault
  3
"AutoCAD 2000"
 90
    32768
280
       0
281
       0
  0
CLASS
  1
ACDBPLACEHOLDER
  2
AcDbPlaceHolder
  3
"AutoCAD 2000"
 90
    32768
280
       0
281
       0
  0
ENDSEC
  0
SECTION
  2
TABLES
  0
TABLE
  2
VPORT
  5
7
100
AcDbSymbolTable
 70
       1
  0
VPORT
  5
15
100
AcDbSymbolTableRecord
100
AcDbViewportTableRecord
  2
*ACTIVE
 70
       0
 10
0.0
 20
0.0
 11
1.0
 21
1.0
 12
0.0
 22
0.0
 13
0.0
 23
0.0
 14
1.0
 24
1.0
 15
0.0
 25
0.0
 16
0.0
 26
0.0
 36
1.0
 17
0.0
 27
0.0
 37
0.0
 40
299.97
 41
1.73205081
 42
50.0
 43
0.0
 44
0.0
 50
0.0
 51
0.0
 71
       0
 72
     100
 73
       1
 74
       1
 75
       0
 76
       0
 77
       0
 78
       0
  0
ENDTAB
  0
TABLE
  2
LTYPE
  5
4
100
AcDbSymbolTable
 70
       3
  0
LTYPE
  5
11
100
AcDbSymbolTableRecord
100
AcDbLinetypeTableRecord
  2
BYBLOCK
 70
      64
  3

 72
      65
 73
       0
 40
0.0
  0
LTYPE
  5
12
100
AcDbSymbolTableRecord
100
AcDbLinetypeTableRecord
  2
BYLAYER
 70
      64
  3

 72
      65
 73
       0
 40
0.0
  0
LTYPE
  5
13
100
AcDbSymbolTableRecord
100
AcDbLinetypeTableRecord
  2
CONTINUOUS
 70
      64
  3
Solid line
 72
      65
 73
       0
 40
0.0
  0
ENDTAB
  0
TABLE
  2
LAYER
  5
2
100
AcDbSymbolTable
 70
       2
  0
LAYER
  5
14
100
AcDbSymbolTableRecord
100
AcDbLayerTableRecord
  2
0
 70
       0
 62
       7
  6
CONTINUOUS
  0
LAYER
  5
1D
100
AcDbSymbolTableRecord
100
AcDbLayerTableRecord
  2
DEFPOINTS
 70
       0
 62
       7
  6
CONTINUOUS
  0
ENDTAB
  0
TABLE
  2
STYLE
  5
3
100
AcDbSymbolTable
 70
       1
  0
STYLE
  5
17
100
AcDbSymbolTableRecord
100
AcDbTextStyleTableRecord
  2
MX_NOTE_STANDARD
 70
       0
 40
0.0
 41
1.0
 50
0.0
 71
       0
 42
3.20000005
  3
txt.shx
  4
extfont.shx
  0
ENDTAB
  0
TABLE
  2
VIEW
  5
5
100
AcDbSymbolTable
 70
       0
  0
ENDTAB
  0
TABLE
  2
UCS
  5
6
100
AcDbSymbolTable
 70
       0
  0
ENDTAB
  0
TABLE
  2
APPID
  5
8
100
AcDbSymbolTable
 70
       1
  0
APPID
  5
16
100
AcDbSymbolTableRecord
100
AcDbRegAppTableRecord
  2
ACAD
 70
       0
  0
ENDTAB
  0
TABLE
  2
DIMSTYLE
  5
9
100
AcDbSymbolTable
 70
       1
  0
DIMSTYLE
105
18
100
AcDbSymbolTableRecord
100
AcDbDimStyleTableRecord
  2
MXDIMSTYLE
 70
       0
  3

  4

  5

  6
_OPEN30
  7
_OPEN30
 40
1.0
 41
2.5
 42
1.5
 43
3.75
 44
1.5
 45
0.0
 46
0.0
 47
0.0
 48
0.0
 71
       0
 72
       0
 73
       0
 74
       0
 75
       0
 76
       0
 77
       1
 78
       8
140
3.20000005
141
2.5
142
0.0
143
0.03937008
144
1.0
145
0.0
146
1.0
147
1.0
170
       0
171
       4
172
       1
173
       1
174
       0
175
       0
176
       0
177
       0
178
       0
270
       2
271
       2
272
       2
273
       2
274
       4
275
       0
280
       0
281
       0
282
       0
283
       0
284
       0
285
       0
286
       0
287
       3
288
       1
340
17
  0
ENDTAB
  0
TABLE
  2
BLOCK_RECORD
  5
1
100
AcDbSymbolTable
 70
       1
  0
BLOCK_RECORD
  5
A
100
AcDbSymbolTableRecord
100
AcDbBlockTableRecord
  2
*MODEL_SPACE
  0
BLOCK_RECORD
  5
B
100
AcDbSymbolTableRecord
100
AcDbBlockTableRecord
  2
*PAPER_SPACE
  0
BLOCK_RECORD
  5
1E
100
AcDbSymbolTableRecord
100
AcDbBlockTableRecord
  2
_OPEN30
  0
ENDTAB
  0
ENDSEC
  0
SECTION
  2
BLOCKS
  0
BLOCK
  5
D
100
AcDbEntity
  8
0
100
AcDbBlockBegin
  2
*MODEL_SPACE
 70
       0
 10
0.0
 20
0.0
 30
0.0
  3
*MODEL_SPACE
  1

  0
ENDBLK
  5
E
100
AcDbEntity
  8
0
100
AcDbBlockEnd
  0
BLOCK
  5
F
100
AcDbEntity
 67
       1
  8
0
100
AcDbBlockBegin
  2
*PAPER_SPACE
 70
       0
 10
0.0
 20
0.0
 30
0.0
  3
*PAPER_SPACE
  1

  0
ENDBLK
  5
10
100
AcDbEntity
 67
       1
  8
0
100
AcDbBlockEnd
  0
BLOCK
  5
1F
100
AcDbEntity
  8
0
  6
ByBlock
 62
       0
100
AcDbBlockBegin
  2
_OPEN30
 70
       2
 10
0.0
 20
0.0
 30
0.0
  3
_OPEN30
  1

  0
LINE
  5
20
100
AcDbEntity
  8
0
  6
ByBlock
 62
       0
100
AcDbLine
 10
-1.0
 20
0.267949
 30
0.0
 11
0.0
 21
0.0
 31
0.0
  0
LINE
  5
21
100
AcDbEntity
  8
0
  6
ByBlock
 62
       0
100
AcDbLine
 10
0.0
 20
0.0
 30
0.0
 11
-1.0
 21
-0.267949
 31
0.0
  0
LINE
  5
22
100
AcDbEntity
  8
0
  6
ByBlock
 62
       0
100
AcDbLine
 10
0.0
 20
0.0
 30
0.0
 11
-1.0
 21
0.0
 31
0.0
  0
ENDBLK
  5
23
100
AcDbEntity
  8
0
  6
ByBlock
 62
       0
100
AcDbBlockEnd
  0
ENDSEC
  0
SECTION
  2
ENTITIES
  0
LINE
  5
24
100
AcDbEntity
  8
0
  6
CONTINUOUS
 62
       7
100
AcDbLine
 10
131.418595
 20
-27.44999698
 30
0.0
 11
144.77500143
 21
-27.44999698
 31
0.0
  0
LINE
  5
25
100
AcDbEntity
  8
0
  6
CONTINUOUS
 62
       7
100
AcDbLine
 10
131.76500575
 20
26.35000275
 30
0.0
 11
144.77500144
 21
26.35000275
 31
0.0
  0
ARC
  5
26
100
AcDbEntity
  8
0
  6
CONTINUOUS
 62
       7
100
AcDbCircle
 10
131.27500153
 20
-19.44999695
 30
0.0
 40
4.4585
100
AcDbArc
 50
6.43899987
 51
173.56100013
  0
CIRCLE
  5
27
100
AcDbEntity
  8
0
  6
CONTINUOUS
 62
       7
100
AcDbCircle
 10
131.27500153
 20
-19.44999695
 30
0.0
 40
5.0
  0
CIRCLE
  5
28
100
AcDbEntity
  8
0
  6
CONTINUOUS
 62
       7
100
AcDbCircle
 10
131.27500153
 20
-19.44999695
 30
0.0
 40
6.0
  0
LINE
  5
29
100
AcDbEntity
  8
0
  6
CONTINUOUS
 62
       7
100
AcDbLine
 10
131.27500153
 20
-26.37820021
 30
0.0
 11
137.27500153
 21
-22.91409858
 31
0.0
  0
LINE
  5
2A
100
AcDbEntity
  8
0
  6
CONTINUOUS
 62
       7
100
AcDbLine
 10
125.27500153
 20
-22.91409858
 30
0.0
 11
131.27500153
 21
-26.37820021
 31
0.0
  0
LINE
  5
2B
100
AcDbEntity
  8
0
  6
CONTINUOUS
 62
       7
100
AcDbLine
 10
125.27500153
 20
-15.98589532
 30
0.0
 11
125.27500153
 21
-22.91409858
 31
0.0
  0
LINE
  5
2C
100
AcDbEntity
  8
0
  6
CONTINUOUS
 62
       7
100
AcDbLine
 10
131.27500153
 20
-12.52179369
 30
0.0
 11
125.27500153
 21
-15.98589532
 31
0.0
  0
LINE
  5
2D
100
AcDbEntity
  8
0
  6
CONTINUOUS
 62
       7
100
AcDbLine
 10
137.27500153
 20
-15.98589532
 30
0.0
 11
131.27500153
 21
-12.52179369
 31
0.0
  0
LINE
  5
2E
100
AcDbEntity
  8
0
  6
CONTINUOUS
 62
       7
100
AcDbLine
 10
137.27500153
 20
-22.91409858
 30
0.0
 11
137.27500153
 21
-15.98589532
 31
0.0
  0
LINE
  5
2F
100
AcDbEntity
  8
0
  6
CONTINUOUS
 62
       7
100
AcDbLine
 10
131.27500153
 20
-11.36709318
 30
0.0
 11
124.27500153
 21
-15.40854506
 31
0.0
  0
CIRCLE
  5
30
100
AcDbEntity
  8
0
  6
CONTINUOUS
 62
       7
100
AcDbCircle
 10
131.27500153
 20
-19.44999695
 30
0.0
 40
7.0
  0
LINE
  5
31
100
AcDbEntity
  8
0
  6
CONTINUOUS
 62
       7
100
AcDbLine
 10
124.27500153
 20
-15.40854506
 30
0.0
 11
124.27500153
 21
-23.49144883
 31
0.0
  0
LINE
  5
32
100
AcDbEntity
  8
0
  6
CONTINUOUS
 62
       7
100
AcDbLine
 10
124.27500153
 20
-23.49144883
 30
0.0
 11
131.27500153
 21
-27.53290072
 31
0.0
  0
LINE
  5
33
100
AcDbEntity
  8
0
  6
CONTINUOUS
 62
       7
100
AcDbLine
 10
131.27500153
 20
-27.53290072
 30
0.0
 11
138.27500153
 21
-23.49144883
 31
0.0
  0
LINE
  5
34
100
AcDbEntity
  8
0
  6
CONTINUOUS
 62
       7
100
AcDbLine
 10
138.27500153
 20
-23.49144883
 30
0.0
 11
138.27500153
 21
-15.40854506
 31
0.0
  0
LINE
  5
35
100
AcDbEntity
  8
0
  6
CONTINUOUS
 62
       2
100
AcDbLine
 10
140.74743651
 20
-19.44999695
 30
0.0
 11
122.37362959
 21
-19.44999695
 31
0.0
  0
LINE
  5
36
100
AcDbEntity
  8
0
  6
CONTINUOUS
 62
       7
100
AcDbLine
 10
138.27500153
 20
-15.40854506
 30
0.0
 11
131.27500153
 21
-11.36709318
 31
0.0
  0
POINT
  5
37
100
AcDbEntity
  8
0
  6
CONTINUOUS
 62
       7
100
AcDbPoint
 10
131.27500153
 20
-19.44999695
 30
0.0
  0
LINE
  5
38
100
AcDbEntity
  8
0
  6
CONTINUOUS
 62
       7
100
AcDbLine
 10
126.30006434
 20
-18.94999695
 30
0.0
 11
136.24993871
 21
-18.94999695
 31
0.0
  0
LINE
  5
39
100
AcDbEntity
  8
0
  6
CONTINUOUS
 62
       7
100
AcDbLine
 10
126.30006434
 20
-19.94999695
 30
0.0
 11
136.24993871
 21
-19.94999695
 31
0.0
  0
ARC
  5
3A
100
AcDbEntity
  8
0
  6
CONTINUOUS
 62
       7
100
AcDbCircle
 10
131.27500153
 20
-19.44999695
 30
0.0
 40
4.4585
100
AcDbArc
 50
186.43899987
 51
353.56100013
  0
ARC
  5
3B
100
AcDbEntity
  8
0
  6
CONTINUOUS
 62
       7
100
AcDbCircle
 10
131.27500153
 20
18.55000305
 30
0.0
 40
4.4585
100
AcDbArc
 50
6.43899987
 51
173.56100013
  0
CIRCLE
  5
3C
100
AcDbEntity
  8
0
  6
CONTINUOUS
 62
       7
100
AcDbCircle
 10
131.27500153
 20
18.55000305
 30
0.0
 40
5.0
  0
CIRCLE
  5
3D
100
AcDbEntity
  8
0
  6
CONTINUOUS
 62
       7
100
AcDbCircle
 10
131.27500153
 20
18.55000305
 30
0.0
 40
6.0
  0
LINE
  5
3E
100
AcDbEntity
  8
0
  6
CONTINUOUS
 62
       7
100
AcDbLine
 10
131.27500153
 20
11.62179979
 30
0.0
 11
137.27500153
 21
15.08590142
 31
0.0
  0
LINE
  5
3F
100
AcDbEntity
  8
0
  6
CONTINUOUS
 62
       7
100
AcDbLine
 10
125.27500153
 20
15.08590142
 30
0.0
 11
131.27500153
 21
11.62179979
 31
0.0
  0
LINE
  5
40
100
AcDbEntity
  8
0
  6
CONTINUOUS
 62
       7
100
AcDbLine
 10
125.27500153
 20
22.01410468
 30
0.0
 11
125.27500153
 21
15.08590142
 31
0.0
  0
LINE
  5
41
100
AcDbEntity
  8
0
  6
CONTINUOUS
 62
       7
100
AcDbLine
 10
131.27500153
 20
25.47820631
 30
0.0
 11
125.27500153
 21
22.01410468
 31
0.0
  0
LINE
  5
42
100
AcDbEntity
  8
0
  6
CONTINUOUS
 62
       7
100
AcDbLine
 10
137.27500153
 20
22.01410468
 30
0.0
 11
131.27500153
 21
25.47820631
 31
0.0
  0
LINE
  5
43
100
AcDbEntity
  8
0
  6
CONTINUOUS
 62
       7
100
AcDbLine
 10
137.27500153
 20
15.08590142
 30
0.0
 11
137.27500153
 21
22.01410468
 31
0.0
  0
LINE
  5
44
100
AcDbEntity
  8
0
  6
CONTINUOUS
 62
       7
100
AcDbLine
 10
131.27500153
 20
26.63290682
 30
0.0
 11
124.27500153
 21
22.59145494
 31
0.0
  0
CIRCLE
  5
45
100
AcDbEntity
  8
0
  6
CONTINUOUS
 62
       7
100
AcDbCircle
 10
131.27500153
 20
18.55000305
 30
0.0
 40
7.0
  0
LINE
  5
46
100
AcDbEntity
  8
0
  6
CONTINUOUS
 62
       7
100
AcDbLine
 10
124.27500153
 20
22.59145494
 30
0.0
 11
124.27500153
 21
14.50855117
 31
0.0
  0
LINE
  5
47
100
AcDbEntity
  8
0
  6
CONTINUOUS
 62
       7
100
AcDbLine
 10
124.27500153
 20
14.50855117
 30
0.0
 11
131.27500153
 21
10.46709928
 31
0.0
  0
LINE
  5
48
100
AcDbEntity
  8
0
  6
CONTINUOUS
 62
       7
100
AcDbLine
 10
131.27500153
 20
10.46709928
 30
0.0
 11
138.27500153
 21
14.50855117
 31
0.0
  0
LINE
  5
49
100
AcDbEntity
  8
0
  6
CONTINUOUS
 62
       7
100
AcDbLine
 10
138.27500153
 20
14.50855117
 30
0.0
 11
138.27500153
 21
22.59145494
 31
0.0
  0
LINE
  5
4A
100
AcDbEntity
  8
0
  6
CONTINUOUS
 62
       2
100
AcDbLine
 10
140.74743651
 20
18.55000305
 30
0.0
 11
122.37362959
 21
18.55000305
 31
0.0
  0
LINE
  5
4B
100
AcDbEntity
  8
0
  6
CONTINUOUS
 62
       7
100
AcDbLine
 10
138.27500153
 20
22.59145494
 30
0.0
 11
131.27500153
 21
26.63290682
 31
0.0
  0
POINT
  5
4C
100
AcDbEntity
  8
0
  6
CONTINUOUS
 62
       7
100
AcDbPoint
 10
131.27500153
 20
18.55000305
 30
0.0
  0
LINE
  5
4D
100
AcDbEntity
  8
0
  6
CONTINUOUS
 62
       7
100
AcDbLine
 10
126.30006434
 20
19.05000305
 30
0.0
 11
136.24993871
 21
19.05000305
 31
0.0
  0
LINE
  5
4E
100
AcDbEntity
  8
0
  6
CONTINUOUS
 62
       7
100
AcDbLine
 10
126.30006434
 20
18.05000305
 30
0.0
 11
136.24993871
 21
18.05000305
 31
0.0
  0
ARC
  5
4F
100
AcDbEntity
  8
0
  6
CONTINUOUS
 62
       7
100
AcDbCircle
 10
131.27500153
 20
18.55000305
 30
0.0
 40
4.4585
100
AcDbArc
 50
186.43899987
 51
353.56100013
  0
LINE
  5
50
100
AcDbEntity
  8
0
  6
CONTINUOUS
 62
       7
100
AcDbLine
 10
22.47500141
 20
-12.74638417
 30
0.0
 11
18.77500141
 21
-12.86200917
 31
0.0
  0
LINE
  5
51
100
AcDbEntity
  8
0
  6
CONTINUOUS
 62
       7
100
AcDbLine
 10
22.47500141
 20
-26.15361033
 30
0.0
 11
18.77500141
 21
-26.03798533
 31
0.0
  0
LINE
  5
52
100
AcDbEntity
  8
0
  6
CONTINUOUS
 62
       7
100
AcDbLine
 10
23.1002162
 20
-27.53290102
 30
0.0
 11
32.84978663
 21
-27.53290102
 31
0.0
  0
LINE
  5
53
100
AcDbEntity
  8
0
  6
CONTINUOUS
 62
       7
100
AcDbLine
 10
33.47500141
 20
-26.44999725
 30
0.0
 11
32.84978663
 21
-27.53290102
 31
0.0
  0
LINE
  5
54
100
AcDbEntity
  8
0
  6
CONTINUOUS
 62
       7
100
AcDbLine
 10
33.47500141
 20
-26.44999725
 30
0.0
 11
33.47500141
 21
-12.44999725
 31
0.0
  0
LINE
  5
55
100
AcDbEntity
  8
0
  6
CONTINUOUS
 62
       7
100
AcDbLine
 10
33.47500141
 20
-12.44999725
 30
0.0
 11
32.84978663
 21
-11.36709348
 31
0.0
  0
LINE
  5
56
100
AcDbEntity
  8
0
  6
CONTINUOUS
 62
       7
100
AcDbLine
 10
23.1002162
 20
-11.36709348
 30
0.0
 11
32.84978663
 21
-11.36709348
 31
0.0
  0
LINE
  5
57
100
AcDbEntity
  8
0
  6
CONTINUOUS
 62
       2
100
AcDbLine
 10
25.47500141
 20
-23.38778027
 30
0.0
 11
25.47500141
 21
-15.43693438
 31
0.0
  0
LINE
  5
58
100
AcDbEntity
  8
0
  6
CONTINUOUS
 62
       2
100
AcDbLine
 10
20.90760251
 20
-13.65132235
 30
0.0
 11
18.77500141
 21
-13.71796614
 31
0.0
  0
LINE
  5
59
100
AcDbEntity
  8
0
  6
CONTINUOUS
 62
       2
100
AcDbLine
 10
20.90760251
 20
-25.24867215
 30
0.0
 11
18.77500141
 21
-25.18202837
 31
0.0
  0
LINE
  5
5A
100
AcDbEntity
  8
0
  6
CONTINUOUS
 62
       7
100
AcDbLine
 10
22.47500141
 20
-26.15361033
 30
0.0
 11
20.90760251
 21
-25.24867215
 31
0.0
  0
LINE
  5
5B
100
AcDbEntity
  8
0
  6
CONTINUOUS
 62
       7
100
AcDbLine
 10
22.47500141
 20
-12.74638417
 30
0.0
 11
20.90760251
 21
-13.65132235
 31
0.0
  0
LINE
  5
5C
100
AcDbEntity
  8
0
  6
CONTINUOUS
 62
       7
100
AcDbLine
 10
20.90760251
 20
-26.10462912
 30
0.0
 11
20.90760251
 21
-12.79536539
 31
0.0
  0
ARC
  5
5D
100
AcDbEntity
  8
0
  6
CONTINUOUS
 62
       7
100
AcDbCircle
 10
26.01090011
 20
-19.44999725
 30
0.0
 40
11.46410131
100
AcDbArc
 50
342.41204566
 51
17.58795434
  0
ARC
  5
5E
100
AcDbEntity
  8
0
  6
CONTINUOUS
 62
       7
100
AcDbCircle
 10
34.40801419
 20
-24.64614965
 30
0.0
 40
3.06698723
100
AcDbArc
 50
334.38424266
 51
34.38424782
  0
ARC
  5
5F
100
AcDbEntity
  8
0
  6
CONTINUOUS
 62
       7
100
AcDbCircle
 10
34.40801419
 20
-14.25384485
 30
0.0
 40
3.06698723
100
AcDbArc
 50
325.61575218
 51
25.61575734
  0
LINE
  5
60
100
AcDbEntity
  8
0
  6
CONTINUOUS
 62
       7
100
AcDbLine
 10
33.47500141
 20
-15.98589562
 30
0.0
 11
36.93910301
 21
-15.98589562
 31
0.0
  0
LINE
  5
61
100
AcDbEntity
  8
0
  6
CONTINUOUS
 62
       7
100
AcDbLine
 10
33.47500141
 20
-22.91409888
 30
0.0
 11
36.93910301
 21
-22.91409888
 31
0.0
  0
LINE
  5
62
100
AcDbEntity
  8
0
  6
CONTINUOUS
 62
       7
100
AcDbLine
 10
36.93910301
 20
-26.37820051
 30
0.0
 11
37.47500141
 21
-25.44999725
 31
0.0
  0
LINE
  5
63
100
AcDbEntity
  8
0
  6
CONTINUOUS
 62
       7
100
AcDbLine
 10
33.47500141
 20
-26.37820051
 30
0.0
 11
36.93910301
 21
-26.37820051
 31
0.0
  0
LINE
  5
64
100
AcDbEntity
  8
0
  6
CONTINUOUS
 62
       7
100
AcDbLine
 10
36.93910301
 20
-12.52179399
 30
0.0
 11
33.47500141
 21
-12.52179399
 31
0.0
  0
LINE
  5
65
100
AcDbEntity
  8
0
  6
CONTINUOUS
 62
       7
100
AcDbLine
 10
37.47500141
 20
-13.44999725
 30
0.0
 11
36.93910301
 21
-12.52179399
 31
0.0
  0
LINE
  5
66
100
AcDbEntity
  8
0
  6
CONTINUOUS
 62
       7
100
AcDbLine
 10
37.47500141
 20
-25.44999725
 30
0.0
 11
37.47500141
 21
-13.44999725
 31
0.0
  0
LINE
  5
67
100
AcDbEntity
  8
0
  6
CONTINUOUS
 62
       7
100
AcDbLine
 10
40.97500141
 20
-14.44999725
 30
0.0
 11
40.97500141
 21
-18.94999725
 31
0.0
  0
LINE
  5
68
100
AcDbEntity
  8
0
  6
CONTINUOUS
 62
       7
100
AcDbLine
 10
41.47500141
 20
-18.94999725
 30
0.0
 11
39.47500141
 21
-18.94999725
 31
0.0
  0
LINE
  5
69
100
AcDbEntity
  8
0
  6
CONTINUOUS
 62
       7
100
AcDbLine
 10
41.47500141
 20
-14.94999725
 30
0.0
 11
41.47500141
 21
-18.94999725
 31
0.0
  0
LINE
  5
6A
100
AcDbEntity
  8
0
  6
CONTINUOUS
 62
       7
100
AcDbLine
 10
39.47500141
 20
-19.94999725
 30
0.0
 11
39.47500141
 21
-18.94999725
 31
0.0
  0
LINE
  5
6B
100
AcDbEntity
  8
0
  6
CONTINUOUS
 62
       7
100
AcDbLine
 10
41.47500141
 20
-19.94999725
 30
0.0
 11
39.47500141
 21
-19.94999725
 31
0.0
  0
LINE
  5
6C
100
AcDbEntity
  8
0
  6
CONTINUOUS
 62
       7
100
AcDbLine
 10
40.97500141
 20
-14.44999725
 30
0.0
 11
37.47500141
 21
-14.44999725
 31
0.0
  0
LINE
  5
6D
100
AcDbEntity
  8
0
  6
CONTINUOUS
 62
       2
100
AcDbLine
 10
41.47500141
 20
-14.94999725
 30
0.0
 11
37.47500141
 21
-14.94999725
 31
0.0
  0
LINE
  5
6E
100
AcDbEntity
  8
0
  6
CONTINUOUS
 62
       7
100
AcDbLine
 10
40.97500141
 20
-14.44999725
 30
0.0
 11
41.47500141
 21
-14.94999725
 31
0.0
  0
LINE
  5
6F
100
AcDbEntity
  8
0
  6
CONTINUOUS
 62
       7
100
AcDbLine
 10
40.97500141
 20
-24.44999725
 30
0.0
 11
40.97500141
 21
-19.94999725
 31
0.0
  0
LINE
  5
70
100
AcDbEntity
  8
0
  6
CONTINUOUS
 62
       7
100
AcDbLine
 10
40.97500141
 20
-24.44999725
 30
0.0
 11
41.47500141
 21
-23.94999725
 31
0.0
  0
LINE
  5
71
100
AcDbEntity
  8
0
  6
CONTINUOUS
 62
       2
100
AcDbLine
 10
41.47500141
 20
-23.94999725
 30
0.0
 11
37.47500141
 21
-23.94999725
 31
0.0
  0
LINE
  5
72
100
AcDbEntity
  8
0
  6
CONTINUOUS
 62
       7
100
AcDbLine
 10
40.97500141
 20
-24.44999725
 30
0.0
 11
37.47500141
 21
-24.44999725
 31
0.0
  0
LINE
  5
73
100
AcDbEntity
  8
0
  6
CONTINUOUS
 62
       7
100
AcDbLine
 10
41.47500141
 20
-23.94999725
 30
0.0
 11
41.47500141
 21
-19.94999725
 31
0.0
  0
CIRCLE
  5
74
100
AcDbEntity
  8
0
  6
CONTINUOUS
 62
       7
100
AcDbCircle
 10
25.47500141
 20
-19.44999725
 30
0.0
 40
2.5
  0
LINE
  5
75
100
AcDbEntity
  8
0
  6
CONTINUOUS
 62
       7
100
AcDbLine
 10
23.1002162
 20
-15.40854537
 30
0.0
 11
32.84978663
 21
-15.40854537
 31
0.0
  0
LINE
  5
76
100
AcDbEntity
  8
0
  6
CONTINUOUS
 62
       7
100
AcDbLine
 10
23.1002162
 20
-23.49144914
 30
0.0
 11
32.84978663
 21
-23.49144914
 31
0.0
  0
LINE
  5
77
100
AcDbEntity
  8
0
  6
CONTINUOUS
 62
       7
100
AcDbLine
 10
22.47500141
 20
-12.44999725
 30
0.0
 11
23.1002162
 21
-11.36709348
 31
0.0
  0
LINE
  5
78
100
AcDbEntity
  8
0
  6
CONTINUOUS
 62
       7
100
AcDbLine
 10
22.47500141
 20
-26.44999725
 30
0.0
 11
23.1002162
 21
-27.53290102
 31
0.0
  0
LINE
  5
79
100
AcDbEntity
  8
0
  6
CONTINUOUS
 62
       7
100
AcDbLine
 10
22.47500141
 20
-26.44999725
 30
0.0
 11
22.47500141
 21
-12.44999725
 31
0.0
  0
ARC
  5
7A
100
AcDbEntity
  8
0
  6
CONTINUOUS
 62
       7
100
AcDbCircle
 10
26.05315326
 20
-13.38781943
 30
0.0
 40
3.57815185
100
AcDbArc
 50
145.61575253
 51
214.38424747
  0
ARC
  5
7B
100
AcDbEntity
  8
0
  6
CONTINUOUS
 62
       7
100
AcDbCircle
 10
29.89684957
 20
-13.38781943
 30
0.0
 40
3.57815185
100
AcDbArc
 50
325.61575253
 51
34.38424747
  0
ARC
  5
7C
100
AcDbEntity
  8
0
  6
CONTINUOUS
 62
       7
100
AcDbCircle
 10
26.05315326
 20
-25.51217508
 30
0.0
 40
3.57815185
100
AcDbArc
 50
145.61575253
 51
214.38424747
  0
ARC
  5
7D
100
AcDbEntity
  8
0
  6
CONTINUOUS
 62
       7
100
AcDbCircle
 10
29.89684957
 20
-25.51217508
 30
0.0
 40
3.57815185
100
AcDbArc
 50
325.61575253
 51
34.38424747
  0
ARC
  5
7E
100
AcDbEntity
  8
0
  6
CONTINUOUS
 62
       7
100
AcDbCircle
 10
20.1002162
 20
-19.44999725
 30
0.0
 40
13.37478522
100
AcDbArc
 50
342.41204623
 51
17.58795377
  0
ARC
  5
7F
100
AcDbEntity
  8
0
  6
CONTINUOUS
 62
       7
100
AcDbCircle
 10
35.84978663
 20
-19.44999725
 30
0.0
 40
13.37478522
100
AcDbArc
 50
162.41204623
 51
197.58795377
  0
POINT
  5
80
100
AcDbEntity
  8
0
  6
CONTINUOUS
 62
       7
100
AcDbPoint
 10
18.77500141
 20
-19.44999725
 30
0.0
  0
LINE
  5
81
100
AcDbEntity
  8
0
  6
CONTINUOUS
 62
       2
100
AcDbLine
 10
10.52035113
 20
-19.44999725
 30
0.0
 11
43.64084286
 21
-19.44999725
 31
0.0
  0
LINE
  5
82
100
AcDbEntity
  8
0
  6
CONTINUOUS
 62
       7
100
AcDbLine
 10
22.47500141
 20
25.25361583
 30
0.0
 11
18.77500141
 21
25.13799083
 31
0.0
  0
LINE
  5
83
100
AcDbEntity
  8
0
  6
CONTINUOUS
 62
       7
100
AcDbLine
 10
22.47500141
 20
11.84638967
 30
0.0
 11
18.77500141
 21
11.96201467
 31
0.0
  0
LINE
  5
84
100
AcDbEntity
  8
0
  6
CONTINUOUS
 62
       7
100
AcDbLine
 10
23.1002162
 20
10.46709898
 30
0.0
 11
32.84978663
 21
10.46709898
 31
0.0
  0
LINE
  5
85
100
AcDbEntity
  8
0
  6
CONTINUOUS
 62
       7
100
AcDbLine
 10
33.47500141
 20
11.55000275
 30
0.0
 11
32.84978663
 21
10.46709898
 31
0.0
  0
LINE
  5
86
100
AcDbEntity
  8
0
  6
CONTINUOUS
 62
       7
100
AcDbLine
 10
33.47500141
 20
11.55000275
 30
0.0
 11
33.47500141
 21
25.55000275
 31
0.0
  0
LINE
  5
87
100
AcDbEntity
  8
0
  6
CONTINUOUS
 62
       7
100
AcDbLine
 10
33.47500141
 20
25.55000275
 30
0.0
 11
32.84978663
 21
26.63290652
 31
0.0
  0
LINE
  5
88
100
AcDbEntity
  8
0
  6
CONTINUOUS
 62
       7
100
AcDbLine
 10
23.1002162
 20
26.63290652
 30
0.0
 11
32.84978663
 21
26.63290652
 31
0.0
  0
LINE
  5
89
100
AcDbEntity
  8
0
  6
CONTINUOUS
 62
       2
100
AcDbLine
 10
25.47500141
 20
14.61221973
 30
0.0
 11
25.47500141
 21
22.56306562
 31
0.0
  0
LINE
  5
8A
100
AcDbEntity
  8
0
  6
CONTINUOUS
 62
       2
100
AcDbLine
 10
20.90760251
 20
24.34867765
 30
0.0
 11
18.77500141
 21
24.28203386
 31
0.0
  0
LINE
  5
8B
100
AcDbEntity
  8
0
  6
CONTINUOUS
 62
       2
100
AcDbLine
 10
20.90760251
 20
12.75132785
 30
0.0
 11
18.77500141
 21
12.81797163
 31
0.0
  0
LINE
  5
8C
100
AcDbEntity
  8
0
  6
CONTINUOUS
 62
       7
100
AcDbLine
 10
22.47500141
 20
11.84638967
 30
0.0
 11
20.90760251
 21
12.75132785
 31
0.0
  0
LINE
  5
8D
100
AcDbEntity
  8
0
  6
CONTINUOUS
 62
       7
100
AcDbLine
 10
22.47500141
 20
25.25361583
 30
0.0
 11
20.90760251
 21
24.34867765
 31
0.0
  0
LINE
  5
8E
100
AcDbEntity
  8
0
  6
CONTINUOUS
 62
       7
100
AcDbLine
 10
20.90760251
 20
11.89537088
 30
0.0
 11
20.90760251
 21
25.20463461
 31
0.0
  0
ARC
  5
8F
100
AcDbEntity
  8
0
  6
CONTINUOUS
 62
       7
100
AcDbCircle
 10
26.01090011
 20
18.55000275
 30
0.0
 40
11.46410131
100
AcDbArc
 50
342.41204566
 51
17.58795434
  0
ARC
  5
90
100
AcDbEntity
  8
0
  6
CONTINUOUS
 62
       7
100
AcDbCircle
 10
34.40801419
 20
13.35385035
 30
0.0
 40
3.06698723
100
AcDbArc
 50
334.38424266
 51
34.38424782
  0
ARC
  5
91
100
AcDbEntity
  8
0
  6
CONTINUOUS
 62
       7
100
AcDbCircle
 10
34.40801419
 20
23.74615515
 30
0.0
 40
3.06698723
100
AcDbArc
 50
325.61575218
 51
25.61575734
  0
LINE
  5
92
100
AcDbEntity
  8
0
  6
CONTINUOUS
 62
       7
100
AcDbLine
 10
33.47500141
 20
22.01410438
 30
0.0
 11
36.93910301
 21
22.01410438
 31
0.0
  0
LINE
  5
93
100
AcDbEntity
  8
0
  6
CONTINUOUS
 62
       7
100
AcDbLine
 10
33.47500141
 20
15.08590112
 30
0.0
 11
36.93910301
 21
15.08590112
 31
0.0
  0
LINE
  5
94
100
AcDbEntity
  8
0
  6
CONTINUOUS
 62
       7
100
AcDbLine
 10
36.93910301
 20
11.62179949
 30
0.0
 11
37.47500141
 21
12.55000275
 31
0.0
  0
LINE
  5
95
100
AcDbEntity
  8
0
  6
CONTINUOUS
 62
       7
100
AcDbLine
 10
33.47500141
 20
11.62179949
 30
0.0
 11
36.93910301
 21
11.62179949
 31
0.0
  0
LINE
  5
96
100
AcDbEntity
  8
0
  6
CONTINUOUS
 62
       7
100
AcDbLine
 10
36.93910301
 20
25.47820601
 30
0.0
 11
33.47500141
 21
25.47820601
 31
0.0
  0
LINE
  5
97
100
AcDbEntity
  8
0
  6
CONTINUOUS
 62
       7
100
AcDbLine
 10
37.47500141
 20
24.55000275
 30
0.0
 11
36.93910301
 21
25.47820601
 31
0.0
  0
LINE
  5
98
100
AcDbEntity
  8
0
  6
CONTINUOUS
 62
       7
100
AcDbLine
 10
37.47500141
 20
12.55000275
 30
0.0
 11
37.47500141
 21
24.55000275
 31
0.0
  0
LINE
  5
99
100
AcDbEntity
  8
0
  6
CONTINUOUS
 62
       7
100
AcDbLine
 10
40.97500141
 20
23.55000275
 30
0.0
 11
40.97500141
 21
19.05000275
 31
0.0
  0
LINE
  5
9A
100
AcDbEntity
  8
0
  6
CONTINUOUS
 62
       7
100
AcDbLine
 10
41.47500141
 20
19.05000275
 30
0.0
 11
39.47500141
 21
19.05000275
 31
0.0
  0
LINE
  5
9B
100
AcDbEntity
  8
0
  6
CONTINUOUS
 62
       7
100
AcDbLine
 10
41.47500141
 20
23.05000275
 30
0.0
 11
41.47500141
 21
19.05000275
 31
0.0
  0
LINE
  5
9C
100
AcDbEntity
  8
0
  6
CONTINUOUS
 62
       7
100
AcDbLine
 10
39.47500141
 20
18.05000275
 30
0.0
 11
39.47500141
 21
19.05000275
 31
0.0
  0
LINE
  5
9D
100
AcDbEntity
  8
0
  6
CONTINUOUS
 62
       7
100
AcDbLine
 10
41.47500141
 20
18.05000275
 30
0.0
 11
39.47500141
 21
18.05000275
 31
0.0
  0
LINE
  5
9E
100
AcDbEntity
  8
0
  6
CONTINUOUS
 62
       7
100
AcDbLine
 10
40.97500141
 20
23.55000275
 30
0.0
 11
37.47500141
 21
23.55000275
 31
0.0
  0
LINE
  5
9F
100
AcDbEntity
  8
0
  6
CONTINUOUS
 62
       2
100
AcDbLine
 10
41.47500141
 20
23.05000275
 30
0.0
 11
37.47500141
 21
23.05000275
 31
0.0
  0
LINE
  5
A0
100
AcDbEntity
  8
0
  6
CONTINUOUS
 62
       7
100
AcDbLine
 10
40.97500141
 20
23.55000275
 30
0.0
 11
41.47500141
 21
23.05000275
 31
0.0
  0
LINE
  5
A1
100
AcDbEntity
  8
0
  6
CONTINUOUS
 62
       7
100
AcDbLine
 10
40.97500141
 20
13.55000275
 30
0.0
 11
40.97500141
 21
18.05000275
 31
0.0
  0
LINE
  5
A2
100
AcDbEntity
  8
0
  6
CONTINUOUS
 62
       7
100
AcDbLine
 10
40.97500141
 20
13.55000275
 30
0.0
 11
41.47500141
 21
14.05000275
 31
0.0
  0
LINE
  5
A3
100
AcDbEntity
  8
0
  6
CONTINUOUS
 62
       2
100
AcDbLine
 10
41.47500141
 20
14.05000275
 30
0.0
 11
37.47500141
 21
14.05000275
 31
0.0
  0
LINE
  5
A4
100
AcDbEntity
  8
0
  6
CONTINUOUS
 62
       7
100
AcDbLine
 10
40.97500141
 20
13.55000275
 30
0.0
 11
37.47500141
 21
13.55000275
 31
0.0
  0
LINE
  5
A5
100
AcDbEntity
  8
0
  6
CONTINUOUS
 62
       7
100
AcDbLine
 10
41.47500141
 20
14.05000275
 30
0.0
 11
41.47500141
 21
18.05000275
 31
0.0
  0
CIRCLE
  5
A6
100
AcDbEntity
  8
0
  6
CONTINUOUS
 62
       7
100
AcDbCircle
 10
25.47500141
 20
18.55000275
 30
0.0
 40
2.5
  0
LINE
  5
A7
100
AcDbEntity
  8
0
  6
CONTINUOUS
 62
       7
100
AcDbLine
 10
23.1002162
 20
22.59145463
 30
0.0
 11
32.84978663
 21
22.59145463
 31
0.0
  0
LINE
  5
A8
100
AcDbEntity
  8
0
  6
CONTINUOUS
 62
       7
100
AcDbLine
 10
23.1002162
 20
14.50855086
 30
0.0
 11
32.84978663
 21
14.50855086
 31
0.0
  0
LINE
  5
A9
100
AcDbEntity
  8
0
  6
CONTINUOUS
 62
       7
100
AcDbLine
 10
22.47500141
 20
25.55000275
 30
0.0
 11
23.1002162
 21
26.63290652
 31
0.0
  0
LINE
  5
AA
100
AcDbEntity
  8
0
  6
CONTINUOUS
 62
       7
100
AcDbLine
 10
22.47500141
 20
11.55000275
 30
0.0
 11
23.1002162
 21
10.46709898
 31
0.0
  0
LINE
  5
AB
100
AcDbEntity
  8
0
  6
CONTINUOUS
 62
       7
100
AcDbLine
 10
22.47500141
 20
11.55000275
 30
0.0
 11
22.47500141
 21
25.55000275
 31
0.0
  0
ARC
  5
AC
100
AcDbEntity
  8
0
  6
CONTINUOUS
 62
       7
100
AcDbCircle
 10
26.05315326
 20
24.61218057
 30
0.0
 40
3.57815185
100
AcDbArc
 50
145.61575253
 51
214.38424747
  0
ARC
  5
AD
100
AcDbEntity
  8
0
  6
CONTINUOUS
 62
       7
100
AcDbCircle
 10
29.89684957
 20
24.61218057
 30
0.0
 40
3.57815185
100
AcDbArc
 50
325.61575253
 51
34.38424747
  0
ARC
  5
AE
100
AcDbEntity
  8
0
  6
CONTINUOUS
 62
       7
100
AcDbCircle
 10
26.05315326
 20
12.48782492
 30
0.0
 40
3.57815185
100
AcDbArc
 50
145.61575253
 51
214.38424747
  0
ARC
  5
AF
100
AcDbEntity
  8
0
  6
CONTINUOUS
 62
       7
100
AcDbCircle
 10
29.89684957
 20
12.48782492
 30
0.0
 40
3.57815185
100
AcDbArc
 50
325.61575253
 51
34.38424747
  0
ARC
  5
B0
100
AcDbEntity
  8
0
  6
CONTINUOUS
 62
       7
100
AcDbCircle
 10
20.1002162
 20
18.55000275
 30
0.0
 40
13.37478522
100
AcDbArc
 50
342.41204623
 51
17.58795377
  0
ARC
  5
B1
100
AcDbEntity
  8
0
  6
CONTINUOUS
 62
       7
100
AcDbCircle
 10
35.84978663
 20
18.55000275
 30
0.0
 40
13.37478522
100
AcDbArc
 50
162.41204623
 51
197.58795377
  0
POINT
  5
B2
100
AcDbEntity
  8
0
  6
CONTINUOUS
 62
       7
100
AcDbPoint
 10
18.77500141
 20
18.55000275
 30
0.0
  0
LINE
  5
B3
100
AcDbEntity
  8
0
  6
CONTINUOUS
 62
       2
100
AcDbLine
 10
10.52035113
 20
18.55000275
 30
0.0
 11
43.64084286
 21
18.55000275
 31
0.0
  0
LINE
  5
B4
100
AcDbEntity
  8
0
  6
CONTINUOUS
 62
       7
100
AcDbLine
 10
18.77500141
 20
73.55000278
 30
0.0
 11
18.77500141
 21
-74.44999695
 31
0.0
  0
LINE
  5
B5
100
AcDbEntity
  8
0
  6
CONTINUOUS
 62
       7
100
AcDbLine
 10
-18.22499836
 20
73.55000305
 30
0.0
 11
-18.22499836
 21
-74.44999695
 31
0.0
  0
LINE
  5
B6
100
AcDbEntity
  8
0
  6
CONTINUOUS
 62
       7
100
AcDbLine
 10
144.77500144
 20
73.55000278
 30
0.0
 11
144.77500144
 21
-74.44999695
 31
0.0
  0
LINE
  5
B7
100
AcDbEntity
  8
0
  6
CONTINUOUS
 62
       7
100
AcDbLine
 10
117.77500161
 20
73.55000278
 30
0.0
 11
117.77500161
 21
-74.44999695
 31
0.0
  0
LINE
  5
B8
100
AcDbEntity
  8
0
  6
CONTINUOUS
 62
       7
100
AcDbLine
 10
-115.22499839
 20
73.55000278
 30
0.0
 11
-115.22499839
 21
-74.44999695
 31
0.0
  0
LINE
  5
B9
100
AcDbEntity
  8
0
  6
CONTINUOUS
 62
       7
100
AcDbLine
 10
-88.22499856
 20
73.55000278
 30
0.0
 11
-88.22499856
 21
-74.44999695
 31
0.0
  0
LINE
  5
BA
100
AcDbEntity
  8
0
  6
CONTINUOUS
 62
       2
100
AcDbLine
 10
-101.72499847
 20
78.34736779
 30
0.0
 11
-101.72499847
 21
-80.54999727
 31
0.0
  0
LINE
  5
BB
100
AcDbEntity
  8
0
  6
CONTINUOUS
 62
       7
100
AcDbLine
 10
18.77500141
 20
26.35000275
 30
0.0
 11
-18.22499836
 21
26.35000275
 31
0.0
  0
LINE
  5
BC
100
AcDbEntity
  8
0
  6
CONTINUOUS
 62
       7
100
AcDbLine
 10
117.77500161
 20
26.35000275
 30
0.0
 11
130.7849973
 21
26.35000275
 31
0.0
  0
LINE
  5
BD
100
AcDbEntity
  8
0
  6
CONTINUOUS
 62
       7
100
AcDbLine
 10
-115.22499839
 20
26.35000275
 30
0.0
 11
-88.22499856
 21
26.35000275
 31
0.0
  0
LINE
  5
BE
100
AcDbEntity
  8
0
  6
CONTINUOUS
 62
       7
100
AcDbLine
 10
117.77500161
 20
28.35000273
 30
0.0
 11
144.77500144
 21
28.35000273
 31
0.0
  0
LINE
  5
BF
100
AcDbEntity
  8
0
  6
CONTINUOUS
 62
       7
100
AcDbLine
 10
18.77500141
 20
28.35000273
 30
0.0
 11
-18.22499836
 21
28.35000273
 31
0.0
  0
LINE
  5
C0
100
AcDbEntity
  8
0
  6
CONTINUOUS
 62
       7
100
AcDbLine
 10
-115.22499839
 20
28.35000273
 30
0.0
 11
-88.22499856
 21
28.35000273
 31
0.0
  0
LINE
  5
C1
100
AcDbEntity
  8
0
  6
CONTINUOUS
 62
       7
100
AcDbLine
 10
144.03500145
 20
-72.34999669
 30
0.0
 11
144.03500145
 21
-71.64999669
 31
0.0
  0
LINE
  5
C2
100
AcDbEntity
  8
0
  6
CONTINUOUS
 62
       2
100
AcDbLine
 10
0.27500153
 20
79.65000337
 30
0.0
 11
0.27500153
 21
-80.54999727
 31
0.0
  0
CIRCLE
  5
C3
100
AcDbEntity
  8
0
  6
CONTINUOUS
 62
       7
100
AcDbCircle
 10
141.76675102
 20
4.26187642
 30
0.0
 40
2.19999908
  0
CIRCLE
  5
C4
100
AcDbEntity
  8
0
  6
CONTINUOUS
 62
       7
100
AcDbCircle
 10
120.76674736
 20
-5.73812351
 30
0.0
 40
2.19999908
  0
LINE
  5
C5
100
AcDbEntity
  8
0
  6
CONTINUOUS
 62
       2
100
AcDbLine
 10
120.7750016
 20
-9.82499711
 30
0.0
 11
120.7750016
 21
-1.41249717
 31
0.0
  0
LINE
  5
C6
100
AcDbEntity
  8
0
  6
CONTINUOUS
 62
       2
100
AcDbLine
 10
141.77500145
 20
0.12500282
 30
0.0
 11
141.77500145
 21
8.18750276
 31
0.0
  0
LINE
  5
C7
100
AcDbEntity
  8
0
  6
CONTINUOUS
 62
       2
100
AcDbLine
 10
117.15000163
 20
-5.74999714
 30
0.0
 11
124.52500157
 21
-5.74999714
 31
0.0
  0
LINE
  5
C8
100
AcDbEntity
  8
0
  6
CONTINUOUS
 62
       2
100
AcDbLine
 10
137.90000148
 20
4.25000279
 30
0.0
 11
146.13750142
 21
4.25000279
 31
0.0
  0
LINE
  5
C9
100
AcDbEntity
  8
0
  6
CONTINUOUS
 62
       7
100
AcDbLine
 10
117.77500162
 20
-27.44999698
 30
0.0
 11
131.13140805
 21
-27.44999698
 31
0.0
  0
ARC
  5
CA
100
AcDbEntity
  8
0
  6
CONTINUOUS
 62
       7
100
AcDbCircle
 10
-112.22565954
 20
4.56002081
 30
0.0
 40
4.00067366
100
AcDbArc
 50
221.43487095
 51
359.85651379
  0
ARC
  5
CB
100
AcDbEntity
  8
0
  6
CONTINUOUS
 62
       7
100
AcDbCircle
 10
-91.22073287
 20
-5.44374803
 30
0.0
 40
3.99547719
100
AcDbArc
 50
41.42855826
 51
318.57144174
  0
ARC
  5
CC
100
AcDbEntity
  8
0
  6
CONTINUOUS
 62
       7
100
AcDbCircle
 10
-112.22193795
 20
4.56233139
 30
0.0
 40
3.99695854
100
AcDbArc
 50
359.82325836
 51
138.70627377
  0
CIRCLE
  5
CD
100
AcDbEntity
  8
0
  6
CONTINUOUS
 62
       7
100
AcDbCircle
 10
-91.2207299
 20
-5.4381244
 30
0.0
 40
2.19999908
  0
CIRCLE
  5
CE
100
AcDbEntity
  8
0
  6
CONTINUOUS
 62
       7
100
AcDbCircle
 10
-112.22073357
 20
4.56187553
 30
0.0
 40
2.19999908
  0
CIRCLE
  5
CF
100
AcDbEntity
  8
0
  6
CONTINUOUS
 62
       7
100
AcDbCircle
 10
-101.72074127
 20
-11.95062054
 30
0.0
 40
5.75000044
  0
CIRCLE
  5
D0
100
AcDbEntity
  8
0
  6
CONTINUOUS
 62
       7
100
AcDbCircle
 10
-101.72074127
 20
11.04939074
 30
0.0
 40
5.75000044
  0
CIRCLE
  5
D1
100
AcDbEntity
  8
0
  6
CONTINUOUS
 62
       2
100
AcDbCircle
 10
-101.72074127
 20
-11.95062054
 30
0.0
 40
6.49999972
  0
CIRCLE
  5
D2
100
AcDbEntity
  8
0
  6
CONTINUOUS
 62
       2
100
AcDbCircle
 10
-101.72074127
 20
11.04939074
 30
0.0
 40
6.49999972
  0
CIRCLE
  5
D3
100
AcDbEntity
  8
0
  6
CONTINUOUS
 62
       7
100
AcDbCircle
 10
14.27076902
 20
-9.938131
 30
0.0
 40
2.19999908
  0
CIRCLE
  5
D4
100
AcDbEntity
  8
0
  6
CONTINUOUS
 62
       7
100
AcDbCircle
 10
14.27076902
 20
9.06188413
 30
0.0
 40
2.19999908
  0
LINE
  5
D5
100
AcDbEntity
  8
0
  6
CONTINUOUS
 62
       2
100
AcDbLine
 10
-109.91249842
 20
11.05000186
 30
0.0
 11
-92.86249854
 21
11.05000186
 31
0.0
  0
LINE
  5
D6
100
AcDbEntity
  8
0
  6
CONTINUOUS
 62
       2
100
AcDbLine
 10
-110.37499841
 20
-11.94999798
 30
0.0
 11
-93.56249853
 21
-11.94999798
 31
0.0
  0
LINE
  5
D7
100
AcDbEntity
  8
0
  6
CONTINUOUS
 62
       2
100
AcDbLine
 10
-117.94999836
 20
4.5500019
 30
0.0
 11
-106.11249844
 21
4.5500019
 31
0.0
  0
LINE
  5
D8
100
AcDbEntity
  8
0
  6
CONTINUOUS
 62
       2
100
AcDbLine
 10
-97.6999985
 20
-5.44999803
 30
0.0
 11
-86.03749859
 21
-5.44999803
 31
0.0
  0
LINE
  5
D9
100
AcDbEntity
  8
0
  6
CONTINUOUS
 62
       2
100
AcDbLine
 10
-112.2249984
 20
11.03750186
 30
0.0
 11
-112.2249984
 21
-1.82499805
 31
0.0
  0
LINE
  5
DA
100
AcDbEntity
  8
0
  6
CONTINUOUS
 62
       2
100
AcDbLine
 10
-91.22499855
 20
0.73750193
 30
0.0
 11
-91.22499855
 21
-11.77499798
 31
0.0
  0
LINE
  5
DB
100
AcDbEntity
  8
0
  6
CONTINUOUS
 62
       7
100
AcDbLine
 10
-115.22499838
 20
-27.44999787
 30
0.0
 11
-88.22499857
 21
-27.44999787
 31
0.0
  0
LINE
  5
DC
100
AcDbEntity
  8
0
  6
CONTINUOUS
 62
       2
100
AcDbLine
 10
14.27500143
 20
-5.77499702
 30
0.0
 11
14.27500143
 21
-14.52499696
 31
0.0
  0
LINE
  5
DD
100
AcDbEntity
  8
0
  6
CONTINUOUS
 62
       2
100
AcDbLine
 10
18.3625014
 20
-9.94999699
 30
0.0
 11
9.96250146
 21
-9.94999699
 31
0.0
  0
LINE
  5
DE
100
AcDbEntity
  8
0
  6
CONTINUOUS
 62
       2
100
AcDbLine
 10
18.1875014
 20
9.06250287
 30
0.0
 11
10.13750146
 21
9.06250287
 31
0.0
  0
LINE
  5
DF
100
AcDbEntity
  8
0
  6
CONTINUOUS
 62
       2
100
AcDbLine
 10
14.27500143
 20
12.92500284
 30
0.0
 11
14.27500143
 21
4.6875029
 31
0.0
  0
LINE
  5
E0
100
AcDbEntity
  8
0
  6
CONTINUOUS
 62
       7
100
AcDbLine
 10
18.77500139
 20
-27.44999687
 30
0.0
 11
-18.22499834
 21
-27.44999687
 31
0.0
  0
LINE
  5
E1
100
AcDbEntity
  8
0
  6
CONTINUOUS
 62
       7
100
AcDbLine
 10
-15.22499836
 20
-2.79999806
 30
0.0
 11
-15.22499836
 21
-8.62090031
 31
0.0
  0
LINE
  5
E2
100
AcDbEntity
  8
0
  6
CONTINUOUS
 62
       2
100
AcDbLine
 10
131.27500153
 20
80.05000305
 30
0.0
 11
131.27500153
 21
-80.54999727
 31
0.0
  0
CIRCLE
  5
E3
100
AcDbEntity
  8
0
  6
CONTINUOUS
 62
       2
100
AcDbCircle
 10
131.26673965
 20
-0.45061951
 30
0.0
 40
6.49999972
  0
CIRCLE
  5
E4
100
AcDbEntity
  8
0
  6
CONTINUOUS
 62
       7
100
AcDbCircle
 10
131.26673965
 20
-0.45061951
 30
0.0
 40
5.75000044
  0
LINE
  5
E5
100
AcDbEntity
  8
0
  6
CONTINUOUS
 62
       2
100
AcDbLine
 10
123.18750158
 20
-0.44999695
 30
0.0
 11
139.68750147
 21
-0.44999695
 31
0.0
  0
LINE
  5
E6
100
AcDbEntity
  8
0
  6
CONTINUOUS
 62
       7
100
AcDbLine
 10
-18.22499836
 20
-8.62090031
 30
0.0
 11
-15.22499836
 21
-8.62090031
 31
0.0
  0
LINE
  5
E7
100
AcDbEntity
  8
0
  6
CONTINUOUS
 62
       7
100
AcDbLine
 10
-18.22499836
 20
-2.79999806
 30
0.0
 11
-15.22499836
 21
-2.79999806
 31
0.0
  0
LINE
  5
E8
100
AcDbEntity
  8
0
  6
CONTINUOUS
 62
       2
100
AcDbLine
 10
-20.96474133
 20
-5.71044919
 30
0.0
 11
-11.98653918
 21
-5.71044919
 31
0.0
  0
LINE
  5
E9
100
AcDbEntity
  8
0
  6
CONTINUOUS
 62
       7
100
AcDbLine
 10
-88.22499847
 20
-74.44999695
 30
0.0
 11
-115.22499847
 21
-74.44999695
 31
0.0
  0
LINE
  5
EA
100
AcDbEntity
  8
0
  6
CONTINUOUS
 62
       7
100
AcDbLine
 10
-88.22499847
 20
-71.64999695
 30
0.0
 11
-94.72499847
 21
-71.64999695
 31
0.0
  0
LINE
  5
EB
100
AcDbEntity
  8
0
  6
CONTINUOUS
 62
       7
100
AcDbLine
 10
-94.72499847
 20
-74.44999695
 30
0.0
 11
-94.72499847
 21
-71.64999695
 31
0.0
  0
LINE
  5
EC
100
AcDbEntity
  8
0
  6
CONTINUOUS
 62
       7
100
AcDbLine
 10
-88.97499847
 20
-72.34999695
 30
0.0
 11
-91.47499847
 21
-72.34999695
 31
0.0
  0
LINE
  5
ED
100
AcDbEntity
  8
0
  6
CONTINUOUS
 62
       7
100
AcDbLine
 10
-93.97499847
 20
-72.34999695
 30
0.0
 11
-91.47499847
 21
-72.34999695
 31
0.0
  0
LINE
  5
EE
100
AcDbEntity
  8
0
  6
CONTINUOUS
 62
       7
100
AcDbLine
 10
-93.97499847
 20
-72.34999695
 30
0.0
 11
-93.97499847
 21
-71.64999695
 31
0.0
  0
LINE
  5
EF
100
AcDbEntity
  8
0
  6
CONTINUOUS
 62
       7
100
AcDbLine
 10
-88.97499847
 20
-72.34999695
 30
0.0
 11
-88.97499847
 21
-71.64999695
 31
0.0
  0
LINE
  5
F0
100
AcDbEntity
  8
0
  6
CONTINUOUS
 62
       7
100
AcDbLine
 10
-92.72499847
 20
-75.47499695
 30
0.0
 11
-91.72499847
 21
-74.47499695
 31
0.0
  0
LINE
  5
F1
100
AcDbEntity
  8
0
  6
CONTINUOUS
 62
       7
100
AcDbLine
 10
-92.72499847
 20
-75.44999695
 30
0.0
 11
-110.72499847
 21
-75.44999695
 31
0.0
  0
LINE
  5
F2
100
AcDbEntity
  8
0
  6
CONTINUOUS
 62
       7
100
AcDbLine
 10
-110.72499847
 20
-75.44999695
 30
0.0
 11
-111.72499847
 21
-74.44999695
 31
0.0
  0
SPLINE
  5
F3
100
AcDbEntity
  8
0
  6
CONTINUOUS
 62
       7
100
AcDbSpline
210
0.0
220
0.0
230
1.0
 70
       0
 71
       3
 72
       0
 73
       0
 74
       3
 44
0.000001
 12
-0.0474792013369111
 22
-0.9988722267839911
 32
0.0
 13
0.9999950468007323
 23
-0.0031474392768322
 33
0.0
 11
-93.974998474121094
 21
-72.349996948242165
 31
0.0
 11
-93.799998474121082
 21
-73.424996948242097
 31
0.0
 11
-91.474998474121094
 21
-74.449996948242074
 31
0.0
  0
SPLINE
  5
F4
100
AcDbEntity
  8
0
  6
CONTINUOUS
 62
       7
100
AcDbSpline
210
0.0
220
0.0
230
1.0
 70
       0
 71
       3
 72
       0
 73
       0
 74
       3
 44
0.000001
 12
0.047479201336911
 22
-0.9988722267839911
 32
0.0
 13
-0.9999950468007323
 23
-0.0031474392768323
 33
0.0
 11
-88.974998474121094
 21
-72.349996948242165
 31
0.0
 11
-89.149998474121105
 21
-73.424996948242097
 31
0.0
 11
-91.474998474121094
 21
-74.449996948242074
 31
0.0
  0
LINE
  5
F5
100
AcDbEntity
  8
0
  6
CONTINUOUS
 62
       7
100
AcDbLine
 10
-18.22499847
 20
-74.44999695
 30
0.0
 11
18.77500153
 21
-74.44999695
 31
0.0
  0
LINE
  5
F6
100
AcDbEntity
  8
0
  6
CONTINUOUS
 62
       7
100
AcDbLine
 10
-8.72499847
 20
-74.44999695
 30
0.0
 11
-8.72499847
 21
-71.64999695
 31
0.0
  0
LINE
  5
F7
100
AcDbEntity
  8
0
  6
CONTINUOUS
 62
       7
100
AcDbLine
 10
-8.72499847
 20
-71.64999695
 30
0.0
 11
-18.22499847
 21
-71.64999695
 31
0.0
  0
LINE
  5
F8
100
AcDbEntity
  8
0
  6
CONTINUOUS
 62
       7
100
AcDbLine
 10
21.77500153
 20
-59.24999663
 30
0.0
 11
21.77500153
 21
-55.24999663
 31
0.0
  0
LINE
  5
F9
100
AcDbEntity
  8
0
  6
CONTINUOUS
 62
       7
100
AcDbLine
 10
21.27500153
 20
-59.74999663
 30
0.0
 11
18.77500153
 21
-59.74999663
 31
0.0
  0
LINE
  5
FA
100
AcDbEntity
  8
0
  6
CONTINUOUS
 62
       7
100
AcDbLine
 10
21.27500153
 20
-54.74999663
 30
0.0
 11
18.77500153
 21
-54.74999663
 31
0.0
  0
LINE
  5
FB
100
AcDbEntity
  8
0
  6
CONTINUOUS
 62
       7
100
AcDbLine
 10
-10.97499847
 20
-72.34999695
 30
0.0
 11
-13.47499847
 21
-72.34999695
 31
0.0
  0
LINE
  5
FC
100
AcDbEntity
  8
0
  6
CONTINUOUS
 62
       7
100
AcDbLine
 10
-15.97499847
 20
-72.34999695
 30
0.0
 11
-13.47499847
 21
-72.34999695
 31
0.0
  0
LINE
  5
FD
100
AcDbEntity
  8
0
  6
CONTINUOUS
 62
       7
100
AcDbLine
 10
-15.97499847
 20
-72.34999695
 30
0.0
 11
-15.97499847
 21
-71.64999695
 31
0.0
  0
LINE
  5
FE
100
AcDbEntity
  8
0
  6
CONTINUOUS
 62
       7
100
AcDbLine
 10
-10.97499847
 20
-72.34999695
 30
0.0
 11
-10.97499847
 21
-71.64999695
 31
0.0
  0
LINE
  5
FF
100
AcDbEntity
  8
0
  6
CONTINUOUS
 62
       7
100
AcDbLine
 10
-8.72499847
 20
-75.44999695
 30
0.0
 11
-9.72499847
 21
-74.44999695
 31
0.0
  0
LINE
  5
100
100
AcDbEntity
  8
0
  6
CONTINUOUS
 62
       7
100
AcDbLine
 10
-8.72499847
 20
-75.44999695
 30
0.0
 11
9.27500153
 21
-75.44999695
 31
0.0
  0
LINE
  5
101
100
AcDbEntity
  8
0
  6
CONTINUOUS
 62
       7
100
AcDbLine
 10
9.27500153
 20
-75.47499695
 30
0.0
 11
10.27500153
 21
-74.47499695
 31
0.0
  0
LINE
  5
102
100
AcDbEntity
  8
0
  6
CONTINUOUS
 62
       2
100
AcDbLine
 10
41.55000153
 20
-57.24999663
 30
0.0
 11
17.15000153
 21
-57.24999663
 31
0.0
  0
LINE
  5
103
100
AcDbEntity
  8
0
  6
CONTINUOUS
 62
       7
100
AcDbLine
 10
34.52500153
 20
-58.49999663
 30
0.0
 11
28.90000153
 21
-58.49999663
 31
0.0
  0
LINE
  5
104
100
AcDbEntity
  8
0
  6
CONTINUOUS
 62
       7
100
AcDbLine
 10
34.52500153
 20
-55.99999663
 30
0.0
 11
28.95000153
 21
-55.99999663
 31
0.0
  0
LINE
  5
105
100
AcDbEntity
  8
0
  6
CONTINUOUS
 62
       7
100
AcDbLine
 10
27.07500153
 20
-58.49999663
 30
0.0
 11
21.77500153
 21
-58.49999663
 31
0.0
  0
LINE
  5
106
100
AcDbEntity
  8
0
  6
CONTINUOUS
 62
       7
100
AcDbLine
 10
27.35000153
 20
-55.99999663
 30
0.0
 11
21.77500153
 21
-55.99999663
 31
0.0
  0
LINE
  5
107
100
AcDbEntity
  8
0
  6
CONTINUOUS
 62
       7
100
AcDbLine
 10
34.52500153
 20
-58.49999663
 30
0.0
 11
34.52500153
 21
-55.99999663
 31
0.0
  0
LINE
  5
108
100
AcDbEntity
  8
0
  6
CONTINUOUS
 62
       7
100
AcDbLine
 10
40.47500153
 20
-57.74999663
 30
0.0
 11
34.52500153
 21
-57.74999663
 31
0.0
  0
LINE
  5
109
100
AcDbEntity
  8
0
  6
CONTINUOUS
 62
       7
100
AcDbLine
 10
40.47500153
 20
-56.74999663
 30
0.0
 11
34.52500153
 21
-56.74999663
 31
0.0
  0
LINE
  5
10A
100
AcDbEntity
  8
0
  6
CONTINUOUS
 62
       7
100
AcDbLine
 10
40.47500153
 20
-57.74999663
 30
0.0
 11
40.47500153
 21
-56.74999663
 31
0.0
  0
ARC
  5
10B
100
AcDbEntity
  8
0
  6
CONTINUOUS
 62
       7
100
AcDbCircle
 10
21.28353477
 20
-59.25852987
 30
0.0
 40
0.49154084
100
AcDbArc
 50
269.00528474
 51
0.99471526
  0
ARC
  5
10C
100
AcDbEntity
  8
0
  6
CONTINUOUS
 62
       7
100
AcDbCircle
 10
21.26008107
 20
-55.26491708
 30
0.0
 40
0.51513658
100
AcDbArc
 50
1.65975103
 51
88.34024897
  0
SPLINE
  5
10D
100
AcDbEntity
  8
0
  6
CONTINUOUS
 62
       7
100
AcDbSpline
210
0.0
220
0.0
230
1.0
 70
       0
 71
       3
 72
       0
 73
       0
 74
       3
 44
0.000001
 12
-0.0474792013369111
 22
-0.9988722267839911
 32
0.0
 13
0.9999950468012697
 23
-0.0031474391060741
 33
0.0
 11
-15.974998474121094
 21
-72.349996948242165
 31
0.0
 11
-15.799998474121082
 21
-73.424996948242097
 31
0.0
 11
-13.474998474121094
 21
-74.449996948242074
 31
0.0
  0
SPLINE
  5
10E
100
AcDbEntity
  8
0
  6
CONTINUOUS
 62
       7
100
AcDbSpline
210
0.0
220
0.0
230
1.0
 70
       0
 71
       3
 72
       0
 73
       0
 74
       3
 44
0.000001
 12
0.047479201336911
 22
-0.9988722267839911
 32
0.0
 13
-0.9999950468007323
 23
-0.0031474392768323
 33
0.0
 11
-10.974998474121094
 21
-72.349996948242165
 31
0.0
 11
-11.149998474121105
 21
-73.424996948242097
 31
0.0
 11
-13.474998474121094
 21
-74.449996948242074
 31
0.0
  0
SPLINE
  5
10F
100
AcDbEntity
  8
0
  6
CONTINUOUS
 62
       7
100
AcDbSpline
210
0.0
220
0.0
230
1.0
 70
       0
 71
       3
 72
       0
 73
       0
 74
       4
 44
0.000001
 12
0.2127788210919381
 22
0.9771003905918394
 32
0.0
 13
0.5012512901404151
 23
0.8653017647806859
 33
0.0
 11
28.900001525878906
 21
-58.524996631442121
 31
0.0
 11
28.950001525878974
 21
-57.724996631442167
 31
0.0
 11
28.725001525878838
 21
-56.724996631442053
 31
0.0
 11
28.950001525878974
 21
-56.024996631442121
 31
0.0
  0
SPLINE
  5
110
100
AcDbEntity
  8
0
  6
CONTINUOUS
 62
       7
100
AcDbSpline
210
0.0
220
0.0
230
1.0
 70
       0
 71
       3
 72
       0
 73
       0
 74
       4
 44
0.000001
 12
0.2516111992830489
 22
0.9678283961505499
 32
0.0
 13
0.6366760731295762
 23
0.771131362288101
 33
0.0
 11
27.150001525878906
 21
-58.499996631442031
 31
0.0
 11
27.250001525878929
 21
-57.599996631442167
 31
0.0
 11
27.050001525878884
 21
-56.624996631442031
 31
0.0
 11
27.350001525878895
 21
-56.024996631442121
 31
0.0
  0
SPLINE
  5
111
100
AcDbEntity
  8
0
  6
CONTINUOUS
 62
       7
100
AcDbSpline
210
0.0
220
0.0
230
1.0
 70
       0
 71
       3
 72
       0
 73
       0
 74
       3
 44
0.000001
 12
0.047479201336911
 22
-0.9988722267839911
 32
0.0
 13
-0.9999950468007323
 23
-0.0031474392768323
 33
0.0
 11
144.02500152587891
 21
-72.349996948242165
 31
0.0
 11
143.85000152587889
 21
-73.424996948242097
 31
0.0
 11
141.52500152587891
 21
-74.449996948242074
 31
0.0
  0
SPLINE
  5
112
100
AcDbEntity
  8
0
  6
CONTINUOUS
 62
       7
100
AcDbSpline
210
0.0
220
0.0
230
1.0
 70
       0
 71
       3
 72
       0
 73
       0
 74
       3
 44
0.000001
 12
-0.0474792013369111
 22
-0.9988722267839911
 32
0.0
 13
0.9999950468007323
 23
-0.0031474392768322
 33
0.0
 11
139.02500152587891
 21
-72.349996948242165
 31
0.0
 11
139.20000152587892
 21
-73.424996948242097
 31
0.0
 11
141.52500152587891
 21
-74.449996948242074
 31
0.0
  0
CIRCLE
  5
113
100
AcDbEntity
  8
0
  6
CONTINUOUS
 62
       7
100
AcDbCircle
 10
133.75610352
 20
-57.27357451
 30
0.0
 40
0.49999997
  0
CIRCLE
  5
114
100
AcDbEntity
  8
0
  6
CONTINUOUS
 62
       7
100
AcDbCircle
 10
128.75610352
 20
-57.27357451
 30
0.0
 40
0.49999997
  0
CIRCLE
  5
115
100
AcDbEntity
  8
0
  6
CONTINUOUS
 62
       7
100
AcDbCircle
 10
128.75610352
 20
-57.27357451
 30
0.0
 40
1.25000015
  0
CIRCLE
  5
116
100
AcDbEntity
  8
0
  6
CONTINUOUS
 62
       7
100
AcDbCircle
 10
133.75610352
 20
-57.27357451
 30
0.0
 40
1.25000015
  0
ARC
  5
117
100
AcDbEntity
  8
0
  6
CONTINUOUS
 62
       7
100
AcDbCircle
 10
133.75376249
 20
-57.27123567
 30
0.0
 40
2.5213285
100
AcDbArc
 50
0.48265102
 51
89.51734898
  0
ARC
  5
118
100
AcDbEntity
  8
0
  6
CONTINUOUS
 62
       7
100
AcDbCircle
 10
133.7537628
 20
-57.27123536
 30
0.0
 40
3.52130278
100
AcDbArc
 50
0.34558143
 51
89.65441857
  0
ARC
  5
119
100
AcDbEntity
  8
0
  6
CONTINUOUS
 62
       7
100
AcDbCircle
 10
128.75610309
 20
-57.24999663
 30
0.0
 40
3.50005102
100
AcDbArc
 50
89.69063135
 51
270.30936865
  0
ARC
  5
11A
100
AcDbEntity
  8
0
  6
CONTINUOUS
 62
       7
100
AcDbCircle
 10
133.77727702
 20
-57.25227213
 30
0.0
 40
3.49772524
100
AcDbArc
 50
269.96272536
 51
0.03727464
  0
ARC
  5
11B
100
AcDbEntity
  8
0
  6
CONTINUOUS
 62
       7
100
AcDbCircle
 10
128.75610268
 20
-57.24999663
 30
0.0
 40
2.50007143
100
AcDbArc
 50
89.5668785
 51
270.4331215
  0
ARC
  5
11C
100
AcDbEntity
  8
0
  6
CONTINUOUS
 62
       7
100
AcDbCircle
 10
133.77725125
 20
-57.25224635
 30
0.0
 40
2.49775129
100
AcDbArc
 50
269.94839374
 51
0.05160626
  0
LINE
  5
11D
100
AcDbEntity
  8
0
  6
CONTINUOUS
 62
       7
100
AcDbLine
 10
122.27500153
 20
-75.44999695
 30
0.0
 11
121.27500153
 21
-74.44999695
 31
0.0
  0
LINE
  5
11E
100
AcDbEntity
  8
0
  6
CONTINUOUS
 62
       7
100
AcDbLine
 10
140.27500153
 20
-75.47499695
 30
0.0
 11
141.27500153
 21
-74.47499695
 31
0.0
  0
LINE
  5
11F
100
AcDbEntity
  8
0
  6
CONTINUOUS
 62
       7
100
AcDbLine
 10
122.27500153
 20
-75.44999695
 30
0.0
 11
140.27500153
 21
-75.44999695
 31
0.0
  0
LINE
  5
120
100
AcDbEntity
  8
0
  6
CONTINUOUS
 62
       7
100
AcDbLine
 10
144.02500153
 20
-72.34999695
 30
0.0
 11
144.02500153
 21
-71.64999695
 31
0.0
  0
LINE
  5
121
100
AcDbEntity
  8
0
  6
CONTINUOUS
 62
       7
100
AcDbLine
 10
139.02500153
 20
-72.34999695
 30
0.0
 11
139.02500153
 21
-71.64999695
 31
0.0
  0
LINE
  5
122
100
AcDbEntity
  8
0
  6
CONTINUOUS
 62
       7
100
AcDbLine
 10
139.02500153
 20
-72.34999695
 30
0.0
 11
141.52500153
 21
-72.34999695
 31
0.0
  0
LINE
  5
123
100
AcDbEntity
  8
0
  6
CONTINUOUS
 62
       7
100
AcDbLine
 10
144.02500153
 20
-72.34999695
 30
0.0
 11
141.52500153
 21
-72.34999695
 31
0.0
  0
LINE
  5
124
100
AcDbEntity
  8
0
  6
CONTINUOUS
 62
       2
100
AcDbLine
 10
133.77500153
 20
-61.57499663
 30
0.0
 11
133.77500153
 21
-52.79999663
 31
0.0
  0
LINE
  5
125
100
AcDbEntity
  8
0
  6
CONTINUOUS
 62
       2
100
AcDbLine
 10
128.77500153
 20
-61.67499663
 30
0.0
 11
128.77500153
 21
-52.84999663
 31
0.0
  0
LINE
  5
126
100
AcDbEntity
  8
0
  6
CONTINUOUS
 62
       7
100
AcDbLine
 10
128.77500153
 20
-53.74999663
 30
0.0
 11
133.77500153
 21
-53.74999663
 31
0.0
  0
LINE
  5
127
100
AcDbEntity
  8
0
  6
CONTINUOUS
 62
       7
100
AcDbLine
 10
128.77500153
 20
-60.74999663
 30
0.0
 11
133.77500153
 21
-60.74999663
 31
0.0
  0
LINE
  5
128
100
AcDbEntity
  8
0
  6
CONTINUOUS
 62
       7
100
AcDbLine
 10
128.77500153
 20
-54.74999663
 30
0.0
 11
133.77500153
 21
-54.74999663
 31
0.0
  0
LINE
  5
129
100
AcDbEntity
  8
0
  6
CONTINUOUS
 62
       7
100
AcDbLine
 10
128.77500153
 20
-59.74999663
 30
0.0
 11
133.77500153
 21
-59.74999663
 31
0.0
  0
LINE
  5
12A
100
AcDbEntity
  8
0
  6
CONTINUOUS
 62
       2
100
AcDbLine
 10
124.27500153
 20
-57.24999663
 30
0.0
 11
138.20000153
 21
-57.24999663
 31
0.0
  0
LINE
  5
12B
100
AcDbEntity
  8
0
  6
CONTINUOUS
 62
       7
100
AcDbLine
 10
138.27500153
 20
-74.44999695
 30
0.0
 11
138.27500153
 21
-71.64999695
 31
0.0
  0
LINE
  5
12C
100
AcDbEntity
  8
0
  6
CONTINUOUS
 62
       7
100
AcDbLine
 10
144.77500153
 20
-71.64999695
 30
0.0
 11
138.27500153
 21
-71.64999695
 31
0.0
  0
LINE
  5
12D
100
AcDbEntity
  8
0
  6
CONTINUOUS
 62
       7
100
AcDbLine
 10
144.77500153
 20
-74.44999695
 30
0.0
 11
117.77500153
 21
-74.44999695
 31
0.0
  0
LINE
  5
12E
100
AcDbEntity
  8
0
  6
CONTINUOUS
 62
       7
100
AcDbLine
 10
117.77500153
 20
73.55000305
 30
0.0
 11
144.77500153
 21
73.55000305
 31
0.0
  0
LINE
  5
12F
100
AcDbEntity
  8
0
  6
CONTINUOUS
 62
       7
100
AcDbLine
 10
117.77500153
 20
70.75000305
 30
0.0
 11
124.27500153
 21
70.75000305
 31
0.0
  0
LINE
  5
130
100
AcDbEntity
  8
0
  6
CONTINUOUS
 62
       7
100
AcDbLine
 10
124.27500153
 20
73.55000305
 30
0.0
 11
124.27500153
 21
70.75000305
 31
0.0
  0
LINE
  5
131
100
AcDbEntity
  8
0
  6
CONTINUOUS
 62
       2
100
AcDbLine
 10
124.27500153
 20
56.35000273
 30
0.0
 11
138.20000153
 21
56.35000273
 31
0.0
  0
LINE
  5
132
100
AcDbEntity
  8
0
  6
CONTINUOUS
 62
       7
100
AcDbLine
 10
128.77500153
 20
58.85000273
 30
0.0
 11
133.77500153
 21
58.85000273
 31
0.0
  0
LINE
  5
133
100
AcDbEntity
  8
0
  6
CONTINUOUS
 62
       7
100
AcDbLine
 10
128.77500153
 20
53.85000273
 30
0.0
 11
133.77500153
 21
53.85000273
 31
0.0
  0
LINE
  5
134
100
AcDbEntity
  8
0
  6
CONTINUOUS
 62
       7
100
AcDbLine
 10
128.77500153
 20
59.85000273
 30
0.0
 11
133.77500153
 21
59.85000273
 31
0.0
  0
LINE
  5
135
100
AcDbEntity
  8
0
  6
CONTINUOUS
 62
       7
100
AcDbLine
 10
128.77500153
 20
52.85000273
 30
0.0
 11
133.77500153
 21
52.85000273
 31
0.0
  0
LINE
  5
136
100
AcDbEntity
  8
0
  6
CONTINUOUS
 62
       2
100
AcDbLine
 10
128.77500153
 20
60.77500273
 30
0.0
 11
128.77500153
 21
51.95000273
 31
0.0
  0
LINE
  5
137
100
AcDbEntity
  8
0
  6
CONTINUOUS
 62
       2
100
AcDbLine
 10
133.77500153
 20
60.67500273
 30
0.0
 11
133.77500153
 21
51.90000273
 31
0.0
  0
LINE
  5
138
100
AcDbEntity
  8
0
  6
CONTINUOUS
 62
       7
100
AcDbLine
 10
118.52500153
 20
71.45000305
 30
0.0
 11
121.02500153
 21
71.45000305
 31
0.0
  0
LINE
  5
139
100
AcDbEntity
  8
0
  6
CONTINUOUS
 62
       7
100
AcDbLine
 10
123.52500153
 20
71.45000305
 30
0.0
 11
121.02500153
 21
71.45000305
 31
0.0
  0
LINE
  5
13A
100
AcDbEntity
  8
0
  6
CONTINUOUS
 62
       7
100
AcDbLine
 10
123.52500153
 20
71.45000305
 30
0.0
 11
123.52500153
 21
70.75000305
 31
0.0
  0
LINE
  5
13B
100
AcDbEntity
  8
0
  6
CONTINUOUS
 62
       7
100
AcDbLine
 10
118.52500153
 20
71.45000305
 30
0.0
 11
118.52500153
 21
70.75000305
 31
0.0
  0
LINE
  5
13C
100
AcDbEntity
  8
0
  6
CONTINUOUS
 62
       7
100
AcDbLine
 10
140.27500153
 20
74.55000305
 30
0.0
 11
122.27500153
 21
74.55000305
 31
0.0
  0
LINE
  5
13D
100
AcDbEntity
  8
0
  6
CONTINUOUS
 62
       7
100
AcDbLine
 10
122.27500153
 20
74.57500305
 30
0.0
 11
121.27500153
 21
73.57500305
 31
0.0
  0
LINE
  5
13E
100
AcDbEntity
  8
0
  6
CONTINUOUS
 62
       7
100
AcDbLine
 10
140.27500153
 20
74.55000305
 30
0.0
 11
141.27500153
 21
73.55000305
 31
0.0
  0
ARC
  5
13F
100
AcDbEntity
  8
0
  6
CONTINUOUS
 62
       7
100
AcDbCircle
 10
133.77725125
 20
56.35225246
 30
0.0
 40
2.49775129
100
AcDbArc
 50
359.94839374
 51
90.05160626
  0
ARC
  5
140
100
AcDbEntity
  8
0
  6
CONTINUOUS
 62
       7
100
AcDbCircle
 10
128.75610268
 20
56.35000273
 30
0.0
 40
2.50007143
100
AcDbArc
 50
89.5668785
 51
270.4331215
  0
ARC
  5
141
100
AcDbEntity
  8
0
  6
CONTINUOUS
 62
       7
100
AcDbCircle
 10
133.77727702
 20
56.35227823
 30
0.0
 40
3.49772524
100
AcDbArc
 50
359.96272536
 51
90.03727464
  0
ARC
  5
142
100
AcDbEntity
  8
0
  6
CONTINUOUS
 62
       7
100
AcDbCircle
 10
128.75610309
 20
56.35000273
 30
0.0
 40
3.50005102
100
AcDbArc
 50
89.69063135
 51
270.30936865
  0
ARC
  5
143
100
AcDbEntity
  8
0
  6
CONTINUOUS
 62
       7
100
AcDbCircle
 10
133.7537628
 20
56.37124146
 30
0.0
 40
3.52130278
100
AcDbArc
 50
270.34558143
 51
359.65441857
  0
ARC
  5
144
100
AcDbEntity
  8
0
  6
CONTINUOUS
 62
       7
100
AcDbCircle
 10
133.75376249
 20
56.37124178
 30
0.0
 40
2.5213285
100
AcDbArc
 50
270.48265102
 51
359.51734898
  0
CIRCLE
  5
145
100
AcDbEntity
  8
0
  6
CONTINUOUS
 62
       7
100
AcDbCircle
 10
133.75610352
 20
56.37358062
 30
0.0
 40
1.25000015
  0
CIRCLE
  5
146
100
AcDbEntity
  8
0
  6
CONTINUOUS
 62
       7
100
AcDbCircle
 10
128.75610352
 20
56.37358062
 30
0.0
 40
1.25000015
  0
CIRCLE
  5
147
100
AcDbEntity
  8
0
  6
CONTINUOUS
 62
       7
100
AcDbCircle
 10
128.75610352
 20
56.37358062
 30
0.0
 40
0.49999997
  0
CIRCLE
  5
148
100
AcDbEntity
  8
0
  6
CONTINUOUS
 62
       7
100
AcDbCircle
 10
133.75610352
 20
56.37358062
 30
0.0
 40
0.49999997
  0
SPLINE
  5
149
100
AcDbEntity
  8
0
  6
CONTINUOUS
 62
       7
100
AcDbSpline
210
0.0
220
0.0
230
1.0
 70
       0
 71
       3
 72
       0
 73
       0
 74
       3
 44
0.000001
 12
0.047479201336911
 22
0.9988722267839911
 32
0.0
 13
-0.9999950468007323
 23
0.0031474392768323
 33
0.0
 11
123.52500152587891
 21
71.45000305175779
 31
0.0
 11
123.35000152587889
 21
72.525003051757722
 31
0.0
 11
121.02500152587891
 21
73.550003051757699
 31
0.0
  0
SPLINE
  5
14A
100
AcDbEntity
  8
0
  6
CONTINUOUS
 62
       7
100
AcDbSpline
210
0.0
220
0.0
230
1.0
 70
       0
 71
       3
 72
       0
 73
       0
 74
       3
 44
0.000001
 12
-0.0474792013369111
 22
0.9988722267839911
 32
0.0
 13
0.9999950468007323
 23
0.0031474392768322
 33
0.0
 11
118.52500152587891
 21
71.45000305175779
 31
0.0
 11
118.70000152587892
 21
72.525003051757722
 31
0.0
 11
121.02500152587891
 21
73.550003051757699
 31
0.0
  0
SPLINE
  5
14B
100
AcDbEntity
  8
0
  6
CONTINUOUS
 62
       7
100
AcDbSpline
210
0.0
220
0.0
230
1.0
 70
       0
 71
       3
 72
       0
 73
       0
 74
       4
 44
0.000001
 12
0.2516111992830489
 22
-0.9678283961505499
 32
0.0
 13
0.6366760731295762
 23
-0.771131362288101
 33
0.0
 11
27.150001525878906
 21
57.600002734957684
 31
0.0
 11
27.250001525878929
 21
56.70000273495782
 31
0.0
 11
27.050001525878884
 21
55.725002734957684
 31
0.0
 11
27.350001525878895
 21
55.125002734957775
 31
0.0
  0
SPLINE
  5
14C
100
AcDbEntity
  8
0
  6
CONTINUOUS
 62
       7
100
AcDbSpline
210
0.0
220
0.0
230
1.0
 70
       0
 71
       3
 72
       0
 73
       0
 74
       4
 44
0.000001
 12
0.2127788210919381
 22
-0.9771003905918394
 32
0.0
 13
0.5012512901404151
 23
-0.8653017647806859
 33
0.0
 11
28.900001525878906
 21
57.625002734957775
 31
0.0
 11
28.950001525878974
 21
56.82500273495782
 31
0.0
 11
28.725001525878838
 21
55.825002734957707
 31
0.0
 11
28.950001525878974
 21
55.125002734957775
 31
0.0
  0
SPLINE
  5
14D
100
AcDbEntity
  8
0
  6
CONTINUOUS
 62
       7
100
AcDbSpline
210
0.0
220
0.0
230
1.0
 70
       0
 71
       3
 72
       0
 73
       0
 74
       3
 44
0.000001
 12
-0.0474792013369111
 22
0.9988722267839911
 32
0.0
 13
0.9999950468007323
 23
0.0031474392768322
 33
0.0
 11
11.525001525878906
 21
71.45000305175779
 31
0.0
 11
11.700001525878918
 21
72.525003051757722
 31
0.0
 11
14.025001525878906
 21
73.550003051757699
 31
0.0
  0
SPLINE
  5
14E
100
AcDbEntity
  8
0
  6
CONTINUOUS
 62
       7
100
AcDbSpline
210
0.0
220
0.0
230
1.0
 70
       0
 71
       3
 72
       0
 73
       0
 74
       3
 44
0.000001
 12
0.047479201336911
 22
0.9988722267839911
 32
0.0
 13
-0.9999950468012697
 23
0.0031474391060742
 33
0.0
 11
16.525001525878906
 21
71.45000305175779
 31
0.0
 11
16.350001525878895
 21
72.525003051757722
 31
0.0
 11
14.025001525878906
 21
73.550003051757699
 31
0.0
  0
ARC
  5
14F
100
AcDbEntity
  8
0
  6
CONTINUOUS
 62
       7
100
AcDbCircle
 10
21.26008107
 20
54.36492319
 30
0.0
 40
0.51513658
100
AcDbArc
 50
271.65975103
 51
358.34024897
  0
ARC
  5
150
100
AcDbEntity
  8
0
  6
CONTINUOUS
 62
       7
100
AcDbCircle
 10
21.28353477
 20
58.35853597
 30
0.0
 40
0.49154084
100
AcDbArc
 50
359.00528474
 51
90.99471526
  0
LINE
  5
151
100
AcDbEntity
  8
0
  6
CONTINUOUS
 62
       7
100
AcDbLine
 10
40.47500153
 20
56.85000273
 30
0.0
 11
40.47500153
 21
55.85000273
 31
0.0
  0
LINE
  5
152
100
AcDbEntity
  8
0
  6
CONTINUOUS
 62
       7
100
AcDbLine
 10
40.47500153
 20
55.85000273
 30
0.0
 11
34.52500153
 21
55.85000273
 31
0.0
  0
LINE
  5
153
100
AcDbEntity
  8
0
  6
CONTINUOUS
 62
       7
100
AcDbLine
 10
40.47500153
 20
56.85000273
 30
0.0
 11
34.52500153
 21
56.85000273
 31
0.0
  0
LINE
  5
154
100
AcDbEntity
  8
0
  6
CONTINUOUS
 62
       7
100
AcDbLine
 10
34.52500153
 20
57.60000273
 30
0.0
 11
34.52500153
 21
55.10000273
 31
0.0
  0
LINE
  5
155
100
AcDbEntity
  8
0
  6
CONTINUOUS
 62
       7
100
AcDbLine
 10
27.35000153
 20
55.10000273
 30
0.0
 11
21.77500153
 21
55.10000273
 31
0.0
  0
LINE
  5
156
100
AcDbEntity
  8
0
  6
CONTINUOUS
 62
       7
100
AcDbLine
 10
27.07500153
 20
57.60000273
 30
0.0
 11
21.77500153
 21
57.60000273
 31
0.0
  0
LINE
  5
157
100
AcDbEntity
  8
0
  6
CONTINUOUS
 62
       7
100
AcDbLine
 10
34.52500153
 20
55.10000273
 30
0.0
 11
28.95000153
 21
55.10000273
 31
0.0
  0
LINE
  5
158
100
AcDbEntity
  8
0
  6
CONTINUOUS
 62
       7
100
AcDbLine
 10
34.52500153
 20
57.60000273
 30
0.0
 11
28.90000153
 21
57.60000273
 31
0.0
  0
LINE
  5
159
100
AcDbEntity
  8
0
  6
CONTINUOUS
 62
       2
100
AcDbLine
 10
41.55000153
 20
56.35000273
 30
0.0
 11
17.15000153
 21
56.35000273
 31
0.0
  0
LINE
  5
15A
100
AcDbEntity
  8
0
  6
CONTINUOUS
 62
       7
100
AcDbLine
 10
-8.72499847
 20
74.57500305
 30
0.0
 11
-9.72499847
 21
73.57500305
 31
0.0
  0
LINE
  5
15B
100
AcDbEntity
  8
0
  6
CONTINUOUS
 62
       7
100
AcDbLine
 10
9.27500153
 20
74.55000305
 30
0.0
 11
-8.72499847
 21
74.55000305
 31
0.0
  0
LINE
  5
15C
100
AcDbEntity
  8
0
  6
CONTINUOUS
 62
       7
100
AcDbLine
 10
9.27500153
 20
74.55000305
 30
0.0
 11
10.27500153
 21
73.55000305
 31
0.0
  0
LINE
  5
15D
100
AcDbEntity
  8
0
  6
CONTINUOUS
 62
       7
100
AcDbLine
 10
11.52500153
 20
71.45000305
 30
0.0
 11
11.52500153
 21
70.75000305
 31
0.0
  0
LINE
  5
15E
100
AcDbEntity
  8
0
  6
CONTINUOUS
 62
       7
100
AcDbLine
 10
16.52500153
 20
71.45000305
 30
0.0
 11
16.52500153
 21
70.75000305
 31
0.0
  0
LINE
  5
15F
100
AcDbEntity
  8
0
  6
CONTINUOUS
 62
       7
100
AcDbLine
 10
16.52500153
 20
71.45000305
 30
0.0
 11
14.02500153
 21
71.45000305
 31
0.0
  0
LINE
  5
160
100
AcDbEntity
  8
0
  6
CONTINUOUS
 62
       7
100
AcDbLine
 10
11.52500153
 20
71.45000305
 30
0.0
 11
14.02500153
 21
71.45000305
 31
0.0
  0
LINE
  5
161
100
AcDbEntity
  8
0
  6
CONTINUOUS
 62
       7
100
AcDbLine
 10
21.27500153
 20
53.85000273
 30
0.0
 11
18.77500153
 21
53.85000273
 31
0.0
  0
LINE
  5
162
100
AcDbEntity
  8
0
  6
CONTINUOUS
 62
       7
100
AcDbLine
 10
21.27500153
 20
58.85000273
 30
0.0
 11
18.77500153
 21
58.85000273
 31
0.0
  0
LINE
  5
163
100
AcDbEntity
  8
0
  6
CONTINUOUS
 62
       7
100
AcDbLine
 10
21.77500153
 20
58.35000273
 30
0.0
 11
21.77500153
 21
54.35000273
 31
0.0
  0
LINE
  5
164
100
AcDbEntity
  8
0
  6
CONTINUOUS
 62
       7
100
AcDbLine
 10
9.27500153
 20
70.75000305
 30
0.0
 11
18.77500153
 21
70.75000305
 31
0.0
  0
LINE
  5
165
100
AcDbEntity
  8
0
  6
CONTINUOUS
 62
       7
100
AcDbLine
 10
9.27500153
 20
73.55000305
 30
0.0
 11
9.27500153
 21
70.75000305
 31
0.0
  0
LINE
  5
166
100
AcDbEntity
  8
0
  6
CONTINUOUS
 62
       7
100
AcDbLine
 10
18.77500153
 20
73.55000305
 30
0.0
 11
-18.22499847
 21
73.55000305
 31
0.0
  0
SPLINE
  5
167
100
AcDbEntity
  8
0
  6
CONTINUOUS
 62
       7
100
AcDbSpline
210
0.0
220
0.0
230
1.0
 70
       0
 71
       3
 72
       0
 73
       0
 74
       3
 44
0.000001
 12
-0.0474792013369111
 22
0.9988722267839911
 32
0.0
 13
0.9999950468007323
 23
0.0031474392768322
 33
0.0
 11
-114.47499847412109
 21
71.45000305175779
 31
0.0
 11
-114.29999847412108
 21
72.525003051757722
 31
0.0
 11
-111.97499847412109
 21
73.550003051757699
 31
0.0
  0
SPLINE
  5
168
100
AcDbEntity
  8
0
  6
CONTINUOUS
 62
       7
100
AcDbSpline
210
0.0
220
0.0
230
1.0
 70
       0
 71
       3
 72
       0
 73
       0
 74
       3
 44
0.000001
 12
0.047479201336911
 22
0.9988722267839911
 32
0.0
 13
-0.9999950468007323
 23
0.0031474392768323
 33
0.0
 11
-109.47499847412109
 21
71.45000305175779
 31
0.0
 11
-109.64999847412111
 21
72.525003051757722
 31
0.0
 11
-111.97499847412109
 21
73.550003051757699
 31
0.0
  0
LINE
  5
169
100
AcDbEntity
  8
0
  6
CONTINUOUS
 62
       7
100
AcDbLine
 10
-92.72499847
 20
74.55000305
 30
0.0
 11
-91.72499847
 21
73.55000305
 31
0.0
  0
LINE
  5
16A
100
AcDbEntity
  8
0
  6
CONTINUOUS
 62
       7
100
AcDbLine
 10
-110.72499847
 20
74.57500305
 30
0.0
 11
-111.72499847
 21
73.57500305
 31
0.0
  0
LINE
  5
16B
100
AcDbEntity
  8
0
  6
CONTINUOUS
 62
       7
100
AcDbLine
 10
-92.72499847
 20
74.55000305
 30
0.0
 11
-110.72499847
 21
74.55000305
 31
0.0
  0
LINE
  5
16C
100
AcDbEntity
  8
0
  6
CONTINUOUS
 62
       7
100
AcDbLine
 10
-114.47499847
 20
71.45000305
 30
0.0
 11
-114.47499847
 21
70.75000305
 31
0.0
  0
LINE
  5
16D
100
AcDbEntity
  8
0
  6
CONTINUOUS
 62
       7
100
AcDbLine
 10
-109.47499847
 20
71.45000305
 30
0.0
 11
-109.47499847
 21
70.75000305
 31
0.0
  0
LINE
  5
16E
100
AcDbEntity
  8
0
  6
CONTINUOUS
 62
       7
100
AcDbLine
 10
-109.47499847
 20
71.45000305
 30
0.0
 11
-111.97499847
 21
71.45000305
 31
0.0
  0
LINE
  5
16F
100
AcDbEntity
  8
0
  6
CONTINUOUS
 62
       7
100
AcDbLine
 10
-114.47499847
 20
71.45000305
 30
0.0
 11
-111.97499847
 21
71.45000305
 31
0.0
  0
LINE
  5
170
100
AcDbEntity
  8
0
  6
CONTINUOUS
 62
       7
100
AcDbLine
 10
-108.72499847
 20
73.55000305
 30
0.0
 11
-108.72499847
 21
70.75000305
 31
0.0
  0
LINE
  5
171
100
AcDbEntity
  8
0
  6
CONTINUOUS
 62
       7
100
AcDbLine
 10
-115.22499847
 20
70.75000305
 30
0.0
 11
-108.72499847
 21
70.75000305
 31
0.0
  0
LINE
  5
172
100
AcDbEntity
  8
0
  6
CONTINUOUS
 62
       7
100
AcDbLine
 10
-115.22499847
 20
73.55000305
 30
0.0
 11
-88.22499847
 21
73.55000305
 31
0.0
  0
LINE
  5
173
100
AcDbEntity
  8
0
  6
CONTINUOUS
 62
       7
100
AcDbLine
 10
118.5150016
 20
71.45000279
 30
0.0
 11
118.5150016
 21
70.75000279
 31
0.0
  0
LINE
  5
174
100
AcDbEntity
  8
0
  6
CONTINUOUS
 62
       7
100
AcDbLine
 10
117.77500161
 20
-29.24999663
 30
0.0
 11
144.77500144
 21
-29.24999663
 31
0.0
  0
LINE
  5
175
100
AcDbEntity
  8
0
  6
CONTINUOUS
 62
       7
100
AcDbLine
 10
18.77500141
 20
-29.24999663
 30
0.0
 11
-18.22499836
 21
-29.24999663
 31
0.0
  0
LINE
  5
176
100
AcDbEntity
  8
0
  6
CONTINUOUS
 62
       7
100
AcDbLine
 10
-115.22499839
 20
-29.24999663
 30
0.0
 11
-88.22499856
 21
-29.24999663
 31
0.0
  0
MTEXT
  5
177
100
AcDbEntity
  8
0
  6
CONTINUOUS
 62
       7
100
AcDbMText
 10
-185.7
 20
107.6000061
 30
0.0
 40
4.5
 41
0.0
 71
       4
 72
       1
  1
\W1.067;\A1;MODEL:203-4E2-70
  0
LINE
  5
178
100
AcDbEntity
  8
0
  6
CONTINUOUS
 62
       7
100
AcDbLine
 10
-194.25
 20
132.6000061
 30
0.0
 11
194.80000305
 21
132.6000061
 31
0.0
  0
LINE
  5
179
100
AcDbEntity
  8
0
  6
CONTINUOUS
 62
       7
100
AcDbLine
 10
194.80000305
 20
132.6000061
 30
0.0
 11
194.80000305
 21
-133.5
 31
0.0
  0
LINE
  5
17A
100
AcDbEntity
  8
0
  6
CONTINUOUS
 62
       7
100
AcDbLine
 10
-194.25
 20
132.6000061
 30
0.0
 11
-194.25
 21
-133.5
 31
0.0
  0
LINE
  5
17B
100
AcDbEntity
  8
0
  6
CONTINUOUS
 62
       7
100
AcDbLine
 10
-194.25
 20
-133.5
 30
0.0
 11
194.80000305
 21
-133.5
 31
0.0
  0
ENDSEC
  0
SECTION
  2
OBJECTS
  0
DICTIONARY
  5
19
100
AcDbDictionary
  3
ACAD_GROUP
350
1A
  3
ACAD_MLINESTYLE
350
1B
  0
DICTIONARY
  5
1A
102
{ACAD_REACTORS
330
19
102
}
100
AcDbDictionary
  0
DICTIONARY
  5
1B
102
{ACAD_REACTORS
330
19
102
}
100
AcDbDictionary
  3
STANDARD
350
1C
  0
MLINESTYLE
  5
1C
102
{ACAD_REACTORS
330
1B
102
}
100
AcDbMlineStyle
  2
Standard
 70
       0
  3

 62
       0
 51
90.0
 52
90.0
 71
       2
 49
0.5
 62
     256
  6
ByLayer
 49
-0.5
 62
     256
  6
ByLayer
  0
ENDSEC
  0
EOF
