  0
SECTION
  2
HEADER
  9
$ACADVER
  1
AC1002
  9
$INSBASE
 10
0.0
 20
0.0
  9
$EXTMIN
 10
-131.1236
 20
-90.00001
  9
$EXTMAX
 10
131.1236
 20
90.00001
  9
$LIMMIN
 10
0.0
 20
0.0
  9
$LIMMAX
 10
12.0
 20
9.0
  9
$VIEWCTR
 10
10.11492432
 20
0.0
  9
$VIEWSIZE
 40
180.00002
  9
$SNAPMODE
 70
     0
  9
$SNAPUNIT
 10
1.0
 20
1.0
  9
$SNAPBASE
 10
0.0
 20
0.0
  9
$SNAPANG
 50
0.0
  9
$SNAPSTYLE
 70
     0
  9
$SNAPISOPAIR
 70
     0
  9
$GRIDMODE
 70
     0
  9
$GRIDUNIT
 10
0.0
 20
0.0
  9
$ORTHOMODE
 70
     0
  9
$REGENMODE
 70
     1
  9
$FILLMODE
 70
     1
  9
$QTEXTMODE
 70
     0
  9
$DRAGMODE
 70
     2
  9
$LTSCALE
 40
1.0
  9
$OSMODE
 70
     0
  9
$ATTMODE
 70
     1
  9
$TEXTSIZE
 40
0.2
  9
$TRACEWID
 40
0.05
  9
$TEXTSTYLE
  7
AAA
  9
$CLAYER
  8
0
  9
$CELTYPE
  6
BYLAYER
  9
$CECOLOR
 62
   256
  9
$DIMSCALE
 40
1.0
  9
$DIMASZ
 40
0.18
  9
$DIMEXO
 40
0.0625
  9
$DIMDLI
 40
0.38
  9
$DIMRND
 40
0.0
  9
$DIMDLE
 40
0.0
  9
$DIMEXE
 40
0.18
  9
$DIMTP
 40
0.0
  9
$DIMTM
 40
0.0
  9
$DIMTXT
 40
0.18
  9
$DIMCEN
 40
0.09
  9
$DIMTSZ
 40
0.0
  9
$DIMTOL
 70
     0
  9
$DIMLIM
 70
     0
  9
$DIMTIH
 70
     1
  9
$DIMTOH
 70
     1
  9
$DIMSE1
 70
     0
  9
$DIMSE2
 70
     0
  9
$DIMTAD
 70
     0
  9
$DIMZIN
 70
     0
  9
$DIMBLK
  1

  9
$LUNITS
 70
     2
  9
$LUPREC
 70
     4
  9
$AXISMODE
 70
     0
  9
$AXISUNIT
 10
0.0
 20
0.0
  9
$SKETCHINC
 40
0.1
  9
$FILLETRAD
 40
0.0
  9
$AUNITS
 70
     0
  9
$AUPREC
 70
     0
  9
$MENU
  1
ACAD
  9
$ELEVATION
 40
0.0
  9
$THICKNESS
 40
0.0
  9
$VIEWDIR
 10
0.0
 20
0.0
 30
1.0
  9
$LIMCHECK
 70
     0
  9
$BLIPMODE
 70
     1
  9
$CHAMFERA
 40
0.0
  9
$CHAMFERB
 40
0.0
  9
$FASTZOOM
 70
     1
  9
$SKPOLY
 70
     0
  9
$TDCREATE
 40
2447882.6955093087
  9
$TDUPDATE
 40
2447882.6955093087
  9
$TDINDWG
 40
0.0025347222
  9
$TDUSRTIMER
 40
0.0025347222
  9
$USRTIMER
 70
     1
  9
$ANGBASE
 50
0.0
  9
$ANGDIR
 70
     0
  9
$PDMODE
 70
     0
  9
$PDSIZE
 40
0.0
  9
$PLINEWID
 40
0.0
  9
$COORDS
 70
     0
  9
$USERI1
 70
     0
  9
$USERI2
 70
     0
  9
$USERI3
 70
     0
  9
$USERI4
 70
     0
  9
$USERI5
 70
     0
  9
$USERR1
 40
0.0
  9
$USERR2
 40
0.0
  9
$USERR3
 40
0.0
  9
$USERR4
 40
0.0
  9
$USERR5
 40
0.0
  0
ENDSEC
  0
SECTION
  2
TABLES
  0
TABLE
  2
LTYPE
 70
     2
  0
LTYPE
  2
CONTINUOUS
 70
    64
  3
SOLID
 72
    65
 73
     0
 40
0.0
  0
LTYPE
  2
CENTER
 70
    64
  3
CENTER
 72
    65
 73
     4
 40
2.0
 49
1.25
 49
-0.25
 49
0.25
 49
-0.25
  0
ENDTAB
  0
TABLE
  2
LAYER
 70
     1
  0
LAYER
  2
0
 70
    64
 62
     7
  6
CONTINUOUS
  0
ENDTAB
  0
TABLE
  2
STYLE
 70
     2
  0
STYLE
  2
AAA
 70
     0
 40
0.0
 41
1.0
 50
0.0
 71
     0
 42
0.2
  3
TXT
  4

  0
STYLE
  2
STANDARD
 70
    64
 40
0.0
 41
1.0
 50
0.0
 71
     0
 42
0.2
  3
TXT
  4
BIGFONT
  0
ENDTAB
  0
TABLE
  2
VIEW
 70
     0
  0
ENDTAB
  0
ENDSEC
  0
SECTION
  2
BLOCKS
  0
ENDSEC
  0
SECTION
  2
ENTITIES
  0
POINT
  8
0
  6
CONTINUOUS
 62
     7
 10
-103.3427
 20
-5.0
  0
POINT
  8
0
  6
CONTINUOUS
 62
     7
 10
-91.34271
 20
-5.0
  0
POINT
  8
0
  6
CONTINUOUS
 62
     7
 10
-32.7809
 20
-5.0
  0
POINT
  8
0
  6
CONTINUOUS
 62
     7
 10
-27.7809
 20
-5.0
  0
POINT
  8
0
  6
CONTINUOUS
 62
     7
 10
25.7809
 20
-5.0
  0
POINT
  8
0
  6
CONTINUOUS
 62
     7
 10
55.7809
 20
-5.0
  0
POINT
  8
0
  6
CONTINUOUS
 62
     7
 10
96.34271
 20
-5.0
  0
POINT
  8
0
  6
CONTINUOUS
 62
     7
 10
104.3427
 20
-5.0
  0
LINE
  8
0
  6
CONTINUOUS
 62
     7
 10
-131.1236
 20
-90.00001
 11
-131.1236
 21
90.00001
  0
LINE
  8
0
  6
CONTINUOUS
 62
     7
 10
131.1236
 20
90.00001
 11
131.1236
 21
-90.00001
  0
LINE
  8
0
  6
CONTINUOUS
 62
     7
 10
-131.1236
 20
-90.00001
 11
131.1236
 21
-90.00001
  0
LINE
  8
0
  6
CONTINUOUS
 62
     7
 10
-131.1236
 20
90.00001
 11
131.1236
 21
90.00001
  0
LINE
  8
0
  6
CONTINUOUS
 62
     7
 10
-131.1236
 20
79.88764
 11
-77.19102
 21
79.88764
  0
LINE
  8
0
  6
CONTINUOUS
 62
     7
 10
-77.19102
 20
79.88764
 11
-77.19102
 21
90.00001
  0
LINE
  8
0
  6
CONTINUOUS
 62
     7
 10
77.19101
 20
-79.88764
 11
131.1236
 21
-79.88764
  0
LINE
  8
0
  6
CONTINUOUS
 62
     7
 10
91.35169
 20
-82.31916
 11
96.53259
 21
-82.31916
  0
LINE
  8
0
  6
CONTINUOUS
 62
     7
 10
91.35169
 20
-86.91354
 11
95.75056
 21
-86.91354
  0
LINE
  8
0
  6
CONTINUOUS
 62
     7
 10
91.35169
 20
-88.08657
 11
97.31461
 21
-88.08657
  0
LINE
  8
0
  6
CONTINUOUS
 62
     7
 10
91.35169
 20
-83.49218
 11
95.75056
 21
-83.49218
  0
LINE
  8
0
  6
CONTINUOUS
 62
     7
 10
91.35169
 20
-82.31916
 11
91.35169
 21
-83.49218
  0
LINE
  8
0
  6
CONTINUOUS
 62
     7
 10
97.31461
 20
-83.10118
 11
97.31461
 21
-88.08657
  0
LINE
  8
0
  6
CONTINUOUS
 62
     7
 10
95.75056
 20
-83.49218
 11
95.75056
 21
-86.91354
  0
LINE
  8
0
  6
CONTINUOUS
 62
     7
 10
98.19438
 20
-82.31916
 11
98.19438
 21
-83.49218
  0
LINE
  8
0
  6
CONTINUOUS
 62
     7
 10
103.7663
 20
-83.49218
 11
103.7663
 21
-87.30457
  0
LINE
  8
0
  6
CONTINUOUS
 62
     7
 10
102.2023
 20
-83.49218
 11
102.2023
 21
-86.91354
  0
LINE
  8
0
  6
CONTINUOUS
 62
     7
 10
91.35169
 20
-86.91354
 11
91.35169
 21
-88.08657
  0
LINE
  8
0
  6
CONTINUOUS
 62
     7
 10
98.19438
 20
-82.31916
 11
99.73978
 21
-82.31916
  0
LINE
  8
0
  6
CONTINUOUS
 62
     7
 10
98.19438
 20
-88.08657
 11
99.4088
 21
-88.08657
  0
LINE
  8
0
  6
CONTINUOUS
 62
     7
 10
98.19463
 20
-88.08676
 11
99.4257
 21
-83.49239
  0
LINE
  8
0
  6
CONTINUOUS
 62
     7
 10
98.19438
 20
-83.49218
 11
99.42545
 21
-83.49218
  0
LINE
  8
0
  6
CONTINUOUS
 62
     7
 10
99.40903
 20
-88.08674
 11
100.6401
 21
-83.49235
  0
LINE
  8
0
  6
CONTINUOUS
 62
     7
 10
101.0292
 20
-86.91354
 11
102.2023
 21
-86.91354
  0
LINE
  8
0
  6
CONTINUOUS
 62
     7
 10
101.0291
 20
-86.91348
 11
101.3434
 21
-88.08647
  0
LINE
  8
0
  6
CONTINUOUS
 62
     7
 10
101.3435
 20
-88.08657
 11
102.9843
 21
-88.08657
  0
LINE
  8
0
  6
CONTINUOUS
 62
     7
 10
100.6399
 20
-83.49218
 11
102.2023
 21
-83.49218
  0
LINE
  8
0
  6
CONTINUOUS
 62
     7
 10
100.9542
 20
-82.31916
 11
102.5933
 21
-82.31916
  0
LINE
  8
0
  6
CONTINUOUS
 62
     7
 10
99.73981
 20
-82.31919
 11
99.97292
 21
-81.44921
  0
LINE
  8
0
  6
CONTINUOUS
 62
     7
 10
100.9542
 20
-82.31916
 11
101.1873
 21
-81.44919
  0
LINE
  8
0
  6
CONTINUOUS
 62
     7
 10
104.7438
 20
-82.31916
 11
106.6011
 21
-82.31916
  0
LINE
  8
0
  6
CONTINUOUS
 62
     7
 10
104.7438
 20
-83.49218
 11
109.3053
 21
-83.49218
  0
LINE
  8
0
  6
CONTINUOUS
 62
     7
 10
106.6011
 20
-88.08657
 11
108.1652
 21
-88.08657
  0
LINE
  8
0
  6
CONTINUOUS
 62
     7
 10
104.7438
 20
-82.31916
 11
104.7438
 21
-83.49218
  0
LINE
  8
0
  6
CONTINUOUS
 62
     7
 10
110.5112
 20
-85.61926
 11
110.5112
 21
-86.91354
  0
LINE
  8
0
  6
CONTINUOUS
 62
     7
 10
104.7437
 20
-86.91345
 11
106.601
 21
-86.04738
  0
LINE
  8
0
  6
CONTINUOUS
 62
     7
 10
104.7438
 20
-85.61927
 11
109.3053
 21
-83.4922
  0
LINE
  8
0
  6
CONTINUOUS
 62
     7
 10
104.7438
 20
-85.61926
 11
104.7438
 21
-86.91354
  0
LINE
  8
0
  6
CONTINUOUS
 62
     7
 10
108.1652
 20
-85.81956
 11
110.5112
 21
-86.91356
  0
LINE
  8
0
  6
CONTINUOUS
 62
     7
 10
109.0154
 20
-84.92177
 11
110.5113
 21
-85.61932
  0
LINE
  8
0
  6
CONTINUOUS
 62
     7
 10
110.5112
 20
-83.10118
 11
110.5112
 21
-83.72594
  0
LINE
  8
0
  6
CONTINUOUS
 62
     7
 10
106.6011
 20
-81.44916
 11
106.6011
 21
-82.31916
  0
LINE
  8
0
  6
CONTINUOUS
 62
     7
 10
108.1652
 20
-81.44916
 11
108.1652
 21
-82.31916
  0
LINE
  8
0
  6
CONTINUOUS
 62
     7
 10
108.1652
 20
-82.31916
 11
109.7292
 21
-82.31916
  0
LINE
  8
0
  6
CONTINUOUS
 62
     7
 10
106.6011
 20
-86.04747
 11
106.6011
 21
-88.08657
  0
LINE
  8
0
  6
CONTINUOUS
 62
     7
 10
108.1652
 20
-85.81956
 11
108.1652
 21
-88.08657
  0
LINE
  8
0
  6
CONTINUOUS
 62
     7
 10
109.0153
 20
-84.92168
 11
110.0597
 21
-84.43469
  0
LINE
  8
0
  6
CONTINUOUS
 62
     7
 10
115.7899
 20
-81.80107
 11
116.9629
 21
-81.80107
  0
LINE
  8
0
  6
CONTINUOUS
 62
     7
 10
111.0
 20
-84.22416
 11
111.0
 21
-85.48656
  0
LINE
  8
0
  6
CONTINUOUS
 62
     7
 10
116.9629
 20
-81.80107
 11
116.9629
 21
-82.31916
  0
LINE
  8
0
  6
CONTINUOUS
 62
     7
 10
115.7899
 20
-81.80107
 11
115.7899
 21
-82.05386
  0
LINE
  8
0
  6
CONTINUOUS
 62
     7
 10
114.2258
 20
-84.20361
 11
114.2258
 21
-88.08657
  0
LINE
  8
0
  6
CONTINUOUS
 62
     7
 10
111.0001
 20
-84.22427
 11
115.5435
 21
-82.41731
  0
LINE
  8
0
  6
CONTINUOUS
 62
     7
 10
111.0
 20
-85.48662
 11
114.2259
 21
-84.20366
  0
LINE
  8
0
  6
CONTINUOUS
 62
     7
 10
114.2258
 20
-88.08657
 11
115.7899
 21
-88.08657
  0
LINE
  8
0
  6
CONTINUOUS
 62
     7
 10
115.7899
 20
-83.58156
 11
115.7899
 21
-88.08657
  0
LINE
  8
0
  6
CONTINUOUS
 62
     7
 10
115.79
 20
-83.58161
 11
116.2235
 21
-83.40919
  0
LINE
  8
0
  6
CONTINUOUS
 62
     7
 10
99.87858
 20
-81.44916
 11
101.1873
 21
-81.44916
  0
LINE
  8
0
  6
CONTINUOUS
 62
     7
 10
103.1309
 20
-81.44916
 11
103.6294
 21
-81.44916
  0
LINE
  8
0
  6
CONTINUOUS
 62
     7
 10
106.6011
 20
-81.44916
 11
108.1652
 21
-81.44916
  0
LINE
  8
0
  6
CONTINUOUS
 62
     7
 10
103.1309
 20
-82.23119
 11
103.6294
 21
-82.23119
  0
LINE
  8
0
  6
CONTINUOUS
 62
     7
 10
103.1309
 20
-81.44916
 11
103.1309
 21
-82.23119
  0
LINE
  8
0
  6
CONTINUOUS
 62
     7
 10
103.6294
 20
-81.44916
 11
103.6294
 21
-82.23119
  0
LINE
  8
0
  6
CONTINUOUS
 62
     7
 10
103.9227
 20
-81.44916
 11
103.9227
 21
-82.23119
  0
LINE
  8
0
  6
CONTINUOUS
 62
     7
 10
104.4799
 20
-81.44916
 11
104.4799
 21
-82.23119
  0
LINE
  8
0
  6
CONTINUOUS
 62
     7
 10
103.9227
 20
-81.44916
 11
104.4799
 21
-81.44916
  0
LINE
  8
0
  6
CONTINUOUS
 62
     7
 10
103.9227
 20
-82.23119
 11
104.4799
 21
-82.23119
  0
LINE
  8
0
  6
CONTINUOUS
 62
     7
 10
77.19101
 20
79.88764
 11
131.1236
 21
79.88764
  0
LINE
  8
0
  6
CONTINUOUS
 62
     7
 10
77.19101
 20
90.00001
 11
77.19101
 21
79.88764
  0
LINE
  8
0
  6
CONTINUOUS
 62
     7
 10
77.19101
 20
-79.88764
 11
77.19101
 21
-90.00001
  0
LINE
  8
0
  6
CONTINUOUS
 62
     7
 10
0.0
 20
-90.00001
 11
0.0
 21
90.00001
  0
LINE
  8
0
  6
CONTINUOUS
 62
     7
 10
-96.88979
 20
0.7735
 11
-91.78926
 21
0.7735
  0
LINE
  8
0
  6
CONTINUOUS
 62
     7
 10
-96.88979
 20
-10.7735
 11
-91.78929
 21
-10.7735
  0
LINE
  8
0
  6
CONTINUOUS
 62
     7
 10
-107.3427
 20
-0.77738
 11
-107.3427
 21
-9.22262
  0
LINE
  8
0
  6
CONTINUOUS
 62
     7
 10
-91.78928
 20
0.77351
 11
-91.3427
 21
0.00001
  0
LINE
  8
0
  6
CONTINUOUS
 62
     7
 10
-91.34272
 20
-10.00001
 11
-91.7893
 21
-10.7735
  0
LINE
  8
0
  6
CONTINUOUS
 62
     7
 10
-106.8429
 20
-0.24539
 11
-99.3424
 21
-0.011
  0
LINE
  8
0
  6
CONTINUOUS
 62
     7
 10
-107.3427
 20
-0.84199
 11
-99.34271
 21
-0.59199
  0
LINE
  8
0
  6
CONTINUOUS
 62
     7
 10
-107.3427
 20
-9.158
 11
-99.34271
 21
-9.408
  0
LINE
  8
0
  6
CONTINUOUS
 62
     7
 10
-106.8429
 20
-9.75462
 11
-99.3427
 21
-9.989
  0
LINE
  8
0
  6
CONTINUOUS
 62
     7
 10
-106.843
 20
-0.24537
 11
-107.3427
 21
-0.77737
  0
LINE
  8
0
  6
CONTINUOUS
 62
     7
 10
-106.843
 20
-9.75462
 11
-107.3427
 21
-9.22263
  0
LINE
  8
0
  6
CONTINUOUS
 62
     7
 10
-97.34271
 20
-0.011
 11
-97.34271
 21
-9.98902
  0
LINE
  8
0
  6
CONTINUOUS
 62
     7
 10
-96.88978
 20
-2.11325
 11
-91.78929
 21
-2.11325
  0
LINE
  8
0
  6
CONTINUOUS
 62
     7
 10
-96.88979
 20
-7.88675
 11
-91.78929
 21
-7.88675
  0
LINE
  8
0
  6
CONTINUOUS
 62
     7
 10
-97.34271
 20
-0.011
 11
-96.88978
 21
0.77351
  0
LINE
  8
0
  6
CONTINUOUS
 62
     7
 10
-97.34272
 20
-9.98901
 11
-96.88979
 21
-10.77351
  0
LINE
  8
0
  6
CONTINUOUS
 62
     7
 10
-106.843
 20
-0.24538
 11
-106.843
 21
-9.75462
  0
LINE
  8
0
  6
CONTINUOUS
 62
     7
 10
-91.34271
 20
-10.00001
 11
-91.34271
 21
0.00005
  0
LINE
  8
0
  6
CENTER
 62
     2
 10
-108.2591
 20
-5.0
 11
-90.32495
 21
-5.0
  0
LINE
  8
0
  6
CONTINUOUS
 62
     7
 10
-99.34271
 20
-0.01101
 11
-99.34271
 21
-9.989
  0
LINE
  8
0
  6
CONTINUOUS
 62
     7
 10
-99.34271
 20
-0.011
 11
-97.34271
 21
-0.011
  0
LINE
  8
0
  6
CONTINUOUS
 62
     7
 10
-99.34271
 20
-9.989
 11
-97.34271
 21
-9.989
  0
LINE
  8
0
  6
CONTINUOUS
 62
     7
 10
-27.7809
 20
-2.11325
 11
-27.7809
 21
-7.88675
  0
LINE
  8
0
  6
CONTINUOUS
 62
     7
 10
-37.7809
 20
-2.11325
 11
-37.7809
 21
-7.88675
  0
LINE
  8
0
  6
CONTINUOUS
 62
     7
 10
-37.7809
 20
-2.11324
 11
-32.7809
 21
0.77351
  0
LINE
  8
0
  6
CONTINUOUS
 62
     7
 10
-32.78091
 20
-10.77352
 11
-27.78091
 21
-7.88677
  0
LINE
  8
0
  6
CONTINUOUS
 62
     7
 10
-32.7809
 20
0.7735
 11
-27.7809
 21
-2.11325
  0
LINE
  8
0
  6
CONTINUOUS
 62
     7
 10
-37.7809
 20
-7.88675
 11
-32.7809
 21
-10.7735
  0
LINE
  8
0
  6
CENTER
 62
     2
 10
-38.7809
 20
-5.0
 11
-26.7809
 21
-5.0
  0
LINE
  8
0
  6
CENTER
 62
     2
 10
-32.7809
 20
1.5
 11
-32.7809
 21
-11.5
  0
LINE
  8
0
  6
CENTER
 62
     2
 10
20.25418
 20
-5.0
 11
57.56187
 21
-5.0
  0
LINE
  8
0
  6
CONTINUOUS
 62
     7
 10
35.7809
 20
-13.0
 11
55.2809
 21
-13.0
  0
LINE
  8
0
  6
CONTINUOUS
 62
     7
 10
35.7809
 20
3.0
 11
55.2809
 21
3.0
  0
LINE
  8
0
  6
CONTINUOUS
 62
     7
 10
55.7809
 20
2.5
 11
55.7809
 21
-12.5
  0
LINE
  8
0
  6
CONTINUOUS
 62
     7
 10
28.7809
 20
3.0829
 11
28.7809
 21
-13.0829
  0
LINE
  8
0
  6
CONTINUOUS
 62
     7
 10
28.7809
 20
3.0829
 11
35.7809
 21
3.0829
  0
LINE
  8
0
  6
CONTINUOUS
 62
     7
 10
28.7809
 20
-0.95855
 11
35.7809
 21
-0.95855
  0
LINE
  8
0
  6
CONTINUOUS
 62
     7
 10
28.7809
 20
-9.04145
 11
35.7809
 21
-9.04145
  0
LINE
  8
0
  6
CONTINUOUS
 62
     7
 10
28.7809
 20
-13.0829
 11
35.7809
 21
-13.0829
  0
LINE
  8
0
  6
CONTINUOUS
 62
     7
 10
21.7809
 20
1.45349
 11
28.7809
 21
1.67224
  0
LINE
  8
0
  6
CONTINUOUS
 62
     7
 10
21.7809
 20
-11.4535
 11
28.7809
 21
-11.67225
  0
LINE
  8
0
  6
CONTINUOUS
 62
     7
 10
21.7809
 20
0.59749
 11
28.7809
 21
0.81624
  0
LINE
  8
0
  6
CONTINUOUS
 62
     7
 10
21.7809
 20
-10.5975
 11
28.7809
 21
-10.81625
  0
LINE
  8
0
  6
CONTINUOUS
 62
     7
 10
21.7809
 20
1.45349
 11
21.7809
 21
-11.4535
  0
LINE
  8
0
  6
CONTINUOUS
 62
     7
 10
35.7809
 20
3.0829
 11
35.7809
 21
-13.0829
  0
LINE
  8
0
  6
CONTINUOUS
 62
     7
 10
50.7809
 20
3.0
 11
50.7809
 21
-4.0
  0
LINE
  8
0
  6
CONTINUOUS
 62
     7
 10
37.7809
 20
3.0
 11
37.7809
 21
-3.0
  0
LINE
  8
0
  6
CONTINUOUS
 62
     7
 10
53.7809
 20
3.0
 11
53.7809
 21
-13.0
  0
LINE
  8
0
  6
CONTINUOUS
 62
     7
 10
50.7809
 20
-4.0
 11
47.2809
 21
-3.73077
  0
LINE
  8
0
  6
CONTINUOUS
 62
     7
 10
50.78091
 20
-6.0
 11
47.2809
 21
-6.26923
  0
LINE
  8
0
  6
CONTINUOUS
 62
     7
 10
41.2809
 20
3.0
 11
41.2809
 21
-3.26923
  0
LINE
  8
0
  6
CONTINUOUS
 62
     7
 10
47.2809
 20
3.0
 11
47.2809
 21
-3.73077
  0
LINE
  8
0
  6
CONTINUOUS
 62
     7
 10
46.0309
 20
3.0
 11
46.0309
 21
-3.63462
  0
LINE
  8
0
  6
CONTINUOUS
 62
     7
 10
42.5309
 20
3.0
 11
42.5309
 21
-3.36538
  0
LINE
  8
0
  6
CONTINUOUS
 62
     7
 10
37.7809
 20
-7.0
 11
37.7809
 21
-13.0
  0
LINE
  8
0
  6
CONTINUOUS
 62
     7
 10
41.2809
 20
-6.73077
 11
41.2809
 21
-13.0
  0
LINE
  8
0
  6
CONTINUOUS
 62
     7
 10
42.5309
 20
-6.63462
 11
42.5309
 21
-13.0
  0
LINE
  8
0
  6
CONTINUOUS
 62
     7
 10
46.0309
 20
-6.36539
 11
46.0309
 21
-13.0
  0
LINE
  8
0
  6
CONTINUOUS
 62
     7
 10
50.7809
 20
-6.0
 11
50.7809
 21
-13.0
  0
LINE
  8
0
  6
CONTINUOUS
 62
     7
 10
47.2809
 20
-6.26923
 11
47.2809
 21
-13.0
  0
LINE
  8
0
  6
CONTINUOUS
 62
     7
 10
41.2809
 20
-3.26923
 11
37.7809
 21
-3.0
  0
LINE
  8
0
  6
CONTINUOUS
 62
     7
 10
41.2809
 20
-6.73077
 11
37.78091
 21
-7.0
  0
LINE
  8
0
  6
CONTINUOUS
 62
     7
 10
46.0309
 20
-6.36539
 11
42.5309
 21
-6.63462
  0
LINE
  8
0
  6
CONTINUOUS
 62
     7
 10
46.0309
 20
-3.63462
 11
42.53091
 21
-3.36538
  0
LINE
  8
0
  6
CONTINUOUS
 62
     7
 10
37.7809
 20
1.0
 11
41.2809
 21
1.13461
  0
LINE
  8
0
  6
CONTINUOUS
 62
     7
 10
37.7809
 20
-11.0
 11
41.2809
 21
-11.13461
  0
LINE
  8
0
  6
CONTINUOUS
 62
     7
 10
42.5309
 20
-11.18269
 11
46.0309
 21
-11.31731
  0
LINE
  8
0
  6
CONTINUOUS
 62
     7
 10
47.2809
 20
-11.36538
 11
50.78089
 21
-11.5
  0
LINE
  8
0
  6
CONTINUOUS
 62
     7
 10
42.5309
 20
1.18269
 11
46.0309
 21
1.31731
  0
LINE
  8
0
  6
CONTINUOUS
 62
     7
 10
47.2809
 20
1.36538
 11
50.7809
 21
1.5
  0
LINE
  8
0
  6
CENTER
 62
     2
 10
86.34271
 20
-5.0
 11
106.3427
 21
-5.0
  0
LINE
  8
0
  6
CENTER
 62
     2
 10
96.34271
 20
5.0
 11
96.34271
 21
-15.0
  0
ARC
  8
0
  6
CONTINUOUS
 62
     7
 10
96.53259
 20
-83.10118
 40
0.78202
 50
0.0
 51
89.99999
  0
ARC
  8
0
  6
CONTINUOUS
 62
     7
 10
102.9843
 20
-87.30457
 40
0.78202
 50
270.0
 51
0.0
  0
ARC
  8
0
  6
CONTINUOUS
 62
     7
 10
102.5933
 20
-83.49218
 40
1.17303
 50
0.0
 51
89.99999
  0
ARC
  8
0
  6
CONTINUOUS
 62
     7
 10
109.7292
 20
-83.10118
 40
0.78202
 50
0.0
 51
89.99999
  0
ARC
  8
0
  6
CONTINUOUS
 62
     7
 10
109.7292
 20
-83.72594
 40
0.78202
 50
295.0
 51
0.0
  0
ARC
  8
0
  6
CONTINUOUS
 62
     7
 10
115.7899
 20
-82.31916
 40
1.17304
 50
291.6882
 51
0.0
  0
ARC
  8
0
  6
CONTINUOUS
 62
     7
 10
115.3989
 20
-82.05386
 40
0.39101
 50
291.6885
 51
0.0
  0
ARC
  8
0
  6
CONTINUOUS
 62
     7
 10
-93.89855
 20
-0.66988
 40
2.55584
 50
325.616
 51
0.0
  0
ARC
  8
0
  6
CONTINUOUS
 62
     7
 10
-93.89854
 20
-9.33013
 40
2.55583
 50
0.0
 51
34.38408
  0
ARC
  8
0
  6
CONTINUOUS
 62
     7
 10
-100.8962
 20
-5.0
 40
9.55348
 50
342.4122
 51
17.58784
  0
ARC
  8
0
  6
CONTINUOUS
 62
     7
 10
-94.81643
 20
-0.66988
 40
2.52628
 50
180.0
 51
214.844
  0
ARC
  8
0
  6
CONTINUOUS
 62
     7
 10
-87.91696
 20
-5.0
 40
9.42575
 50
162.1659
 51
197.8341
  0
ARC
  8
0
  6
CONTINUOUS
 62
     7
 10
-94.81643
 20
-9.33012
 40
2.52628
 50
145.156
 51
180.0
  0
CIRCLE
  8
0
  6
CONTINUOUS
 62
     7
 10
-32.7809
 20
-5.0
 40
5.0
  0
CIRCLE
  8
0
  6
CONTINUOUS
 62
     7
 10
-32.7809
 20
-5.0
 40
3.3235
  0
CIRCLE
  8
0
  6
CONTINUOUS
 62
     7
 10
-32.7809
 20
-5.0
 40
4.0
  0
ARC
  8
0
  6
CONTINUOUS
 62
     7
 10
55.2809
 20
2.5
 40
0.5
 50
0.0
 51
89.99999
  0
ARC
  8
0
  6
CONTINUOUS
 62
     7
 10
55.2809
 20
-12.5
 40
0.5
 50
270.0
 51
0.0
  0
CIRCLE
  8
0
  6
CONTINUOUS
 62
     7
 10
96.34271
 20
-5.0
 40
8.0
  0
TEXT
  8
0
  6
CONTINUOUS
 62
     7
 10
8.21527
 20
60.02167
 40
3.5
  1
MODEL : KM-22
 41
0.8
  7
STANDARD
  0
TEXT
  8
0
  6
CONTINUOUS
 62
     7
 10
80.98867
 20
83.53382
 40
3.0
  1
DATE : AUG,1989
 41
0.8
  7
STANDARD
  0
TEXT
  8
0
  6
CONTINUOUS
 62
     7
 10
-122.8223
 20
83.29883
 40
3.5
  1
180 MUFFLER
 41
0.8
  7
STANDARD
  0
TEXT
  8
0
  6
CONTINUOUS
 62
     7
 10
-122.9083
 20
60.02167
 40
3.5
  1
MODEL : KM-10
 41
0.8
  7
STANDARD
  0
ENDSEC
  0
EOF
