  0
SECTION
  2
HEADER
  0
ENDSEC
  0
SECTION
  2
TABLES
  0
TABLE
  2
LTYPE
 70
     4
  0
LTYPE
  2
CONTINUOUS
 70
    64
  3
Solid line
 72
    65
 73
     0
 40
0.000000
  0
LTYPE
  2
DASHED
 70
    64
  3
__ __ __ __ __ __ __ __ __ __ __ __ __ __ __
 72
    65
 73
     2
 40
3.500000
 49
2.000000
 49
-1.500000
  0
LTYPE
  2
CENTER
 70
    64
  3
____ _ ____ _ ____ _ ____ _ ____ _ ____ _ ____
 72
    65
 73
     4
 40
17.500000
 49
13.000000
 49
-1.500000
 49
1.500000
 49
-1.500000
  0
LTYPE
  2
PHANTOM
 70
    64
  3
_____ _ _ _____ _ _ _____ _ _ _____ _ _ ____  
 72
    65
 73
     6
 40
15.500000
 49
8.000000
 49
-1.500000
 49
1.500000
 49
-1.500000
 49
1.500000
 49
-1.500000
  0
LTYPE
  2
DASHED1
 70
    64
  3
__ __ __ __ __ __ __ __ __ __ __ __ __ __ __
 72
    65
 73
     2
 40
1.500000
 49
1.000000
 49
-0.500000
  0
LTYPE
  2
DASHED2
 70
    64
  3
__ __ __ __ __ __ __ __ __ __ __ __ __ __ __
 72
    65
 73
     2
 40
3.500000
 49
2.500000
 49
-1.000000
  0
LTYPE
  2
DASHED3
 70
    64
  3
__ __ __ __ __ __ __ __ __ __ __ __ __ __ __
 72
    65
 73
     2
 40
6.000000
 49
4.000000
 49
-2.000000
  0
LTYPE
  2
DASHED4
 70
    64
  3
__ __ __ __ __ __ __ __ __ __ __ __ __ __ __
 72
    65
 73
     2
 40
12.000000
 49
10.000000
 49
-2.000000
  0
LTYPE
  2
DASHED5
 70
    64
  3
__ __ __ __ __ __ __ __ __ __ __ __ __ __ __
 72
    65
 73
     2
 40
17.000000
 49
15.000000
 49
-2.000000
  0
LTYPE
  2
DASHED6
 70
    64
  3
__ __ __ __ __ __ __ __ __ __ __ __ __ __ __
 72
    65
 73
     2
 40
29.000000
 49
27.000000
 49
-2.000000
  0
LTYPE
  2
PHANTOM1
 70
    64
  3
_____ _ _ _____ _ _ _____ _ _ _____ _ _ ____  
 72
    65
 73
     6
 40
31.000000
 49
25.000000
 49
-1.500000
 49
1.000000
 49
-1.000000
 49
1.000000
 49
-1.500000
  0
LTYPE
  2
PHANTOM2
 70
    64
  3
_____ _ _ _____ _ _ _____ _ _ _____ _ _ ____  
 72
    65
 73
     6
 40
36.000000
 49
27.000000
 49
-1.500000
 49
2.500000
 49
-1.000000
 49
2.500000
 49
-1.500000
  0
LTYPE
  2
PHANTOM3
 70
    64
  3
_____ _ _ _____ _ _ _____ _ _ _____ _ _ ____  
 72
    65
 73
     6
 40
78.000000
 49
64.000000
 49
-2.000000
 49
4.000000
 49
-2.000000
 49
4.000000
 49
-2.000000
  0
LTYPE
  2
CENTER1
 70
    64
  3
____ _ ____ _ ____ _ ____ _ ____ _ ____ _ ____
 72
    65
 73
     4
 40
19.000000
 49
14.000000
 49
-1.000000
 49
3.000000
 49
-1.000000
  0
LTYPE
  2
CENTER2
 70
    64
  3
____ _ ____ _ ____ _ ____ _ ____ _ ____ _ ____
 72
    65
 73
     4
 40
28.500000
 49
25.000000
 49
-1.000000
 49
1.500000
 49
-1.000000
  0
LTYPE
  2
CENTER3
 70
    64
  3
____ _ ____ _ ____ _ ____ _ ____ _ ____ _ ____
 72
    65
 73
     4
 40
31.500000
 49
27.000000
 49
-1.000000
 49
2.500000
 49
-1.000000
  0
LTYPE
  2
CENTER4
 70
    64
  3
____ _ ____ _ ____ _ ____ _ ____ _ ____ _ ____
 72
    65
 73
     4
 40
50.000000
 49
45.000000
 49
-1.000000
 49
3.000000
 49
-1.000000
  0
LTYPE
  2
CENTER5
 70
    64
  3
____ _ ____ _ ____ _ ____ _ ____ _ ____ _ ____
 72
    65
 73
     4
 40
100.000000
 49
92.000000
 49
-2.000000
 49
4.000000
 49
-2.000000
  0
LTYPE
  2
SBK1
 70
    64
  3
______ _ _ _ ______ _ _ _ ______ _ _ _ _____  
 72
    65
 73
     8
 40
60.500000
 49
45.000000
 49
-2.000000
 49
2.500000
 49
-2.000000
 49
2.500000
 49
-2.000000
 49
2.500000
 49
-2.000000
  0
LTYPE
  2
SBK2
 70
    64
  3
______ _ _ _ ______ _ _ _ ______ _ _ _ _____  
 72
    65
 73
     8
 40
84.000000
 49
64.000000
 49
-2.000000
 49
4.000000
 49
-2.000000
 49
4.000000
 49
-2.000000
 49
4.000000
 49
-2.000000
  0
LTYPE
  2
STCH
 70
    64
  3
__ __ __ __ __ __ __ __ __ __ __ __ __ __ __
 72
    65
 73
     2
 40
3.000000
 49
1.000000
 49
-2.000000
  0
LTYPE
  2
MTCH
 70
    64
  3
_____ _ _ _____ _ _ _____ _ _ _____ _ _ ____  
 72
    65
 73
     6
 40
80.000000
 49
66.000000
 49
-2.000000
 49
4.000000
 49
-2.000000
 49
4.000000
 49
-2.000000
  0
ENDTAB
  0
TABLE
  2
LAYER
 70
     1
  0
LAYER
  2
0
 70
     0
 62
     7
  6
CONTINUOUS
  0
ENDTAB
  0
TABLE
  2
STYLE
 70
     1
  0
STYLE
  2
STANDARD
 70
     0
 40
0.000000
 41
1.000000
 50
0.000000
 71
     0
 42
0.200000
  3
txt
  4
BIGFONT
  0
ENDTAB
  0
TABLE
  2
VIEW
 70
     0
  0
ENDTAB
  0
ENDSEC
  0
SECTION
  2
BLOCKS
  0
ENDSEC
  0
SECTION
  2
ENTITIES
  0
LINE
  8
0
 10
-85.320000
 20
62.000000
 11
-67.320000
 21
62.000000
  0
LINE
  8
0
  6
CENTER
 62
     2
 10
-76.320000
 20
79.199997
 11
-76.320000
 21
8.500000
  0
LINE
  8
0
 10
-67.320000
 20
76.000000
 11
-67.320000
 21
12.100000
  0
LINE
  8
0
 10
-85.320000
 20
76.000000
 11
-85.320000
 21
12.100000
  0
LINE
  8
0
 10
-85.320000
 20
20.000000
 11
-67.320000
 21
20.000000
  0
LINE
  8
0
 10
-84.820000
 20
11.600000
 11
-67.820000
 21
11.600000
  0
LINE
  8
0
  6
CENTER
 62
     2
 10
-84.129997
 20
27.799999
 11
-70.400002
 21
27.799999
  0
LINE
  8
0
  6
CENTER
 62
     2
 10
-83.500000
 20
41.000000
 11
-69.980003
 21
41.000000
  0
LINE
  8
0
  6
CENTER
 62
     2
 10
-83.300003
 20
54.200001
 11
-69.980003
 21
54.200001
  0
LINE
  8
0
  6
CENTER
 62
     2
 10
-82.820000
 20
58.750000
 11
-82.820000
 21
53.580002
  0
LINE
  8
0
  6
CENTER
 62
     2
 10
-69.820000
 20
28.709999
 11
-69.820000
 21
23.190001
  0
LINE
  8
0
  6
CENTER
 62
     2
 10
-72.389999
 20
26.000000
 11
-67.320000
 21
26.000000
  0
LINE
  8
0
  6
CENTER
 62
     2
 10
-85.320000
 20
56.000000
 11
-80.320000
 21
56.000000
  0
LINE
  8
0
  6
CENTER
 62
     2
 10
-82.320000
 20
16.160000
 11
-82.320000
 21
10.360000
  0
LINE
  8
0
 10
-85.120003
 20
15.000000
 11
-79.620003
 21
15.000000
  0
LINE
  8
0
 10
-79.120003
 20
14.500000
 11
-79.120003
 21
12.100000
  0
LINE
  8
0
 10
-85.120003
 20
13.820000
 11
-85.120003
 21
15.000000
  0
LINE
  8
0
 10
-79.519997
 20
13.820000
 11
-79.519997
 21
15.000000
  0
LINE
  8
0
  6
CENTER
 62
     2
 10
-75.820000
 20
60.610001
 11
-75.820000
 21
47.950001
  0
LINE
  8
0
  6
CENTER
 62
     2
 10
-76.820000
 20
34.349998
 11
-76.820000
 21
21.760000
  0
LINE
  8
0
 10
-85.320000
 20
76.000000
 11
-67.320000
 21
76.000000
  0
LINE
  8
0
  6
CENTER
 62
     2
 10
0.000000
 20
78.000000
 11
0.000000
 21
8.050000
  0
LINE
  8
0
 10
13.500000
 20
76.000000
 11
13.500000
 21
12.100000
  0
LINE
  8
0
 10
-13.490000
 20
76.000000
 11
-13.490000
 21
12.100000
  0
LINE
  8
0
 10
-12.990000
 20
11.600000
 11
13.000000
 21
11.600000
  0
LINE
  8
0
 10
-13.490000
 20
20.000000
 11
13.500000
 21
20.000000
  0
LINE
  8
0
 10
-13.490000
 20
62.000000
 11
13.500000
 21
62.000000
  0
LINE
  8
0
 10
10.500000
 20
27.650000
 11
13.500000
 21
27.650000
  0
LINE
  8
0
 10
10.500000
 20
24.340000
 11
13.500000
 21
24.340000
  0
LINE
  8
0
 10
10.500000
 20
27.650000
 11
10.500000
 21
24.340000
  0
LINE
  8
0
  6
CENTER
 62
     2
 10
10.500000
 20
15.870000
 11
10.500000
 21
10.420000
  0
LINE
  8
0
 10
7.800000
 20
15.000000
 11
13.300000
 21
15.000000
  0
LINE
  8
0
 10
7.300000
 20
14.500000
 11
7.300000
 21
12.100000
  0
LINE
  8
0
 10
7.700000
 20
13.820000
 11
7.700000
 21
15.000000
  0
LINE
  8
0
 10
13.300000
 20
13.820000
 11
13.300000
 21
15.000000
  0
LINE
  8
0
  6
CENTER
 62
     2
 10
4.500000
 20
26.000000
 11
14.530000
 21
26.000000
  0
LINE
  8
0
  6
CENTER
 62
     2
 10
4.500000
 20
56.000000
 11
10.840000
 21
56.000000
  0
LINE
  8
0
  6
CENTER
 62
     2
 10
7.500000
 20
59.529999
 11
7.500000
 21
52.860001
  0
LINE
  8
0
  6
CENTER
 62
     2
 10
7.500000
 20
29.530001
 11
7.500000
 21
22.530001
  0
LINE
  8
0
 10
-13.490000
 20
76.000000
 11
13.500000
 21
76.000000
  0
LINE
  8
0
  6
CENTER
 62
     2
 10
80.000000
 20
78.879997
 11
80.000000
 21
8.340000
  0
LINE
  8
0
 10
89.000000
 20
76.000000
 11
89.000000
 21
12.100000
  0
LINE
  8
0
 10
71.000000
 20
76.000000
 11
71.000000
 21
12.100000
  0
LINE
  8
0
 10
71.000000
 20
62.000000
 11
89.000000
 21
62.000000
  0
LINE
  8
0
 10
71.000000
 20
20.000000
 11
89.000000
 21
20.000000
  0
LINE
  8
0
 10
71.500000
 20
11.600000
 11
88.500000
 21
11.600000
  0
LINE
  8
0
  6
CENTER
 62
     2
 10
73.919998
 20
33.000000
 11
86.080002
 21
33.000000
  0
LINE
  8
0
  6
CENTER
 62
     2
 10
74.360001
 20
49.000000
 11
85.980003
 21
49.000000
  0
LINE
  8
0
  6
CENTER
 62
     2
 10
86.500000
 20
60.590000
 11
86.500000
 21
51.580002
  0
LINE
  8
0
  6
CENTER
 62
     2
 10
73.500000
 20
30.110001
 11
73.500000
 21
21.700001
  0
LINE
  8
0
  6
CENTER
 62
     2
 10
70.589996
 20
26.000000
 11
77.660004
 21
26.000000
  0
LINE
  8
0
  6
CENTER
 62
     2
 10
74.000000
 20
16.090000
 11
74.000000
 21
10.140000
  0
LINE
  8
0
 10
77.199997
 20
14.500000
 11
77.199997
 21
12.100000
  0
LINE
  8
0
 10
71.199997
 20
15.000000
 11
76.699997
 21
15.000000
  0
LINE
  8
0
 10
71.199997
 20
13.820000
 11
71.199997
 21
15.000000
  0
LINE
  8
0
 10
76.800003
 20
13.820000
 11
76.800003
 21
15.000000
  0
LINE
  8
0
  6
CENTER
 62
     2
 10
79.500000
 20
39.580002
 11
79.500000
 21
26.840000
  0
LINE
  8
0
  6
CENTER
 62
     2
 10
80.500000
 20
55.130001
 11
80.500000
 21
42.549999
  0
LINE
  8
0
  6
CENTER
 62
     2
 10
82.262589
 20
56.000000
 11
89.589996
 21
56.000000
  0
LINE
  8
0
 10
71.000000
 20
76.000000
 11
89.000000
 21
76.000000
  0
LINE
  8
0
  6
CENTER
 62
     2
 10
-15.880000
 20
-61.000000
 11
15.930000
 21
-61.000000
  0
LINE
  8
0
 10
-12.990000
 20
-70.000000
 11
13.000000
 21
-70.000000
  0
LINE
  8
0
 10
-12.990000
 20
-52.000000
 11
13.000000
 21
-52.000000
  0
LINE
  8
0
 10
-13.490000
 20
-52.500000
 11
-13.490000
 21
-69.500000
  0
LINE
  8
0
 10
-7.290000
 20
-67.000000
 11
-7.290000
 21
-69.500000
  0
LINE
  8
0
 10
-12.990000
 20
-63.799999
 11
-10.490000
 21
-63.799999
  0
LINE
  8
0
 10
10.500000
 20
-58.200001
 11
13.000000
 21
-58.200001
  0
LINE
  8
0
 10
7.300000
 20
-52.500000
 11
7.300000
 21
-55.000000
  0
LINE
  8
0
  6
CENTER
 62
     2
 10
-9.490000
 20
-52.669998
 11
-9.490000
 21
-59.419998
  0
LINE
  8
0
  6
CENTER
 62
     2
 10
9.500000
 20
-62.599998
 11
9.500000
 21
-69.180000
  0
LINE
  8
0
  6
CENTER
 62
     2
 10
-12.640000
 20
-56.000000
 11
-6.110000
 21
-56.000000
  0
LINE
  8
0
  6
CENTER
 62
     2
 10
5.980000
 20
-66.000000
 11
12.830000
 21
-66.000000
  0
LINE
  8
0
  6
CENTER
 62
     2
 10
0.000000
 20
-49.250000
 11
0.000000
 21
-73.220001
  0
LINE
  8
0
 10
13.500000
 20
-52.500000
 11
13.500000
 21
-69.500000
  0
LINE
  8
0
  6
DASHED
 62
     2
 10
75.720001
 20
76.000000
 11
76.110001
 21
69.699997
  0
LINE
  8
0
  6
DASHED
 62
     2
 10
84.290001
 20
75.999992
 11
83.889999
 21
69.699997
  0
LINE
  8
0
  6
DASHED
 62
     2
 10
75.139999
 20
76.000000
 11
75.529999
 21
69.700005
  0
LINE
  8
0
  6
DASHED
 62
     2
 10
84.870003
 20
75.999992
 11
84.470001
 21
69.699997
  0
LINE
  8
0
  6
DASHED
 62
     2
 10
-80.599998
 20
76.000000
 11
-80.199997
 21
69.699997
  0
LINE
  8
0
  6
DASHED
 62
     2
 10
-81.180000
 20
76.000000
 11
-80.790001
 21
69.700005
  0
LINE
  8
0
  6
DASHED
 62
     2
 10
-71.449997
 20
76.000000
 11
-71.849998
 21
69.699997
  0
LINE
  8
0
  6
DASHED
 62
     2
 10
-72.029999
 20
76.000000
 11
-72.430000
 21
69.699997
  0
LINE
  8
0
  6
DASHED
 62
     2
 10
-4.270000
 20
76.000000
 11
-3.880000
 21
69.700005
  0
LINE
  8
0
  6
DASHED
 62
     2
 10
-4.850000
 20
76.000000
 11
-4.460000
 21
69.699997
  0
LINE
  8
0
  6
DASHED
 62
     2
 10
4.870000
 20
76.000000
 11
4.470000
 21
69.699997
  0
LINE
  8
0
  6
DASHED
 62
     2
 10
4.290000
 20
76.000000
 11
3.890000
 21
69.699997
  0
LINE
  8
0
 10
9.446488
 20
-56.060658
 11
11.567808
 21
-53.939339
  0
LINE
  8
0
 10
-11.553510
 20
-68.060661
 11
-9.432189
 21
-65.939339
  0
LINE
  8
0
 10
9.446488
 20
-53.939339
 11
11.567808
 21
-56.060658
  0
LINE
  8
0
 10
-11.553510
 20
-65.939339
 11
-9.432189
 21
-68.060661
  0
LINE
  8
0
 10
-138.399994
 20
94.500000
 11
138.350006
 21
94.500000
  0
LINE
  8
0
 10
138.350006
 20
94.500000
 11
138.350006
 21
-94.800003
  0
LINE
  8
0
 10
-138.399994
 20
-94.800003
 11
138.350006
 21
-94.800003
  0
LINE
  8
0
 10
-138.399994
 20
94.500000
 11
-138.399994
 21
-94.800003
  0
ARC
  8
0
 10
-84.820007
 20
12.099996
 40
0.499992
 50
179.999451
 51
270.000885
  0
ARC
  8
0
 10
-67.819992
 20
12.099996
 40
0.499995
 50
269.999115
 51
0.000546
  0
CIRCLE
  8
0
 10
-69.820000
 20
26.000000
 40
1.599999
  0
CIRCLE
  8
0
 10
-82.820000
 20
56.000000
 40
1.599999
  0
ARC
  8
0
 10
-84.820000
 20
15.500000
 40
0.500000
 50
180.000000
 51
270.000000
  0
ARC
  8
0
 10
-79.620003
 20
14.499998
 40
0.500000
 50
0.000219
 51
90.000000
  0
ARC
  8
0
 10
-78.620003
 20
12.099994
 40
0.499992
 50
179.999344
 51
270.000885
  0
CIRCLE
  8
0
 62
     2
 10
-75.820000
 20
54.199997
 40
4.864349
  0
CIRCLE
  8
0
 10
-75.820000
 20
54.199997
 40
4.283250
  0
CIRCLE
  8
0
 62
     2
 10
-76.820000
 20
27.799988
 40
4.864349
  0
CIRCLE
  8
0
 10
-76.820000
 20
27.799988
 40
4.283250
  0
CIRCLE
  8
0
 62
     2
 10
-76.320000
 20
41.000000
 40
4.864349
  0
CIRCLE
  8
0
 10
-76.320000
 20
41.000000
 40
4.283250
  0
ARC
  8
0
 10
-82.315002
 20
17.599993
 40
5.008571
 50
240.517532
 51
299.482391
  0
ARC
  8
0
 10
-84.450249
 20
13.822958
 40
0.669761
 50
180.253067
 51
240.505356
  0
ARC
  8
0
 10
-80.192215
 20
13.818586
 40
0.672216
 50
300.603027
 51
0.120466
  0
ARC
  8
0
 10
-12.991428
 20
12.098572
 40
0.498573
 50
179.835831
 51
270.164185
  0
ARC
  8
0
 10
13.003566
 20
12.096434
 40
0.496447
 50
269.588470
 51
0.411537
  0
ARC
  8
0
 10
7.803586
 20
14.496413
 40
0.503600
 50
90.408081
 51
179.591919
  0
ARC
  8
0
 10
13.003561
 20
15.496439
 40
0.496452
 50
269.589020
 51
0.410983
  0
ARC
  8
0
 10
6.803566
 20
12.096435
 40
0.496447
 50
269.588470
 51
0.411537
  0
ARC
  8
0
 10
10.500000
 20
17.599995
 40
5.006113
 50
240.567413
 51
299.432587
  0
ARC
  8
0
 10
8.375052
 20
13.826065
 40
0.675079
 50
180.514786
 51
240.243469
  0
ARC
  8
0
 10
12.635536
 20
13.819858
 40
0.664464
 50
299.229523
 51
0.012253
  0
CIRCLE
  8
0
 10
7.507148
 20
56.000000
 40
1.599999
  0
CIRCLE
  8
0
 10
7.507148
 20
26.000000
 40
1.599999
  0
ARC
  8
0
 10
71.503586
 20
12.103582
 40
0.503599
 50
180.407532
 51
269.592010
  0
ARC
  8
0
 10
88.503563
 20
12.096434
 40
0.496447
 50
269.588806
 51
0.411535
  0
CIRCLE
  8
0
 10
73.507149
 20
26.000000
 40
1.599999
  0
CIRCLE
  8
0
 10
86.507149
 20
56.000000
 40
1.599999
  0
ARC
  8
0
 10
86.507149
 20
55.994999
 40
2.992211
 50
33.580101
 51
326.419983
  0
ARC
  8
0
 10
73.502884
 20
26.001278
 40
2.997116
 50
359.975555
 51
146.625946
  0
ARC
  8
0
 10
73.500130
 20
25.997885
 40
2.999872
 50
213.549133
 51
0.040400
  0
ARC
  8
0
 10
76.703560
 20
14.503560
 40
0.496450
 50
359.589111
 51
90.411201
  0
ARC
  8
0
 10
71.503586
 20
15.503587
 40
0.503599
 50
180.408081
 51
269.592041
  0
ARC
  8
0
 10
77.703583
 20
12.103580
 40
0.503591
 50
180.407440
 51
269.592896
  0
CIRCLE
  8
0
 62
     2
 10
79.507149
 20
33.000000
 40
4.864349
  0
CIRCLE
  8
0
 10
79.507149
 20
33.000000
 40
4.283250
  0
CIRCLE
  8
0
 62
     2
 10
80.507149
 20
49.000000
 40
4.864349
  0
CIRCLE
  8
0
 10
80.507149
 20
49.000000
 40
4.283250
  0
ARC
  8
0
 10
74.000000
 20
17.599995
 40
5.006112
 50
240.567413
 51
299.432587
  0
ARC
  8
0
 10
71.875053
 20
13.826067
 40
0.675084
 50
180.514862
 51
240.243515
  0
ARC
  8
0
 10
76.135536
 20
13.819858
 40
0.664463
 50
299.229462
 51
0.012253
  0
ARC
  8
0
 10
-12.991424
 20
-52.498577
 40
0.498579
 50
89.836372
 51
180.163513
  0
ARC
  8
0
 10
13.003561
 20
-52.496437
 40
0.496452
 50
359.588806
 51
90.410988
  0
ARC
  8
0
 10
13.003561
 20
-69.503563
 40
0.496450
 50
269.589020
 51
0.411203
  0
ARC
  8
0
 10
-12.991424
 20
-69.501427
 40
0.498578
 50
179.836044
 51
270.163635
  0
ARC
  8
0
 10
10.503576
 20
-54.996426
 40
3.203578
 50
180.063995
 51
269.936035
  0
ARC
  8
0
 10
-10.491426
 20
-67.001427
 40
3.201426
 50
0.025534
 51
89.974487
  0
ARC
  8
0
 10
-12.991426
 20
-63.301426
 40
0.498576
 50
179.836044
 51
270.163727
  0
ARC
  8
0
 10
-6.791423
 20
-69.501427
 40
0.498579
 50
179.836044
 51
270.163574
  0
ARC
  8
0
 10
6.803561
 20
-52.496437
 40
0.496452
 50
359.588806
 51
90.410988
  0
ARC
  8
0
 10
13.003563
 20
-58.696438
 40
0.496450
 50
359.588806
 51
90.411201
  0
CIRCLE
  8
0
 10
-10.492851
 20
-67.000000
 40
2.799999
  0
CIRCLE
  8
0
 10
10.507149
 20
-55.000000
 40
2.799999
  0
CIRCLE
  8
0
 10
9.507149
 20
-66.000000
 40
1.000000
  0
CIRCLE
  8
0
 62
     2
 10
9.507149
 20
-66.000000
 40
1.500000
  0
CIRCLE
  8
0
 62
     2
 10
-9.492851
 20
-56.000000
 40
1.500000
  0
CIRCLE
  8
0
 10
-9.492851
 20
-56.000000
 40
1.000000
  0
TEXT
  8
0
 10
91.957352
 20
-92.850006
 40
4.500000
  1
180-4A
 50
0.000000
 41
1.052632
 51
0.000000
  7
STANDARD
  0
ENDSEC
  0
EOF
