  0
SECTION
  2
HEADER
  9
$ACADVER
  1
AC1002
  9
$INSBASE
 10
0.0
 20
0.0
  9
$EXTMIN
 10
-185.4368
 20
-127.2792
  9
$EXTMAX
 10
185.4368
 20
127.2792
  9
$LIMMIN
 10
0.0
 20
0.0
  9
$LIMMAX
 10
12.0
 20
9.0
  9
$VIEWCTR
 10
14.30458208
 20
0.0
  9
$VIEWSIZE
 40
254.5584
  9
$SNAPMODE
 70
     0
  9
$SNAPUNIT
 10
1.0
 20
1.0
  9
$SNAPBASE
 10
0.0
 20
0.0
  9
$SNAPANG
 50
0.0
  9
$SNAPSTYLE
 70
     0
  9
$SNAPISOPAIR
 70
     0
  9
$GRIDMODE
 70
     0
  9
$GRIDUNIT
 10
0.0
 20
0.0
  9
$ORTHOMODE
 70
     0
  9
$REGENMODE
 70
     1
  9
$FILLMODE
 70
     1
  9
$QTEXTMODE
 70
     0
  9
$DRAGMODE
 70
     2
  9
$LTSCALE
 40
1.0
  9
$OSMODE
 70
     0
  9
$ATTMODE
 70
     1
  9
$TEXTSIZE
 40
0.2
  9
$TRACEWID
 40
0.05
  9
$TEXTSTYLE
  7
AAA
  9
$CLAYER
  8
0
  9
$CELTYPE
  6
BYLAYER
  9
$CECOLOR
 62
   256
  9
$DIMSCALE
 40
1.0
  9
$DIMASZ
 40
0.18
  9
$DIMEXO
 40
0.0625
  9
$DIMDLI
 40
0.38
  9
$DIMRND
 40
0.0
  9
$DIMDLE
 40
0.0
  9
$DIMEXE
 40
0.18
  9
$DIMTP
 40
0.0
  9
$DIMTM
 40
0.0
  9
$DIMTXT
 40
0.18
  9
$DIMCEN
 40
0.09
  9
$DIMTSZ
 40
0.0
  9
$DIMTOL
 70
     0
  9
$DIMLIM
 70
     0
  9
$DIMTIH
 70
     1
  9
$DIMTOH
 70
     1
  9
$DIMSE1
 70
     0
  9
$DIMSE2
 70
     0
  9
$DIMTAD
 70
     0
  9
$DIMZIN
 70
     0
  9
$DIMBLK
  1

  9
$LUNITS
 70
     2
  9
$LUPREC
 70
     4
  9
$AXISMODE
 70
     0
  9
$AXISUNIT
 10
0.0
 20
0.0
  9
$SKETCHINC
 40
0.1
  9
$FILLETRAD
 40
0.0
  9
$AUNITS
 70
     0
  9
$AUPREC
 70
     0
  9
$MENU
  1
ACAD
  9
$ELEVATION
 40
0.0
  9
$THICKNESS
 40
0.0
  9
$VIEWDIR
 10
0.0
 20
0.0
 30
1.0
  9
$LIMCHECK
 70
     0
  9
$BLIPMODE
 70
     1
  9
$CHAMFERA
 40
0.0
  9
$CHAMFERB
 40
0.0
  9
$FASTZOOM
 70
     1
  9
$SKPOLY
 70
     0
  9
$TDCREATE
 40
2447873.4238657899
  9
$TDUPDATE
 40
2447873.4238657899
  9
$TDINDWG
 40
0.0045949074
  9
$TDUSRTIMER
 40
0.0045949074
  9
$USRTIMER
 70
     1
  9
$ANGBASE
 50
0.0
  9
$ANGDIR
 70
     0
  9
$PDMODE
 70
     0
  9
$PDSIZE
 40
0.0
  9
$PLINEWID
 40
0.0
  9
$COORDS
 70
     0
  9
$USERI1
 70
     0
  9
$USERI2
 70
     0
  9
$USERI3
 70
     0
  9
$USERI4
 70
     0
  9
$USERI5
 70
     0
  9
$USERR1
 40
0.0
  9
$USERR2
 40
0.0
  9
$USERR3
 40
0.0
  9
$USERR4
 40
0.0
  9
$USERR5
 40
0.0
  0
ENDSEC
  0
SECTION
  2
TABLES
  0
TABLE
  2
LTYPE
 70
     3
  0
LTYPE
  2
CONTINUOUS
 70
    64
  3
SOLID
 72
    65
 73
     0
 40
0.0
  0
LTYPE
  2
CENTER
 70
    64
  3
CENTER
 72
    65
 73
     4
 40
2.0
 49
1.25
 49
-0.25
 49
0.25
 49
-0.25
  0
LTYPE
  2
PHANTOM
 70
    64
  3
PHANTOM
 72
    65
 73
     6
 40
2.5
 49
1.25
 49
-0.25
 49
0.25
 49
-0.25
 49
0.25
 49
-0.25
  0
ENDTAB
  0
TABLE
  2
LAYER
 70
     1
  0
LAYER
  2
0
 70
    64
 62
     7
  6
CONTINUOUS
  0
ENDTAB
  0
TABLE
  2
STYLE
 70
     2
  0
STYLE
  2
AAA
 70
     0
 40
0.0
 41
1.0
 50
0.0
 71
     0
 42
0.2
  3
TXT
  4

  0
STYLE
  2
STANDARD
 70
    64
 40
0.0
 41
1.0
 50
0.0
 71
     0
 42
0.2
  3
TXT
  4
BIGFONT
  0
ENDTAB
  0
TABLE
  2
VIEW
 70
     0
  0
ENDTAB
  0
ENDSEC
  0
SECTION
  2
BLOCKS
  0
ENDSEC
  0
SECTION
  2
ENTITIES
  0
POINT
  8
0
  6
CONTINUOUS
 62
     7
 10
12.0
 20
93.63962
  0
POINT
  8
0
  6
CONTINUOUS
 62
     7
 10
-15.0
 20
93.63962
  0
POINT
  8
0
  6
CONTINUOUS
 62
     7
 10
8.0
 20
92.13962
  0
POINT
  8
0
  6
CONTINUOUS
 62
     7
 10
-15.0
 20
-10.0
  0
POINT
  8
0
  6
CONTINUOUS
 62
     7
 10
12.0
 20
-10.0
  0
POINT
  8
0
  6
CONTINUOUS
 62
     7
 10
8.0
 20
-54.4
  0
POINT
  8
0
  6
CONTINUOUS
 62
     7
 10
12.0
 20
10.7
  0
POINT
  8
0
  6
CONTINUOUS
 62
     7
 10
97.71839
 20
-10.0
  0
POINT
  8
0
  6
CONTINUOUS
 62
     7
 10
90.71838
 20
-33.0
  0
POINT
  8
0
  6
CONTINUOUS
 62
     7
 10
91.71839
 20
-17.0
  0
POINT
  8
0
  6
CONTINUOUS
 62
     7
 10
91.2184
 20
10.7
  0
POINT
  8
0
  6
CONTINUOUS
 62
     7
 10
96.21838
 20
-54.4
  0
POINT
  8
0
  6
CONTINUOUS
 62
     7
 10
12.0
 20
-93.63962
  0
POINT
  8
0
  6
CONTINUOUS
 62
     7
 10
-15.0
 20
-93.63962
  0
POINT
  8
0
  6
CONTINUOUS
 62
     7
 10
12.0
 20
-87.13962
  0
POINT
  8
0
  6
CONTINUOUS
 62
     7
 10
8.0
 20
-92.13962
  0
POINT
  8
0
  6
CONTINUOUS
 62
     7
 10
-82.21839
 20
-10.0
  0
POINT
  8
0
  6
CONTINUOUS
 62
     7
 10
-97.71839
 20
-10.0
  0
POINT
  8
0
  6
CONTINUOUS
 62
     7
 10
-91.71839
 20
-38.2
  0
POINT
  8
0
  6
CONTINUOUS
 62
     7
 10
-91.21839
 20
-25.0
  0
POINT
  8
0
  6
CONTINUOUS
 62
     7
 10
-90.71839
 20
-11.8
  0
POINT
  8
0
  6
CONTINUOUS
 62
     7
 10
-96.21839
 20
-54.4
  0
LINE
  8
0
  6
CONTINUOUS
 62
     7
 10
-185.4368
 20
-127.2792
 11
-185.4368
 21
127.2792
  0
LINE
  8
0
  6
CONTINUOUS
 62
     7
 10
185.4368
 20
127.2792
 11
185.4368
 21
-127.2792
  0
LINE
  8
0
  6
CONTINUOUS
 62
     7
 10
-185.4368
 20
-127.2792
 11
185.4368
 21
-127.2792
  0
LINE
  8
0
  6
CONTINUOUS
 62
     7
 10
-185.4368
 20
127.2792
 11
185.4368
 21
127.2792
  0
LINE
  8
0
  6
CONTINUOUS
 62
     7
 10
-185.4368
 20
112.9782
 11
-109.1646
 21
112.9782
  0
LINE
  8
0
  6
CONTINUOUS
 62
     7
 10
-109.1646
 20
112.9782
 11
-109.1646
 21
127.2792
  0
LINE
  8
0
  6
CONTINUOUS
 62
     7
 10
109.1646
 20
-112.9782
 11
185.4368
 21
-112.9782
  0
LINE
  8
0
  6
CONTINUOUS
 62
     7
 10
129.1908
 20
-116.4169
 11
136.5177
 21
-116.4169
  0
LINE
  8
0
  6
CONTINUOUS
 62
     7
 10
129.1908
 20
-122.9143
 11
135.4118
 21
-122.9143
  0
LINE
  8
0
  6
CONTINUOUS
 62
     7
 10
129.1908
 20
-124.5732
 11
137.6237
 21
-124.5732
  0
LINE
  8
0
  6
CONTINUOUS
 62
     7
 10
129.1908
 20
-118.0758
 11
135.4118
 21
-118.0758
  0
LINE
  8
0
  6
CONTINUOUS
 62
     7
 10
129.1908
 20
-116.4169
 11
129.1908
 21
-118.0758
  0
LINE
  8
0
  6
CONTINUOUS
 62
     7
 10
137.6237
 20
-117.5228
 11
137.6237
 21
-124.5732
  0
LINE
  8
0
  6
CONTINUOUS
 62
     7
 10
135.4118
 20
-118.0758
 11
135.4118
 21
-122.9143
  0
LINE
  8
0
  6
CONTINUOUS
 62
     7
 10
138.8678
 20
-116.4169
 11
138.8678
 21
-118.0758
  0
LINE
  8
0
  6
CONTINUOUS
 62
     7
 10
146.7477
 20
-118.0758
 11
146.7477
 21
-123.4673
  0
LINE
  8
0
  6
CONTINUOUS
 62
     7
 10
144.5358
 20
-118.0758
 11
144.5358
 21
-122.9143
  0
LINE
  8
0
  6
CONTINUOUS
 62
     7
 10
129.1908
 20
-122.9143
 11
129.1908
 21
-124.5732
  0
LINE
  8
0
  6
CONTINUOUS
 62
     7
 10
138.8678
 20
-116.4169
 11
141.0533
 21
-116.4169
  0
LINE
  8
0
  6
CONTINUOUS
 62
     7
 10
138.8678
 20
-124.5732
 11
140.5853
 21
-124.5732
  0
LINE
  8
0
  6
CONTINUOUS
 62
     7
 10
138.8677
 20
-124.5732
 11
140.6088
 21
-118.0757
  0
LINE
  8
0
  6
CONTINUOUS
 62
     7
 10
138.8678
 20
-118.0758
 11
140.6088
 21
-118.0758
  0
LINE
  8
0
  6
CONTINUOUS
 62
     7
 10
140.5854
 20
-124.5734
 11
142.3264
 21
-118.0759
  0
LINE
  8
0
  6
CONTINUOUS
 62
     7
 10
142.8769
 20
-122.9143
 11
144.5358
 21
-122.9143
  0
LINE
  8
0
  6
CONTINUOUS
 62
     7
 10
142.8769
 20
-122.9143
 11
143.3214
 21
-124.5732
  0
LINE
  8
0
  6
CONTINUOUS
 62
     7
 10
143.3214
 20
-124.5732
 11
145.6418
 21
-124.5732
  0
LINE
  8
0
  6
CONTINUOUS
 62
     7
 10
142.3263
 20
-118.0758
 11
144.5358
 21
-118.0758
  0
LINE
  8
0
  6
CONTINUOUS
 62
     7
 10
142.7708
 20
-116.4169
 11
145.0888
 21
-116.4169
  0
LINE
  8
0
  6
CONTINUOUS
 62
     7
 10
141.0534
 20
-116.4169
 11
141.3831
 21
-115.1866
  0
LINE
  8
0
  6
CONTINUOUS
 62
     7
 10
142.7707
 20
-116.4168
 11
143.1003
 21
-115.1864
  0
LINE
  8
0
  6
CONTINUOUS
 62
     7
 10
148.1301
 20
-116.4169
 11
150.7568
 21
-116.4169
  0
LINE
  8
0
  6
CONTINUOUS
 62
     7
 10
148.1301
 20
-118.0758
 11
154.581
 21
-118.0758
  0
LINE
  8
0
  6
CONTINUOUS
 62
     7
 10
150.7568
 20
-124.5732
 11
152.9686
 21
-124.5732
  0
LINE
  8
0
  6
CONTINUOUS
 62
     7
 10
148.1301
 20
-116.4169
 11
148.1301
 21
-118.0758
  0
LINE
  8
0
  6
CONTINUOUS
 62
     7
 10
156.2865
 20
-121.0839
 11
156.2865
 21
-122.9143
  0
LINE
  8
0
  6
CONTINUOUS
 62
     7
 10
148.13
 20
-122.9142
 11
150.7567
 21
-121.6894
  0
LINE
  8
0
  6
CONTINUOUS
 62
     7
 10
148.1303
 20
-121.0841
 11
154.5812
 21
-118.0759
  0
LINE
  8
0
  6
CONTINUOUS
 62
     7
 10
148.1301
 20
-121.0839
 11
148.1301
 21
-122.9143
  0
LINE
  8
0
  6
CONTINUOUS
 62
     7
 10
152.9686
 20
-121.3672
 11
156.2865
 21
-122.9143
  0
LINE
  8
0
  6
CONTINUOUS
 62
     7
 10
154.1712
 20
-120.0975
 11
156.2867
 21
-121.084
  0
LINE
  8
0
  6
CONTINUOUS
 62
     7
 10
156.2865
 20
-117.5228
 11
156.2865
 21
-118.4064
  0
LINE
  8
0
  6
CONTINUOUS
 62
     7
 10
150.7568
 20
-115.1865
 11
150.7568
 21
-116.4169
  0
LINE
  8
0
  6
CONTINUOUS
 62
     7
 10
152.9686
 20
-115.1865
 11
152.9686
 21
-116.4169
  0
LINE
  8
0
  6
CONTINUOUS
 62
     7
 10
152.9686
 20
-116.4169
 11
155.1806
 21
-116.4169
  0
LINE
  8
0
  6
CONTINUOUS
 62
     7
 10
150.7568
 20
-121.6895
 11
150.7568
 21
-124.5732
  0
LINE
  8
0
  6
CONTINUOUS
 62
     7
 10
152.9686
 20
-121.3672
 11
152.9686
 21
-124.5732
  0
LINE
  8
0
  6
CONTINUOUS
 62
     7
 10
154.1712
 20
-120.0976
 11
155.6482
 21
-119.4089
  0
LINE
  8
0
  6
CONTINUOUS
 62
     7
 10
163.7517
 20
-115.6842
 11
165.4106
 21
-115.6842
  0
LINE
  8
0
  6
CONTINUOUS
 62
     7
 10
156.9777
 20
-119.1109
 11
156.9777
 21
-120.8962
  0
LINE
  8
0
  6
CONTINUOUS
 62
     7
 10
165.4106
 20
-115.6842
 11
165.4106
 21
-116.4169
  0
LINE
  8
0
  6
CONTINUOUS
 62
     7
 10
163.7517
 20
-115.6842
 11
163.7517
 21
-116.0417
  0
LINE
  8
0
  6
CONTINUOUS
 62
     7
 10
161.5397
 20
-119.0819
 11
161.5397
 21
-124.5732
  0
LINE
  8
0
  6
CONTINUOUS
 62
     7
 10
156.9778
 20
-119.111
 11
163.4031
 21
-116.5556
  0
LINE
  8
0
  6
CONTINUOUS
 62
     7
 10
156.9778
 20
-120.8963
 11
161.5398
 21
-119.0819
  0
LINE
  8
0
  6
CONTINUOUS
 62
     7
 10
161.5397
 20
-124.5732
 11
163.7517
 21
-124.5732
  0
LINE
  8
0
  6
CONTINUOUS
 62
     7
 10
163.7517
 20
-118.2022
 11
163.7517
 21
-124.5732
  0
LINE
  8
0
  6
CONTINUOUS
 62
     7
 10
163.7518
 20
-118.2023
 11
164.3649
 21
-117.9584
  0
LINE
  8
0
  6
CONTINUOUS
 62
     7
 10
141.2497
 20
-115.1865
 11
143.1004
 21
-115.1865
  0
LINE
  8
0
  6
CONTINUOUS
 62
     7
 10
145.8491
 20
-115.1865
 11
146.5541
 21
-115.1865
  0
LINE
  8
0
  6
CONTINUOUS
 62
     7
 10
150.7568
 20
-115.1865
 11
152.9686
 21
-115.1865
  0
LINE
  8
0
  6
CONTINUOUS
 62
     7
 10
145.8491
 20
-116.2925
 11
146.5541
 21
-116.2925
  0
LINE
  8
0
  6
CONTINUOUS
 62
     7
 10
145.8491
 20
-115.1865
 11
145.8491
 21
-116.2925
  0
LINE
  8
0
  6
CONTINUOUS
 62
     7
 10
146.5541
 20
-115.1865
 11
146.5541
 21
-116.2925
  0
LINE
  8
0
  6
CONTINUOUS
 62
     7
 10
146.9689
 20
-115.1865
 11
146.9689
 21
-116.2925
  0
LINE
  8
0
  6
CONTINUOUS
 62
     7
 10
147.7569
 20
-115.1865
 11
147.7569
 21
-116.2925
  0
LINE
  8
0
  6
CONTINUOUS
 62
     7
 10
146.9689
 20
-115.1865
 11
147.7569
 21
-115.1865
  0
LINE
  8
0
  6
CONTINUOUS
 62
     7
 10
146.9689
 20
-116.2925
 11
147.7569
 21
-116.2925
  0
LINE
  8
0
  6
CONTINUOUS
 62
     7
 10
109.1646
 20
112.9782
 11
185.4368
 21
112.9782
  0
LINE
  8
0
  6
CONTINUOUS
 62
     7
 10
109.1646
 20
127.2792
 11
109.1646
 21
112.9782
  0
LINE
  8
0
  6
CONTINUOUS
 62
     7
 10
109.1646
 20
-112.9782
 11
109.1646
 21
-127.2792
  0
LINE
  8
0
  6
CONTINUOUS
 62
     7
 10
10.5
 20
84.13962
 11
12.0
 21
84.13962
  0
LINE
  8
0
  6
CONTINUOUS
 62
     7
 10
11.0
 20
84.13962
 11
11.0
 21
79.13962
  0
LINE
  8
0
  6
CONTINUOUS
 62
     7
 10
12.0
 20
90.13962
 11
12.0
 21
95.63962
  0
LINE
  8
0
  6
CENTER
 62
     2
 10
-17.39624
 20
87.13962
 11
14.42633
 21
87.13962
  0
LINE
  8
0
  6
CONTINUOUS
 62
     7
 10
-14.5
 20
96.13962
 11
11.5
 21
96.13962
  0
LINE
  8
0
  6
CONTINUOUS
 62
     7
 10
-14.5
 20
78.13962
 11
11.5
 21
78.13962
  0
LINE
  8
0
  6
CONTINUOUS
 62
     7
 10
12.0
 20
78.63962
 11
12.0
 21
84.13962
  0
LINE
  8
0
  6
CONTINUOUS
 62
     7
 10
-15.0
 20
78.63962
 11
-15.0
 21
95.63962
  0
LINE
  8
0
  6
CENTER
 62
     2
 10
35.5
 20
85.83963
 11
11.4031
 21
85.83963
  0
LINE
  8
0
  6
CONTINUOUS
 62
     7
 10
22.5
 20
86.68962
 11
18.15588
 21
86.68962
  0
LINE
  8
0
  6
CONTINUOUS
 62
     7
 10
22.5
 20
84.98962
 11
17.70037
 21
84.98962
  0
LINE
  8
0
  6
CONTINUOUS
 62
     7
 10
32.5
 20
86.15962
 11
22.5
 21
86.15962
  0
LINE
  8
0
  6
CONTINUOUS
 62
     7
 10
32.5
 20
85.51962
 11
22.5
 21
85.51962
  0
LINE
  8
0
  6
CONTINUOUS
 62
     7
 10
22.5
 20
84.98962
 11
22.5
 21
86.68962
  0
LINE
  8
0
  6
CONTINUOUS
 62
     7
 10
32.5
 20
85.51962
 11
32.5
 21
86.15962
  0
LINE
  8
0
  6
CENTER
 62
     2
 10
35.5
 20
88.43962
 11
11.46549
 21
88.43962
  0
LINE
  8
0
  6
CONTINUOUS
 62
     7
 10
22.5
 20
89.28961
 11
18.85255
 21
89.28961
  0
LINE
  8
0
  6
CONTINUOUS
 62
     7
 10
22.5
 20
87.58961
 11
18.39703
 21
87.58961
  0
LINE
  8
0
  6
CONTINUOUS
 62
     7
 10
32.5
 20
88.75961
 11
22.5
 21
88.75961
  0
LINE
  8
0
  6
CONTINUOUS
 62
     7
 10
32.5
 20
88.11961
 11
22.5
 21
88.11961
  0
LINE
  8
0
  6
CONTINUOUS
 62
     7
 10
22.5
 20
87.58963
 11
22.5
 21
89.28963
  0
LINE
  8
0
  6
CONTINUOUS
 62
     7
 10
32.5
 20
88.11963
 11
32.5
 21
88.75963
  0
LINE
  8
0
  6
PHANTOM
 62
     2
 10
17.83554
 20
91.28962
 11
15.61156
 21
82.98962
  0
LINE
  8
0
  6
PHANTOM
 62
     2
 10
19.38845
 20
91.28961
 11
17.16447
 21
82.98963
  0
LINE
  8
0
  6
CONTINUOUS
 62
     7
 10
17.29963
 20
89.28961
 11
12.5
 21
89.28961
  0
LINE
  8
0
  6
CONTINUOUS
 62
     7
 10
16.84412
 20
87.58961
 11
12.5
 21
87.58961
  0
LINE
  8
0
  6
CONTINUOUS
 62
     7
 10
16.60297
 20
86.68962
 11
12.5
 21
86.68962
  0
LINE
  8
0
  6
CONTINUOUS
 62
     7
 10
16.14745
 20
84.98962
 11
12.5
 21
84.98962
  0
LINE
  8
0
  6
CENTER
 62
     2
 10
-1.5
 20
75.38962
 11
-1.5
 21
99.36705
  0
LINE
  8
0
  6
CONTINUOUS
 62
     7
 10
12.5
 20
84.63962
 11
12.5
 21
89.63962
  0
LINE
  8
0
  6
CONTINUOUS
 62
     7
 10
-13.99998
 20
95.13962
 11
11.0
 21
95.13962
  0
LINE
  8
0
  6
CONTINUOUS
 62
     7
 10
-13.99998
 20
79.13962
 11
11.0
 21
79.13962
  0
LINE
  8
0
  6
CONTINUOUS
 62
     7
 10
-13.99998
 20
95.13962
 11
-13.99998
 21
79.13962
  0
LINE
  8
0
  6
CONTINUOUS
 62
     7
 10
11.0
 20
95.13962
 11
11.0
 21
90.13962
  0
LINE
  8
0
  6
CONTINUOUS
 62
     7
 10
10.99999
 20
79.1396
 11
11.85354
 21
78.28604
  0
LINE
  8
0
  6
CONTINUOUS
 62
     7
 10
-14.0
 20
79.1396
 11
-14.85355
 21
78.28606
  0
LINE
  8
0
  6
CONTINUOUS
 62
     7
 10
11.00001
 20
95.13962
 11
11.85356
 21
95.99316
  0
LINE
  8
0
  6
CONTINUOUS
 62
     7
 10
-14.0
 20
95.13964
 11
-14.85354
 21
95.99318
  0
LINE
  8
0
  6
CONTINUOUS
 62
     7
 10
10.5
 20
90.13962
 11
12.0
 21
90.13962
  0
LINE
  8
0
  6
CONTINUOUS
 62
     7
 10
7.5
 20
85.63962
 11
10.5
 21
85.63962
  0
LINE
  8
0
  6
CONTINUOUS
 62
     7
 10
-10.5
 20
88.63962
 11
-13.5
 21
88.63962
  0
LINE
  8
0
  6
CONTINUOUS
 62
     7
 10
-7.5
 20
91.63962
 11
-7.5
 21
94.63962
  0
LINE
  8
0
  6
CONTINUOUS
 62
     7
 10
4.5
 20
82.63962
 11
4.5
 21
79.63962
  0
LINE
  8
0
  6
CONTINUOUS
 62
     7
 10
-12.5
 20
88.63962
 11
-12.5
 21
80.63962
  0
LINE
  8
0
  6
CONTINUOUS
 62
     7
 10
9.5
 20
93.63962
 11
9.5
 21
85.63962
  0
LINE
  8
0
  6
CONTINUOUS
 62
     7
 10
-7.5
 20
93.63962
 11
9.5
 21
93.63962
  0
LINE
  8
0
  6
CONTINUOUS
 62
     7
 10
-12.5
 20
80.63962
 11
4.5
 21
80.63962
  0
LINE
  8
0
  6
CONTINUOUS
 62
     7
 10
7.8
 20
80.40971
 11
7.8
 21
80.10733
  0
LINE
  8
0
  6
CONTINUOUS
 62
     7
 10
7.2
 20
80.40971
 11
7.2
 21
80.10733
  0
LINE
  8
0
  6
CONTINUOUS
 62
     7
 10
7.03923
 20
80.13159
 11
7.03923
 21
80.43731
  0
LINE
  8
0
  6
CONTINUOUS
 62
     7
 10
-10.8
 20
93.86953
 11
-10.8
 21
94.17191
  0
LINE
  8
0
  6
CONTINUOUS
 62
     7
 10
-10.2
 20
93.86952
 11
-10.2
 21
94.17191
  0
LINE
  8
0
  6
CONTINUOUS
 62
     7
 10
-10.03923
 20
94.14764
 11
-10.03923
 21
93.84193
  0
LINE
  8
0
  6
CONTINUOUS
 62
     7
 10
6.39692
 20
81.90424
 11
6.76461
 21
82.27194
  0
LINE
  8
0
  6
CONTINUOUS
 62
     7
 10
6.7646
 20
81.53654
 11
7.1323
 21
81.90424
  0
LINE
  8
0
  6
CONTINUOUS
 62
     7
 10
6.39693
 20
81.90425
 11
6.76463
 21
81.53655
  0
LINE
  8
0
  6
CONTINUOUS
 62
     7
 10
8.23541
 20
83.74273
 11
8.60311
 21
83.37503
  0
LINE
  8
0
  6
CONTINUOUS
 62
     7
 10
5.73584
 20
84.03613
 11
6.76462
 21
83.00734
  0
LINE
  8
0
  6
CONTINUOUS
 62
     7
 10
6.10353
 20
84.40382
 11
7.13232
 21
83.37503
  0
LINE
  8
0
  6
CONTINUOUS
 62
     7
 10
7.8677
 20
83.37503
 11
8.2354
 21
83.74272
  0
LINE
  8
0
  6
CONTINUOUS
 62
     7
 10
8.23539
 20
83.00732
 11
8.60309
 21
83.37502
  0
LINE
  8
0
  6
CONTINUOUS
 62
     7
 10
7.86771
 20
81.90425
 11
8.8965
 21
80.87546
  0
LINE
  8
0
  6
CONTINUOUS
 62
     7
 10
8.2354
 20
82.27194
 11
9.26419
 21
81.24315
  0
LINE
  8
0
  6
CONTINUOUS
 62
     7
 10
-11.60309
 20
90.90425
 11
-11.23539
 21
91.27194
  0
LINE
  8
0
  6
CONTINUOUS
 62
     7
 10
-11.23539
 20
90.53654
 11
-10.8677
 21
90.90424
  0
LINE
  8
0
  6
CONTINUOUS
 62
     7
 10
-11.60308
 20
90.90424
 11
-11.23538
 21
90.53654
  0
LINE
  8
0
  6
CONTINUOUS
 62
     7
 10
-9.7646
 20
92.74273
 11
-9.3969
 21
92.37503
  0
LINE
  8
0
  6
CONTINUOUS
 62
     7
 10
-12.26417
 20
93.03613
 11
-11.23538
 21
92.00734
  0
LINE
  8
0
  6
CONTINUOUS
 62
     7
 10
-11.89647
 20
93.40383
 11
-10.86768
 21
92.37504
  0
LINE
  8
0
  6
CONTINUOUS
 62
     7
 10
-10.1323
 20
92.37504
 11
-9.76461
 21
92.74273
  0
LINE
  8
0
  6
CONTINUOUS
 62
     7
 10
-9.76462
 20
92.00732
 11
-9.39692
 21
92.37502
  0
LINE
  8
0
  6
CONTINUOUS
 62
     7
 10
-10.13229
 20
90.90425
 11
-9.1035
 21
89.87546
  0
LINE
  8
0
  6
CONTINUOUS
 62
     7
 10
-9.76459
 20
91.27195
 11
-8.7358
 21
90.24316
  0
LINE
  8
0
  6
CENTER
 62
     2
 10
7.5
 20
86.63962
 11
7.5
 21
78.63962
  0
LINE
  8
0
  6
CENTER
 62
     2
 10
-10.5
 20
95.63962
 11
-10.5
 21
87.63962
  0
LINE
  8
0
  6
CENTER
 62
     2
 10
-14.5
 20
91.63962
 11
-6.5
 21
91.63962
  0
LINE
  8
0
  6
CENTER
 62
     2
 10
3.5
 20
82.63962
 11
11.5
 21
82.63962
  0
LINE
  8
0
  6
CONTINUOUS
 62
     7
 10
-13.5
 20
94.13962
 11
-13.5
 21
80.13962
  0
LINE
  8
0
  6
CONTINUOUS
 62
     7
 10
-13.0
 20
94.63962
 11
10.5
 21
94.63962
  0
LINE
  8
0
  6
CONTINUOUS
 62
     7
 10
-13.0
 20
79.63962
 11
10.5
 21
79.63962
  0
LINE
  8
0
  6
CONTINUOUS
 62
     7
 10
10.5
 20
94.63962
 11
10.5
 21
79.63962
  0
LINE
  8
0
  6
CENTER
 62
     2
 10
-1.5
 20
45.75001
 11
-1.5
 21
-57.75
  0
LINE
  8
0
  6
CONTINUOUS
 62
     7
 10
12.0
 20
13.2
 11
12.0
 21
-53.9
  0
LINE
  8
0
  6
CONTINUOUS
 62
     7
 10
-15.0
 20
13.2
 11
-15.0
 21
-53.9
  0
LINE
  8
0
  6
CONTINUOUS
 62
     7
 10
-14.5
 20
-54.4
 11
11.5
 21
-54.4
  0
LINE
  8
0
  6
CONTINUOUS
 62
     7
 10
-15.0
 20
-46.0
 11
12.0
 21
-46.0
  0
LINE
  8
0
  6
CONTINUOUS
 62
     7
 10
-15.0
 20
-4.0
 11
12.0
 21
-4.0
  0
LINE
  8
0
  6
CONTINUOUS
 62
     7
 10
-13.99998
 20
14.19998
 11
-14.99998
 21
13.19998
  0
LINE
  8
0
  6
CONTINUOUS
 62
     7
 10
11.0
 20
14.2
 11
12.0
 21
13.2
  0
LINE
  8
0
  6
CONTINUOUS
 62
     7
 10
9.0
 20
-38.34169
 11
12.0
 21
-38.34169
  0
LINE
  8
0
  6
CONTINUOUS
 62
     7
 10
9.0
 20
-41.65831
 11
12.0
 21
-41.65831
  0
LINE
  8
0
  6
CONTINUOUS
 62
     7
 10
9.0
 20
-38.34169
 11
9.0
 21
-41.65831
  0
LINE
  8
0
  6
CONTINUOUS
 62
     7
 10
-13.5
 20
39.4
 11
10.5
 21
39.4
  0
LINE
  8
0
  6
CONTINUOUS
 62
     7
 10
-13.99998
 20
14.2
 11
11.0
 21
14.2
  0
LINE
  8
0
  6
CONTINUOUS
 62
     7
 10
-13.5
 20
40.40001
 11
-13.5
 21
14.2
  0
LINE
  8
0
  6
CONTINUOUS
 62
     7
 10
-12.5
 20
42.4
 11
5.67423
 21
42.4
  0
LINE
  8
0
  6
CONTINUOUS
 62
     7
 10
-13.5
 20
40.4
 11
10.5
 21
40.4
  0
LINE
  8
0
  6
CONTINUOUS
 62
     7
 10
-13.5
 20
40.40001
 11
-12.5
 21
42.40001
  0
LINE
  8
0
  6
CONTINUOUS
 62
     7
 10
10.49998
 20
40.39999
 11
9.49998
 21
42.39999
  0
LINE
  8
0
  6
CONTINUOUS
 62
     7
 10
4.5
 20
42.4
 11
4.5
 21
40.4
  0
LINE
  8
0
  6
CENTER
 62
     2
 10
7.5
 20
45.40001
 11
7.5
 21
36.4
  0
LINE
  8
0
  6
CONTINUOUS
 62
     7
 10
10.05
 20
41.0
 11
4.95
 21
41.0
  0
LINE
  8
0
  6
CONTINUOUS
 62
     7
 10
7.19999
 20
40.40001
 11
7.03923
 21
41.0
  0
LINE
  8
0
  6
CONTINUOUS
 62
     7
 10
7.80005
 20
41.00002
 11
7.96082
 21
40.40002
  0
LINE
  8
0
  6
CONTINUOUS
 62
     7
 10
10.05
 20
41.0
 11
10.05
 21
40.4
  0
LINE
  8
0
  6
CONTINUOUS
 62
     7
 10
4.95
 20
41.0
 11
4.95
 21
40.4
  0
LINE
  8
0
  6
CONTINUOUS
 62
     7
 10
9.75002
 20
41.69375
 11
9.75002
 21
41.0
  0
LINE
  8
0
  6
CONTINUOUS
 62
     7
 10
5.25002
 20
41.69374
 11
5.25002
 21
41.0
  0
LINE
  8
0
  6
CONTINUOUS
 62
     7
 10
9.32578
 20
42.4
 11
9.5
 21
42.4
  0
LINE
  8
0
  6
CENTER
 62
     2
 10
-10.5
 20
45.40001
 11
-10.5
 21
36.4
  0
LINE
  8
0
  6
CENTER
 62
     2
 10
35.5
 20
32.2
 11
7.50001
 21
32.2
  0
LINE
  8
0
  6
CONTINUOUS
 62
     7
 10
22.5
 20
33.05
 11
18.50422
 21
33.05
  0
LINE
  8
0
  6
CONTINUOUS
 62
     7
 10
22.5
 20
31.35
 11
18.0487
 21
31.35
  0
LINE
  8
0
  6
CONTINUOUS
 62
     7
 10
32.5
 20
32.52
 11
22.5
 21
32.52
  0
LINE
  8
0
  6
CONTINUOUS
 62
     7
 10
32.5
 20
31.88
 11
22.5
 21
31.88
  0
LINE
  8
0
  6
CONTINUOUS
 62
     7
 10
22.5
 20
31.35
 11
22.5
 21
33.05
  0
LINE
  8
0
  6
CONTINUOUS
 62
     7
 10
32.5
 20
31.88
 11
32.5
 21
32.52
  0
LINE
  8
0
  6
PHANTOM
 62
     2
 10
19.04012
 20
35.05
 11
17.5128
 21
29.34999
  0
LINE
  8
0
  6
PHANTOM
 62
     2
 10
17.4872
 20
35.05
 11
15.95989
 21
29.35
  0
LINE
  8
0
  6
CONTINUOUS
 62
     7
 10
16.9513
 20
33.05
 11
12.5
 21
33.05
  0
LINE
  8
0
  6
CONTINUOUS
 62
     7
 10
16.49578
 20
31.35
 11
12.5
 21
31.35
  0
LINE
  8
0
  6
CENTER
 62
     2
 10
9.0
 20
-50.12471
 11
9.0
 21
-55.57221
  0
LINE
  8
0
  6
CONTINUOUS
 62
     7
 10
6.3
 20
-51.0
 11
11.5
 21
-51.0
  0
LINE
  8
0
  6
CONTINUOUS
 62
     7
 10
5.8
 20
-51.5
 11
5.8
 21
-53.9
  0
LINE
  8
0
  6
CONTINUOUS
 62
     7
 10
6.20001
 20
-52.17182
 11
6.20001
 21
-51.0
  0
LINE
  8
0
  6
CONTINUOUS
 62
     7
 10
11.80001
 20
-52.17183
 11
11.80001
 21
-51.0
  0
LINE
  8
0
  6
CONTINUOUS
 62
     7
 10
-15.0
 20
13.2
 11
12.0
 21
13.2
  0
LINE
  8
0
  6
CONTINUOUS
 62
     7
 10
10.5
 20
40.39996
 11
10.5
 21
14.2
  0
LINE
  8
0
  6
CENTER
 62
     2
 10
3.0
 20
-40.0
 11
13.02821
 21
-40.0
  0
LINE
  8
0
  6
CENTER
 62
     2
 10
3.0
 20
-10.0
 11
9.33333
 21
-10.0
  0
LINE
  8
0
  6
CENTER
 62
     2
 10
6.0
 20
-6.46667
 11
6.0
 21
-13.13333
  0
LINE
  8
0
  6
CENTER
 62
     2
 10
6.0
 20
-36.46667
 11
6.0
 21
-43.46667
  0
LINE
  8
0
  6
CONTINUOUS
 62
     7
 10
12.0
 20
33.9
 11
10.5
 21
33.9
  0
LINE
  8
0
  6
CONTINUOUS
 62
     7
 10
12.5
 20
31.0
 11
12.5
 21
33.4
  0
LINE
  8
0
  6
CONTINUOUS
 62
     7
 10
12.0
 20
30.5
 11
10.5
 21
30.5
  0
LINE
  8
0
  6
CENTER
 62
     2
 10
88.29669
 20
10.7
 11
94.1281
 21
10.7
  0
LINE
  8
0
  6
CENTER
 62
     2
 10
93.37179
 20
-10.0
 11
100.8028
 21
-10.0
  0
LINE
  8
0
  6
CENTER
 62
     2
 10
81.80618
 20
-40.0
 11
88.87675
 21
-40.0
  0
LINE
  8
0
  6
CENTER
 62
     2
 10
84.71839
 20
-35.88724
 11
84.71839
 21
-44.29189
  0
LINE
  8
0
  6
CENTER
 62
     2
 10
97.71839
 20
-5.4087
 11
97.71839
 21
-14.41667
  0
LINE
  8
0
  6
CENTER
 62
     2
 10
85.57095
 20
-17.0
 11
97.19926
 21
-17.0
  0
LINE
  8
0
  6
CENTER
 62
     2
 10
85.13487
 20
-33.0
 11
97.29616
 21
-33.0
  0
LINE
  8
0
  6
CONTINUOUS
 62
     7
 10
99.21835
 20
14.2
 11
100.2184
 21
13.2
  0
LINE
  8
0
  6
CONTINUOUS
 62
     7
 10
83.21838
 20
14.20003
 11
82.21839
 21
13.20004
  0
LINE
  8
0
  6
CONTINUOUS
 62
     7
 10
82.71838
 20
-54.4
 11
99.71838
 21
-54.4
  0
LINE
  8
0
  6
CONTINUOUS
 62
     7
 10
82.21838
 20
-46.0
 11
100.2184
 21
-46.0
  0
LINE
  8
0
  6
CONTINUOUS
 62
     7
 10
82.21839
 20
-4.0
 11
100.2184
 21
-4.0
  0
LINE
  8
0
  6
CONTINUOUS
 62
     7
 10
82.21839
 20
13.20001
 11
82.21839
 21
-53.89999
  0
LINE
  8
0
  6
CONTINUOUS
 62
     7
 10
82.2184
 20
13.2
 11
100.2184
 21
13.2
  0
LINE
  8
0
  6
CENTER
 62
     2
 10
91.71839
 20
-10.86858
 11
91.71839
 21
-23.44203
  0
LINE
  8
0
  6
CENTER
 62
     2
 10
90.71839
 20
-26.41548
 11
90.71839
 21
-39.15884
  0
LINE
  8
0
  6
CONTINUOUS
 62
     7
 10
89.9184
 20
33.9
 11
92.51841
 21
33.9
  0
LINE
  8
0
  6
CONTINUOUS
 62
     7
 10
89.9184
 20
30.5
 11
92.51841
 21
30.5
  0
LINE
  8
0
  6
CENTER
 62
     2
 10
91.21839
 20
46.2
 11
91.21839
 21
-59.21667
  0
LINE
  8
0
  6
CONTINUOUS
 62
     7
 10
100.2184
 20
13.2
 11
100.2184
 21
-53.9
  0
LINE
  8
0
  6
CONTINUOUS
 62
     7
 10
83.71839
 20
40.40002
 11
83.71839
 21
14.2
  0
LINE
  8
0
  6
CONTINUOUS
 62
     7
 10
83.71841
 20
39.4
 11
98.71841
 21
39.4
  0
LINE
  8
0
  6
CONTINUOUS
 62
     7
 10
98.71839
 20
40.39996
 11
98.71839
 21
14.2
  0
LINE
  8
0
  6
CONTINUOUS
 62
     7
 10
83.2184
 20
14.2
 11
99.2184
 21
14.2
  0
LINE
  8
0
  6
CONTINUOUS
 62
     7
 10
83.71841
 20
40.39999
 11
98.71841
 21
40.39999
  0
LINE
  8
0
  6
CONTINUOUS
 62
     7
 10
84.71841
 20
42.4
 11
84.89266
 21
42.4
  0
LINE
  8
0
  6
CONTINUOUS
 62
     7
 10
98.71838
 20
40.39999
 11
97.71838
 21
42.39999
  0
LINE
  8
0
  6
CONTINUOUS
 62
     7
 10
83.71838
 20
40.4
 11
84.71838
 21
42.4
  0
LINE
  8
0
  6
CENTER
 62
     2
 10
86.71839
 20
45.40001
 11
86.71839
 21
36.4
  0
LINE
  8
0
  6
CONTINUOUS
 62
     7
 10
89.26841
 20
40.99999
 11
84.1684
 21
40.99999
  0
LINE
  8
0
  6
CONTINUOUS
 62
     7
 10
84.16839
 20
41.0
 11
84.16839
 21
40.4
  0
LINE
  8
0
  6
CONTINUOUS
 62
     7
 10
84.46841
 20
41.69374
 11
84.46841
 21
41.0
  0
LINE
  8
0
  6
CONTINUOUS
 62
     7
 10
88.54415
 20
42.4
 11
97.71841
 21
42.4
  0
LINE
  8
0
  6
CENTER
 62
     2
 10
95.71839
 20
45.40001
 11
95.71839
 21
36.4
  0
LINE
  8
0
  6
CONTINUOUS
 62
     7
 10
89.26839
 20
40.99999
 11
89.26839
 21
40.39999
  0
LINE
  8
0
  6
CONTINUOUS
 62
     7
 10
88.96839
 20
41.69373
 11
88.96839
 21
40.99999
  0
LINE
  8
0
  6
CONTINUOUS
 62
     7
 10
89.71839
 20
42.4
 11
89.71839
 21
40.39999
  0
LINE
  8
0
  6
CENTER
 62
     2
 10
89.91839
 20
35.2
 11
89.91839
 21
29.2
  0
LINE
  8
0
  6
CENTER
 62
     2
 10
92.51839
 20
35.2
 11
92.51839
 21
29.2
  0
LINE
  8
0
  6
CENTER
 62
     2
 10
87.21841
 20
32.2
 11
95.21841
 21
32.2
  0
LINE
  8
0
  6
CENTER
 62
     2
 10
85.21839
 20
-49.90575
 11
85.21839
 21
-55.8553
  0
LINE
  8
0
  6
CONTINUOUS
 62
     7
 10
88.41839
 20
-51.5
 11
88.41839
 21
-53.89999
  0
LINE
  8
0
  6
CONTINUOUS
 62
     7
 10
82.71838
 20
-51.0
 11
87.91837
 21
-51.0
  0
LINE
  8
0
  6
CONTINUOUS
 62
     7
 10
82.4184
 20
-52.17182
 11
82.4184
 21
-50.99999
  0
LINE
  8
0
  6
CONTINUOUS
 62
     7
 10
88.01841
 20
-52.17183
 11
88.01841
 21
-51.0
  0
LINE
  8
0
  6
CENTER
 62
     2
 10
-94.98244
 20
5.9
 11
-87.41409
 21
5.9
  0
LINE
  8
0
  6
CENTER
 62
     2
 10
-100.2184
 20
-10.0
 11
-95.22271
 21
-10.0
  0
LINE
  8
0
  6
CENTER
 62
     2
 10
-87.29395
 20
-40.0
 11
-82.21839
 21
-40.0
  0
LINE
  8
0
  6
CENTER
 62
     2
 10
-84.71839
 20
-37.28171
 11
-84.71839
 21
-42.80782
  0
LINE
  8
0
  6
CENTER
 62
     2
 10
-97.71839
 20
-7.24852
 11
-97.71839
 21
-12.41423
  0
LINE
  8
0
  6
CENTER
 62
     2
 10
-96.9393
 20
-11.8
 11
-84.88289
 21
-11.8
  0
LINE
  8
0
  6
CENTER
 62
     2
 10
-97.42713
 20
-25.0
 11
-84.88289
 21
-25.0
  0
LINE
  8
0
  6
CENTER
 62
     2
 10
-97.56651
 20
-38.2
 11
-85.30103
 21
-38.2
  0
LINE
  8
0
  6
CONTINUOUS
 62
     7
 10
-83.21839
 20
14.20001
 11
-82.21838
 21
13.20001
  0
LINE
  8
0
  6
CONTINUOUS
 62
     7
 10
-99.21838
 20
14.19999
 11
-100.2184
 21
13.19999
  0
LINE
  8
0
  6
CONTINUOUS
 62
     7
 10
-99.71839
 20
-54.4
 11
-82.71839
 21
-54.4
  0
LINE
  8
0
  6
CONTINUOUS
 62
     7
 10
-100.2184
 20
-46.0
 11
-82.21839
 21
-46.0
  0
LINE
  8
0
  6
CONTINUOUS
 62
     7
 10
-100.2184
 20
13.2
 11
-100.2184
 21
-53.9
  0
LINE
  8
0
  6
CONTINUOUS
 62
     7
 10
-82.21839
 20
13.2
 11
-82.21839
 21
-53.9
  0
LINE
  8
0
  6
CENTER
 62
     2
 10
-91.21839
 20
47.10001
 11
-91.21839
 21
-58.76667
  0
LINE
  8
0
  6
CONTINUOUS
 62
     7
 10
-100.2184
 20
-4.0
 11
-82.21839
 21
-4.0
  0
LINE
  8
0
  6
CONTINUOUS
 62
     7
 10
-94.01839
 20
-51.5
 11
-94.01839
 21
-53.9
  0
LINE
  8
0
  6
CONTINUOUS
 62
     7
 10
-99.71839
 20
-51.0
 11
-94.51839
 21
-51.0
  0
LINE
  8
0
  6
CENTER
 62
     2
 10
-97.21839
 20
-49.83407
 11
-97.21839
 21
-55.64027
  0
LINE
  8
0
  6
CONTINUOUS
 62
     7
 10
-94.41838
 20
-52.17183
 11
-94.41838
 21
-51.0
  0
LINE
  8
0
  6
CONTINUOUS
 62
     7
 10
-100.0184
 20
-52.17182
 11
-100.0184
 21
-51.0
  0
LINE
  8
0
  6
CONTINUOUS
 62
     7
 10
-100.2184
 20
13.2
 11
-82.21839
 21
13.2
  0
LINE
  8
0
  6
CENTER
 62
     2
 10
-91.71839
 20
-32.03894
 11
-91.71839
 21
-44.23363
  0
LINE
  8
0
  6
CENTER
 62
     2
 10
-90.71839
 20
-5.46077
 11
-90.71839
 21
-18.04631
  0
LINE
  8
0
  6
CONTINUOUS
 62
     7
 10
-91.73605
 20
3.96816
 11
-89.28655
 21
6.41765
  0
LINE
  8
0
  6
CONTINUOUS
 62
     7
 10
-93.15025
 20
5.38237
 11
-90.70076
 21
7.83186
  0
LINE
  8
0
  6
CONTINUOUS
 62
     7
 10
-91.73604
 20
7.83186
 11
-89.28654
 21
5.38236
  0
LINE
  8
0
  6
CONTINUOUS
 62
     7
 10
-98.71839
 20
40.39999
 11
-98.71839
 21
14.2
  0
LINE
  8
0
  6
CONTINUOUS
 62
     7
 10
-99.21839
 20
14.2
 11
-83.21839
 21
14.2
  0
LINE
  8
0
  6
CONTINUOUS
 62
     7
 10
-83.71839
 20
40.39999
 11
-83.71839
 21
14.2
  0
LINE
  8
0
  6
CONTINUOUS
 62
     7
 10
-92.71839
 20
42.4
 11
-92.71839
 21
40.39999
  0
LINE
  8
0
  6
CONTINUOUS
 62
     7
 10
-97.71839
 20
36.4
 11
-84.71839
 21
36.4
  0
LINE
  8
0
  6
CONTINUOUS
 62
     7
 10
-97.71839
 20
32.4
 11
-84.71839
 21
32.4
  0
LINE
  8
0
  6
CONTINUOUS
 62
     7
 10
-84.71839
 20
36.4
 11
-84.71839
 21
32.4
  0
LINE
  8
0
  6
CONTINUOUS
 62
     7
 10
-97.71839
 20
36.4
 11
-97.71839
 21
32.4
  0
LINE
  8
0
  6
CONTINUOUS
 62
     7
 10
-97.00632
 20
35.50678
 11
-94.66464
 21
35.50678
  0
LINE
  8
0
  6
CONTINUOUS
 62
     7
 10
-97.00632
 20
33.43019
 11
-95.0181
 21
33.43019
  0
LINE
  8
0
  6
CONTINUOUS
 62
     7
 10
-97.00632
 20
32.9
 11
-94.31117
 21
32.9
  0
LINE
  8
0
  6
CONTINUOUS
 62
     7
 10
-97.00632
 20
34.97659
 11
-95.0181
 21
34.97659
  0
LINE
  8
0
  6
CONTINUOUS
 62
     7
 10
-97.00632
 20
35.50678
 11
-97.00632
 21
34.97659
  0
LINE
  8
0
  6
CONTINUOUS
 62
     7
 10
-94.31117
 20
35.15332
 11
-94.31117
 21
32.9
  0
LINE
  8
0
  6
CONTINUOUS
 62
     7
 10
-95.0181
 20
34.97659
 11
-95.0181
 21
33.43019
  0
LINE
  8
0
  6
CONTINUOUS
 62
     7
 10
-93.91354
 20
35.50678
 11
-93.91354
 21
34.97659
  0
LINE
  8
0
  6
CONTINUOUS
 62
     7
 10
-91.39513
 20
34.97659
 11
-91.39513
 21
33.25345
  0
LINE
  8
0
  6
CONTINUOUS
 62
     7
 10
-92.10204
 20
34.97659
 11
-92.10204
 21
33.43019
  0
LINE
  8
0
  6
CONTINUOUS
 62
     7
 10
-97.00632
 20
33.43019
 11
-97.00632
 21
32.9
  0
LINE
  8
0
  6
CONTINUOUS
 62
     7
 10
-93.91354
 20
35.50678
 11
-93.21505
 21
35.50678
  0
LINE
  8
0
  6
CONTINUOUS
 62
     7
 10
-93.91354
 20
32.9
 11
-93.36464
 21
32.9
  0
LINE
  8
0
  6
CONTINUOUS
 62
     7
 10
-93.91351
 20
32.90001
 11
-93.35708
 21
34.97659
  0
LINE
  8
0
  6
CONTINUOUS
 62
     7
 10
-93.91354
 20
34.97659
 11
-93.35711
 21
34.97659
  0
LINE
  8
0
  6
CONTINUOUS
 62
     7
 10
-93.36462
 20
32.89996
 11
-92.8082
 21
34.97655
  0
LINE
  8
0
  6
CONTINUOUS
 62
     7
 10
-92.63225
 20
33.43019
 11
-92.10204
 21
33.43019
  0
LINE
  8
0
  6
CONTINUOUS
 62
     7
 10
-92.63228
 20
33.43019
 11
-92.49021
 21
32.89999
  0
LINE
  8
0
  6
CONTINUOUS
 62
     7
 10
-92.49017
 20
32.9
 11
-91.74857
 21
32.9
  0
LINE
  8
0
  6
CONTINUOUS
 62
     7
 10
-92.80822
 20
34.97659
 11
-92.10204
 21
34.97659
  0
LINE
  8
0
  6
CONTINUOUS
 62
     7
 10
-92.66615
 20
35.50678
 11
-91.92532
 21
35.50678
  0
LINE
  8
0
  6
CONTINUOUS
 62
     7
 10
-93.21503
 20
35.50677
 11
-93.10966
 21
35.89999
  0
LINE
  8
0
  6
CONTINUOUS
 62
     7
 10
-92.66615
 20
35.50679
 11
-92.56079
 21
35.90002
  0
LINE
  8
0
  6
CONTINUOUS
 62
     7
 10
-90.9533
 20
35.50678
 11
-90.11382
 21
35.50678
  0
LINE
  8
0
  6
CONTINUOUS
 62
     7
 10
-90.9533
 20
34.97659
 11
-88.89159
 21
34.97659
  0
LINE
  8
0
  6
CONTINUOUS
 62
     7
 10
-90.11382
 20
32.9
 11
-89.40691
 21
32.9
  0
LINE
  8
0
  6
CONTINUOUS
 62
     7
 10
-90.9533
 20
35.50678
 11
-90.9533
 21
34.97659
  0
LINE
  8
0
  6
CONTINUOUS
 62
     7
 10
-88.34652
 20
34.01519
 11
-88.34652
 21
33.43019
  0
LINE
  8
0
  6
CONTINUOUS
 62
     7
 10
-90.95329
 20
33.43017
 11
-90.11382
 21
33.82163
  0
LINE
  8
0
  6
CONTINUOUS
 62
     7
 10
-90.95326
 20
34.01516
 11
-88.89155
 21
34.97657
  0
LINE
  8
0
  6
CONTINUOUS
 62
     7
 10
-90.9533
 20
34.01519
 11
-90.9533
 21
33.43019
  0
LINE
  8
0
  6
CONTINUOUS
 62
     7
 10
-89.40693
 20
33.92467
 11
-88.34652
 21
33.4302
  0
LINE
  8
0
  6
CONTINUOUS
 62
     7
 10
-89.02258
 20
34.33044
 11
-88.34646
 21
34.01516
  0
LINE
  8
0
  6
CONTINUOUS
 62
     7
 10
-88.34652
 20
35.15332
 11
-88.34652
 21
34.87093
  0
LINE
  8
0
  6
CONTINUOUS
 62
     7
 10
-90.11382
 20
35.9
 11
-90.11382
 21
35.50678
  0
LINE
  8
0
  6
CONTINUOUS
 62
     7
 10
-89.40691
 20
35.9
 11
-89.40691
 21
35.50678
  0
LINE
  8
0
  6
CONTINUOUS
 62
     7
 10
-89.40691
 20
35.50678
 11
-88.69998
 21
35.50678
  0
LINE
  8
0
  6
CONTINUOUS
 62
     7
 10
-90.11382
 20
33.82164
 11
-90.11382
 21
32.9
  0
LINE
  8
0
  6
CONTINUOUS
 62
     7
 10
-89.40691
 20
33.92465
 11
-89.40691
 21
32.9
  0
LINE
  8
0
  6
CONTINUOUS
 62
     7
 10
-89.02254
 20
34.3304
 11
-88.55051
 21
34.55051
  0
LINE
  8
0
  6
CONTINUOUS
 62
     7
 10
-85.96065
 20
35.74094
 11
-85.43046
 21
35.74094
  0
LINE
  8
0
  6
CONTINUOUS
 62
     7
 10
-88.1256
 20
34.64576
 11
-88.1256
 21
34.07517
  0
LINE
  8
0
  6
CONTINUOUS
 62
     7
 10
-85.43046
 20
35.74094
 11
-85.43046
 21
35.50678
  0
LINE
  8
0
  6
CONTINUOUS
 62
     7
 10
-85.96065
 20
35.74094
 11
-85.96065
 21
35.62669
  0
LINE
  8
0
  6
CONTINUOUS
 62
     7
 10
-86.66757
 20
34.65504
 11
-86.66757
 21
32.9
  0
LINE
  8
0
  6
CONTINUOUS
 62
     7
 10
-88.12556
 20
34.64572
 11
-86.07201
 21
35.46244
  0
LINE
  8
0
  6
CONTINUOUS
 62
     7
 10
-88.1256
 20
34.07517
 11
-86.66756
 21
34.65505
  0
LINE
  8
0
  6
CONTINUOUS
 62
     7
 10
-86.66757
 20
32.9
 11
-85.96065
 21
32.9
  0
LINE
  8
0
  6
CONTINUOUS
 62
     7
 10
-85.96065
 20
34.93619
 11
-85.96065
 21
32.9
  0
LINE
  8
0
  6
CONTINUOUS
 62
     7
 10
-85.96056
 20
34.93613
 11
-85.76464
 21
35.01406
  0
LINE
  8
0
  6
CONTINUOUS
 62
     7
 10
-93.10967
 20
35.9
 11
-92.56079
 21
35.9
  0
LINE
  8
0
  6
CONTINUOUS
 62
     7
 10
-91.6823
 20
35.9
 11
-91.45631
 21
35.9
  0
LINE
  8
0
  6
CONTINUOUS
 62
     7
 10
-90.11382
 20
35.9
 11
-89.40691
 21
35.9
  0
LINE
  8
0
  6
CONTINUOUS
 62
     7
 10
-91.6823
 20
35.54654
 11
-91.45631
 21
35.54654
  0
LINE
  8
0
  6
CONTINUOUS
 62
     7
 10
-91.6823
 20
35.9
 11
-91.6823
 21
35.54654
  0
LINE
  8
0
  6
CONTINUOUS
 62
     7
 10
-91.45631
 20
35.9
 11
-91.45631
 21
35.54654
  0
LINE
  8
0
  6
CONTINUOUS
 62
     7
 10
-91.29857
 20
35.9
 11
-91.29857
 21
35.54654
  0
LINE
  8
0
  6
CONTINUOUS
 62
     7
 10
-91.07258
 20
35.9
 11
-91.07258
 21
35.54654
  0
LINE
  8
0
  6
CONTINUOUS
 62
     7
 10
-91.29857
 20
35.9
 11
-91.07258
 21
35.9
  0
LINE
  8
0
  6
CONTINUOUS
 62
     7
 10
-91.29857
 20
35.54654
 11
-91.07258
 21
35.54654
  0
LINE
  8
0
  6
CONTINUOUS
 62
     7
 10
-98.71836
 20
40.39999
 11
-97.71836
 21
42.39999
  0
LINE
  8
0
  6
CONTINUOUS
 62
     7
 10
-97.96838
 20
41.69373
 11
-97.96838
 21
40.99998
  0
LINE
  8
0
  6
CENTER
 62
     2
 10
-95.71839
 20
45.40001
 11
-95.71839
 21
37.4
  0
LINE
  8
0
  6
CONTINUOUS
 62
     7
 10
-97.71838
 20
42.4
 11
-97.54414
 21
42.4
  0
LINE
  8
0
  6
CONTINUOUS
 62
     7
 10
-93.46837
 20
41.69373
 11
-93.46837
 21
40.99998
  0
LINE
  8
0
  6
CONTINUOUS
 62
     7
 10
-93.89265
 20
42.4
 11
-84.71838
 21
42.4
  0
LINE
  8
0
  6
CENTER
 62
     2
 10
-86.71839
 20
45.40001
 11
-86.71839
 21
37.4
  0
LINE
  8
0
  6
CONTINUOUS
 62
     7
 10
-83.71838
 20
40.40001
 11
-84.71838
 21
42.40001
  0
LINE
  8
0
  6
CONTINUOUS
 62
     7
 10
-98.71839
 20
40.39999
 11
-83.71839
 21
40.39999
  0
LINE
  8
0
  6
CONTINUOUS
 62
     7
 10
-98.71839
 20
39.4
 11
-83.71839
 21
39.4
  0
LINE
  8
0
  6
CONTINUOUS
 62
     7
 10
-93.1684
 20
40.99999
 11
-98.26839
 21
40.99999
  0
LINE
  8
0
  6
CONTINUOUS
 62
     7
 10
-93.16839
 20
40.99999
 11
-93.16839
 21
40.39999
  0
LINE
  8
0
  6
CONTINUOUS
 62
     7
 10
-98.26839
 20
40.99999
 11
-98.26839
 21
40.39999
  0
LINE
  8
0
  6
CONTINUOUS
 62
     7
 10
-92.63262
 20
4.4858
 11
-89.80419
 21
7.31422
  0
LINE
  8
0
  6
CONTINUOUS
 62
     7
 10
-92.63261
 20
7.31421
 11
-89.80418
 21
4.48578
  0
LINE
  8
0
  6
CONTINUOUS
 62
     7
 10
-93.15025
 20
6.41763
 11
-90.70076
 21
3.96814
  0
LINE
  8
0
  6
PHANTOM
 62
     2
 10
17.83556
 20
-82.98962
 11
15.61158
 21
-91.28963
  0
LINE
  8
0
  6
CONTINUOUS
 62
     7
 10
32.5
 20
-86.15961
 11
32.5
 21
-85.51962
  0
LINE
  8
0
  6
CONTINUOUS
 62
     7
 10
22.5
 20
-86.68961
 11
22.5
 21
-84.98962
  0
LINE
  8
0
  6
CONTINUOUS
 62
     7
 10
32.5
 20
-86.15962
 11
22.5
 21
-86.15962
  0
LINE
  8
0
  6
CONTINUOUS
 62
     7
 10
32.5
 20
-85.51962
 11
22.5
 21
-85.51962
  0
LINE
  8
0
  6
CONTINUOUS
 62
     7
 10
22.5
 20
-86.68962
 11
18.39703
 21
-86.68962
  0
LINE
  8
0
  6
CONTINUOUS
 62
     7
 10
22.5
 20
-84.98962
 11
18.85255
 21
-84.98962
  0
LINE
  8
0
  6
CENTER
 62
     2
 10
35.5
 20
-85.83961
 11
11.46548
 21
-85.83961
  0
LINE
  8
0
  6
CONTINUOUS
 62
     7
 10
32.5
 20
-88.75961
 11
32.5
 21
-88.11961
  0
LINE
  8
0
  6
CONTINUOUS
 62
     7
 10
22.5
 20
-89.28961
 11
22.5
 21
-87.58961
  0
LINE
  8
0
  6
CONTINUOUS
 62
     7
 10
32.5
 20
-88.75961
 11
22.5
 21
-88.75961
  0
LINE
  8
0
  6
CONTINUOUS
 62
     7
 10
32.5
 20
-88.11961
 11
22.5
 21
-88.11961
  0
LINE
  8
0
  6
CONTINUOUS
 62
     7
 10
22.5
 20
-89.28961
 11
17.70036
 21
-89.28961
  0
LINE
  8
0
  6
CONTINUOUS
 62
     7
 10
22.5
 20
-87.58961
 11
18.15588
 21
-87.58961
  0
LINE
  8
0
  6
CENTER
 62
     2
 10
35.5
 20
-88.43961
 11
11.4031
 21
-88.43961
  0
LINE
  8
0
  6
CENTER
 62
     2
 10
4.47256
 20
-92.13962
 11
11.33009
 21
-92.13962
  0
LINE
  8
0
  6
CENTER
 62
     2
 10
-14.14867
 20
-82.13962
 11
-7.62566
 21
-82.13962
  0
LINE
  8
0
  6
CENTER
 62
     2
 10
8.0
 20
-88.74228
 11
8.0
 21
-95.32103
  0
LINE
  8
0
  6
CENTER
 62
     2
 10
-11.0
 20
-78.81837
 11
-11.0
 21
-85.56439
  0
LINE
  8
0
  6
CONTINUOUS
 62
     7
 10
9.42425
 20
-81.98818
 11
9.84851
 21
-82.41244
  0
LINE
  8
0
  6
CONTINUOUS
 62
     7
 10
9.84857
 20
-80.71538
 11
10.27282
 21
-80.29111
  0
LINE
  8
0
  6
CONTINUOUS
 62
     7
 10
9.42428
 20
-80.29112
 11
9.84854
 21
-79.86686
  0
LINE
  8
0
  6
CONTINUOUS
 62
     7
 10
8.15145
 20
-79.86684
 11
8.57572
 21
-80.29111
  0
LINE
  8
0
  6
CONTINUOUS
 62
     7
 10
7.72719
 20
-80.29111
 11
8.15145
 21
-80.71539
  0
LINE
  8
0
  6
CONTINUOUS
 62
     7
 10
9.84853
 20
-79.86684
 11
10.27279
 21
-80.2911
  0
LINE
  8
0
  6
CONTINUOUS
 62
     7
 10
7.72719
 20
-81.98817
 11
8.15146
 21
-82.41244
  0
LINE
  8
0
  6
CONTINUOUS
 62
     7
 10
9.84851
 20
-81.56391
 11
10.27277
 21
-81.98817
  0
LINE
  8
0
  6
CENTER
 62
     2
 10
-1.5
 20
-75.38962
 11
-1.5
 21
-99.36705
  0
LINE
  8
0
  6
CONTINUOUS
 62
     7
 10
16.14745
 20
-89.28961
 11
12.5
 21
-89.28961
  0
LINE
  8
0
  6
CONTINUOUS
 62
     7
 10
16.60297
 20
-87.58961
 11
12.5
 21
-87.58961
  0
LINE
  8
0
  6
CONTINUOUS
 62
     7
 10
16.84412
 20
-86.68962
 11
12.5
 21
-86.68962
  0
LINE
  8
0
  6
CONTINUOUS
 62
     7
 10
17.29964
 20
-84.98962
 11
12.5
 21
-84.98962
  0
LINE
  8
0
  6
PHANTOM
 62
     2
 10
19.38845
 20
-82.98962
 11
17.16447
 21
-91.28961
  0
LINE
  8
0
  6
CONTINUOUS
 62
     7
 10
12.5
 20
-84.63962
 11
12.5
 21
-89.63962
  0
LINE
  8
0
  6
CENTER
 62
     2
 10
-17.39624
 20
-87.13962
 11
14.42633
 21
-87.13962
  0
LINE
  8
0
  6
CONTINUOUS
 62
     7
 10
-14.5
 20
-96.13962
 11
11.5
 21
-96.13962
  0
LINE
  8
0
  6
CONTINUOUS
 62
     7
 10
-14.5
 20
-78.13962
 11
11.5
 21
-78.13962
  0
LINE
  8
0
  6
CONTINUOUS
 62
     7
 10
12.0
 20
-78.63962
 11
12.0
 21
-95.63962
  0
LINE
  8
0
  6
CONTINUOUS
 62
     7
 10
-15.0
 20
-78.63962
 11
-15.0
 21
-95.63962
  0
LINE
  8
0
  6
CENTER
 62
     2
 10
4.86217
 20
-81.13962
 11
13.16991
 21
-81.13962
  0
LINE
  8
0
  6
CENTER
 62
     2
 10
-16.17899
 20
-93.13962
 11
-7.83208
 21
-93.13962
  0
LINE
  8
0
  6
CENTER
 62
     2
 10
-12.0
 20
-89.10732
 11
-12.0
 21
-97.04935
  0
LINE
  8
0
  6
CENTER
 62
     2
 10
9.0
 20
-77.28253
 11
9.0
 21
-85.00687
  0
LINE
  8
0
  6
CONTINUOUS
 62
     7
 10
-8.8
 20
-93.13962
 11
-8.8
 21
-95.63962
  0
LINE
  8
0
  6
CONTINUOUS
 62
     7
 10
-14.5
 20
-89.93961
 11
-12.0
 21
-89.93961
  0
LINE
  8
0
  6
CONTINUOUS
 62
     7
 10
9.0
 20
-84.33961
 11
11.5
 21
-84.33961
  0
LINE
  8
0
  6
CONTINUOUS
 62
     7
 10
5.8
 20
-78.63962
 11
5.8
 21
-81.13962
  0
LINE
  8
0
  6
CONTINUOUS
 62
     7
 10
-13.27279
 20
-92.29111
 11
-12.84852
 21
-91.86684
  0
LINE
  8
0
  6
CONTINUOUS
 62
     7
 10
-11.15147
 20
-94.41242
 11
-10.72721
 21
-93.98815
  0
LINE
  8
0
  6
CONTINUOUS
 62
     7
 10
-13.27277
 20
-93.98817
 11
-12.84851
 21
-93.5639
  0
LINE
  8
0
  6
CONTINUOUS
 62
     7
 10
-12.8485
 20
-94.41243
 11
-12.42424
 21
-93.98817
  0
LINE
  8
0
  6
CONTINUOUS
 62
     7
 10
-13.27278
 20
-93.98817
 11
-12.84854
 21
-94.41241
  0
LINE
  8
0
  6
CONTINUOUS
 62
     7
 10
-11.15149
 20
-91.86684
 11
-10.72723
 21
-92.2911
  0
LINE
  8
0
  6
CONTINUOUS
 62
     7
 10
-13.2728
 20
-92.2911
 11
-12.84854
 21
-92.71536
  0
LINE
  8
0
  6
CONTINUOUS
 62
     7
 10
-12.84857
 20
-91.86687
 11
-12.4243
 21
-92.29115
  0
LINE
  8
0
  6
CONTINUOUS
 62
     7
 10
-11.57572
 20
-92.29112
 11
-11.15145
 21
-91.86685
  0
LINE
  8
0
  6
CONTINUOUS
 62
     7
 10
-11.15145
 20
-92.71538
 11
-10.72718
 21
-92.29111
  0
LINE
  8
0
  6
CONTINUOUS
 62
     7
 10
-11.57574
 20
-93.98815
 11
-11.15147
 21
-94.41242
  0
LINE
  8
0
  6
CONTINUOUS
 62
     7
 10
-11.15151
 20
-93.56394
 11
-10.72725
 21
-93.9882
  0
LINE
  8
0
  6
CONTINUOUS
 62
     7
 10
7.72723
 20
-80.29111
 11
8.15149
 21
-79.86686
  0
LINE
  8
0
  6
CONTINUOUS
 62
     7
 10
9.84857
 20
-82.41246
 11
10.27283
 21
-81.98819
  0
LINE
  8
0
  6
CONTINUOUS
 62
     7
 10
7.72722
 20
-81.98818
 11
8.15149
 21
-81.56392
  0
LINE
  8
0
  6
CONTINUOUS
 62
     7
 10
8.15151
 20
-82.41243
 11
8.57577
 21
-81.98817
  0
ARC
  8
0
  6
CONTINUOUS
 62
     7
 10
136.5177
 20
-117.5228
 40
1.10594
 50
0.0
 51
89.99999
  0
ARC
  8
0
  6
CONTINUOUS
 62
     7
 10
145.6418
 20
-123.4673
 40
1.10595
 50
270.0
 51
0.0
  0
ARC
  8
0
  6
CONTINUOUS
 62
     7
 10
145.0888
 20
-118.0758
 40
1.65892
 50
0.0
 51
89.99999
  0
ARC
  8
0
  6
CONTINUOUS
 62
     7
 10
155.1806
 20
-117.5228
 40
1.10594
 50
0.0
 51
89.99999
  0
ARC
  8
0
  6
CONTINUOUS
 62
     7
 10
155.1806
 20
-118.4064
 40
1.10595
 50
295.0
 51
0.0
  0
ARC
  8
0
  6
CONTINUOUS
 62
     7
 10
163.7517
 20
-116.4169
 40
1.65892
 50
291.6884
 51
0.0
  0
ARC
  8
0
  6
CONTINUOUS
 62
     7
 10
163.1987
 20
-116.0417
 40
0.55297
 50
291.689
 51
0.0
  0
ARC
  8
0
  6
CONTINUOUS
 62
     7
 10
-14.5
 20
78.63962
 40
0.5
 50
180.0
 51
270.0
  0
ARC
  8
0
  6
CONTINUOUS
 62
     7
 10
11.5
 20
78.63962
 40
0.5
 50
270.0
 51
0.0
  0
ARC
  8
0
  6
CONTINUOUS
 62
     7
 10
11.5
 20
95.63962
 40
0.5
 50
0.0
 51
89.99989
  0
ARC
  8
0
  6
CONTINUOUS
 62
     7
 10
-14.5
 20
95.63962
 40
0.5
 50
89.99989
 51
180.0
  0
ARC
  8
0
  6
CONTINUOUS
 62
     7
 10
12.0
 20
84.63962
 40
0.5
 50
270.0
 51
0.0
  0
ARC
  8
0
  6
CONTINUOUS
 62
     7
 10
12.0
 20
89.63962
 40
0.5
 50
0.0
 51
89.99989
  0
ARC
  8
0
  6
CONTINUOUS
 62
     7
 10
7.5
 20
82.63962
 40
3.0
 50
89.99998
 51
180.0
  0
ARC
  8
0
  6
CONTINUOUS
 62
     7
 10
-10.5
 20
91.63962
 40
3.0
 50
270.0
 51
0.0
  0
ARC
  8
0
  6
CONTINUOUS
 62
     7
 10
7.5
 20
82.63962
 40
2.55
 50
276.7563
 51
263.2437
  0
ARC
  8
0
  6
CONTINUOUS
 62
     7
 10
-10.5
 20
91.63962
 40
2.55
 50
96.75634
 51
83.24372
  0
CIRCLE
  8
0
  6
CONTINUOUS
 62
     7
 10
7.5
 20
82.63962
 40
2.25
  0
ARC
  8
0
  6
CONTINUOUS
 62
     7
 10
7.5
 20
83.74271
 40
0.52
 50
225.0002
 51
314.9998
  0
ARC
  8
0
  6
CONTINUOUS
 62
     7
 10
6.39691
 20
82.63962
 40
0.52
 50
314.9998
 51
45.00026
  0
ARC
  8
0
  6
CONTINUOUS
 62
     7
 10
8.60309
 20
82.63962
 40
0.52
 50
134.9998
 51
225.0002
  0
ARC
  8
0
  6
CONTINUOUS
 62
     7
 10
7.5
 20
81.53653
 40
0.52
 50
45.00026
 51
134.9997
  0
CIRCLE
  8
0
  6
CONTINUOUS
 62
     7
 10
-10.5
 20
91.63962
 40
2.25
  0
ARC
  8
0
  6
CONTINUOUS
 62
     7
 10
-10.5
 20
92.74271
 40
0.52
 50
225.0002
 51
314.9998
  0
ARC
  8
0
  6
CONTINUOUS
 62
     7
 10
-11.60309
 20
91.63962
 40
0.52
 50
314.9998
 51
45.00022
  0
ARC
  8
0
  6
CONTINUOUS
 62
     7
 10
-9.39691
 20
91.63962
 40
0.52
 50
134.9998
 51
225.0002
  0
ARC
  8
0
  6
CONTINUOUS
 62
     7
 10
-10.5
 20
90.53653
 40
0.52
 50
45.00022
 51
134.9998
  0
ARC
  8
0
  6
CONTINUOUS
 62
     7
 10
-13.0
 20
94.13962
 40
0.5
 50
89.99999
 51
180.0
  0
ARC
  8
0
  6
CONTINUOUS
 62
     7
 10
-13.0
 20
80.13962
 40
0.5
 50
180.0
 51
270.0
  0
ARC
  8
0
  6
CONTINUOUS
 62
     7
 10
-14.5
 20
-53.9
 40
0.5
 50
180.0
 51
270.0
  0
ARC
  8
0
  6
CONTINUOUS
 62
     7
 10
11.5
 20
-53.9
 40
0.5
 50
270.0
 51
0.0
  0
ARC
  8
0
  6
CONTINUOUS
 62
     7
 10
7.5
 20
36.7
 40
6.0
 50
73.80869
 51
106.1913
  0
ARC
  8
0
  6
CONTINUOUS
 62
     7
 10
8.95
 20
41.69374
 40
0.8
 50
0.0
 51
73.80865
  0
ARC
  8
0
  6
CONTINUOUS
 62
     7
 10
6.05
 20
41.69374
 40
0.8
 50
106.1913
 51
180.0
  0
ARC
  8
0
  6
CONTINUOUS
 62
     7
 10
-10.5
 20
36.69999
 40
6.0
 50
73.80865
 51
106.1913
  0
ARC
  8
0
  6
CONTINUOUS
 62
     7
 10
-11.95
 20
41.69373
 40
0.8
 50
106.1913
 51
118.0138
  0
ARC
  8
0
  6
CONTINUOUS
 62
     7
 10
-9.05
 20
41.69374
 40
0.8
 50
61.98621
 51
73.80872
  0
ARC
  8
0
  6
CONTINUOUS
 62
     7
 10
6.3
 20
-51.5
 40
0.5
 50
89.99999
 51
180.0
  0
ARC
  8
0
  6
CONTINUOUS
 62
     7
 10
11.5
 20
-50.5
 40
0.5
 50
270.0
 51
0.0
  0
ARC
  8
0
  6
CONTINUOUS
 62
     7
 10
5.3
 20
-53.9
 40
0.5
 50
270.0
 51
0.0
  0
ARC
  8
0
  6
CONTINUOUS
 62
     7
 10
9.0
 20
-48.4
 40
5.0
 50
240.5076
 51
299.4923
  0
ARC
  8
0
  6
CONTINUOUS
 62
     7
 10
6.86667
 20
-52.17183
 40
0.66667
 50
180.0
 51
240.5076
  0
ARC
  8
0
  6
CONTINUOUS
 62
     7
 10
11.13333
 20
-52.17183
 40
0.66667
 50
299.4924
 51
0.0
  0
CIRCLE
  8
0
  6
CONTINUOUS
 62
     7
 10
6.0
 20
-10.0
 40
1.6
  0
CIRCLE
  8
0
  6
CONTINUOUS
 62
     7
 10
6.0
 20
-40.0
 40
1.6
  0
ARC
  8
0
  6
CONTINUOUS
 62
     7
 10
12.0
 20
33.4
 40
0.5
 50
0.0
 51
89.99989
  0
ARC
  8
0
  6
CONTINUOUS
 62
     7
 10
12.0
 20
31.0
 40
0.5
 50
270.0
 51
0.0
  0
ARC
  8
0
  6
CONTINUOUS
 62
     7
 10
85.21838
 20
-48.4
 40
5.0
 50
240.5076
 51
299.4923
  0
ARC
  8
0
  6
CONTINUOUS
 62
     7
 10
83.08504
 20
-52.17182
 40
0.66666
 50
180.0
 51
240.5073
  0
ARC
  8
0
  6
CONTINUOUS
 62
     7
 10
87.35171
 20
-52.17182
 40
0.66666
 50
299.4921
 51
0.0
  0
CIRCLE
  8
0
  6
CONTINUOUS
 62
     7
 10
91.2184
 20
10.7
 40
1.65
  0
ARC
  8
0
  6
CONTINUOUS
 62
     7
 10
82.71838
 20
-53.89999
 40
0.5
 50
180.0
 51
270.0
  0
ARC
  8
0
  6
CONTINUOUS
 62
     7
 10
99.71838
 20
-53.9
 40
0.5
 50
270.0
 51
0.0
  0
CIRCLE
  8
0
  6
CONTINUOUS
 62
     7
 10
84.71838
 20
-40.0
 40
1.6
  0
CIRCLE
  8
0
  6
CONTINUOUS
 62
     7
 10
97.71839
 20
-10.0
 40
1.6
  0
ARC
  8
0
  6
CONTINUOUS
 62
     7
 10
97.71839
 20
-10.0
 40
3.0
 50
33.55732
 51
326.4427
  0
ARC
  8
0
  6
CONTINUOUS
 62
     7
 10
84.71838
 20
-40.0
 40
3.0
 50
0.0
 51
146.4427
  0
ARC
  8
0
  6
CONTINUOUS
 62
     7
 10
84.71838
 20
-40.0
 40
3.0
 50
213.5573
 51
0.0
  0
ARC
  8
0
  6
CONTINUOUS
 62
     7
 10
86.71841
 20
36.69999
 40
6.0
 50
73.80869
 51
106.1913
  0
ARC
  8
0
  6
CONTINUOUS
 62
     7
 10
88.1684
 20
41.69374
 40
0.8
 50
0.0
 51
73.80872
  0
ARC
  8
0
  6
CONTINUOUS
 62
     7
 10
85.26841
 20
41.69373
 40
0.8
 50
106.1913
 51
180.0
  0
ARC
  8
0
  6
CONTINUOUS
 62
     7
 10
95.71841
 20
36.69999
 40
6.0
 50
73.80862
 51
106.1913
  0
ARC
  8
0
  6
CONTINUOUS
 62
     7
 10
94.26841
 20
41.69373
 40
0.8
 50
106.1913
 51
118.0138
  0
ARC
  8
0
  6
CONTINUOUS
 62
     7
 10
97.1684
 20
41.69374
 40
0.8
 50
61.98621
 51
73.80872
  0
ARC
  8
0
  6
CONTINUOUS
 62
     7
 10
87.91837
 20
-51.5
 40
0.5
 50
0.0
 51
89.99999
  0
ARC
  8
0
  6
CONTINUOUS
 62
     7
 10
82.71838
 20
-50.5
 40
0.5
 50
180.0
 51
270.0
  0
ARC
  8
0
  6
CONTINUOUS
 62
     7
 10
88.91837
 20
-53.89999
 40
0.5
 50
180.0
 51
270.0
  0
CIRCLE
  8
0
  6
CONTINUOUS
 62
     7
 10
90.71838
 20
-33.0
 40
4.86435
  0
CIRCLE
  8
0
  6
CONTINUOUS
 62
     7
 10
90.71838
 20
-33.0
 40
4.28325
  0
CIRCLE
  8
0
  6
CONTINUOUS
 62
     7
 10
91.71839
 20
-17.0
 40
4.86435
  0
CIRCLE
  8
0
  6
CONTINUOUS
 62
     7
 10
91.71839
 20
-17.0
 40
4.28325
  0
ARC
  8
0
  6
CONTINUOUS
 62
     7
 10
89.9184
 20
32.2
 40
1.7
 50
89.99999
 51
270.0
  0
CIRCLE
  8
0
  6
CONTINUOUS
 62
     7
 10
89.9184
 20
32.2
 40
0.85
  0
ARC
  8
0
  6
CONTINUOUS
 62
     7
 10
92.51841
 20
32.2
 40
1.7
 50
270.0
 51
89.99999
  0
CIRCLE
  8
0
  6
CONTINUOUS
 62
     7
 10
92.51841
 20
32.2
 40
0.85
  0
CIRCLE
  8
0
  6
CONTINUOUS
 62
     7
 10
-91.21839
 20
5.9
 40
2.0
  0
ARC
  8
0
  6
CONTINUOUS
 62
     7
 10
-97.21839
 20
-48.4
 40
5.0
 50
240.5076
 51
299.4923
  0
ARC
  8
0
  6
CONTINUOUS
 62
     7
 10
-99.35172
 20
-52.17183
 40
0.66666
 50
180.0
 51
240.5073
  0
ARC
  8
0
  6
CONTINUOUS
 62
     7
 10
-95.08506
 20
-52.17183
 40
0.66666
 50
299.4921
 51
0.0
  0
ARC
  8
0
  6
CONTINUOUS
 62
     7
 10
-99.71839
 20
-50.5
 40
0.5
 50
180.0
 51
270.0
  0
ARC
  8
0
  6
CONTINUOUS
 62
     7
 10
-94.51839
 20
-51.5
 40
0.5
 50
0.0
 51
89.99999
  0
CIRCLE
  8
0
  6
CONTINUOUS
 62
     7
 10
-91.21839
 20
5.9
 40
2.65
  0
CIRCLE
  8
0
  6
CONTINUOUS
 62
     7
 10
-97.71839
 20
-10.0
 40
1.6
  0
CIRCLE
  8
0
  6
CONTINUOUS
 62
     7
 10
-84.71839
 20
-40.0
 40
1.6
  0
ARC
  8
0
  6
CONTINUOUS
 62
     7
 10
-82.71839
 20
-53.9
 40
0.5
 50
270.0
 51
0.0
  0
ARC
  8
0
  6
CONTINUOUS
 62
     7
 10
-99.71839
 20
-53.9
 40
0.5
 50
180.0
 51
270.0
  0
ARC
  8
0
  6
CONTINUOUS
 62
     7
 10
-93.51839
 20
-53.9
 40
0.5
 50
180.0
 51
270.0
  0
ARC
  8
0
  6
CONTINUOUS
 62
     7
 10
-94.66464
 20
35.15332
 40
0.35346
 50
0.0
 51
89.99999
  0
ARC
  8
0
  6
CONTINUOUS
 62
     7
 10
-91.74857
 20
33.25345
 40
0.35346
 50
270.0
 51
0.0
  0
ARC
  8
0
  6
CONTINUOUS
 62
     7
 10
-91.92532
 20
34.97659
 40
0.53019
 50
0.0
 51
89.99999
  0
ARC
  8
0
  6
CONTINUOUS
 62
     7
 10
-88.69998
 20
35.15332
 40
0.35346
 50
0.0
 51
89.99999
  0
ARC
  8
0
  6
CONTINUOUS
 62
     7
 10
-88.69998
 20
34.87093
 40
0.35346
 50
294.9994
 51
0.0
  0
ARC
  8
0
  6
CONTINUOUS
 62
     7
 10
-85.96065
 20
35.50678
 40
0.53019
 50
291.6884
 51
0.0
  0
ARC
  8
0
  6
CONTINUOUS
 62
     7
 10
-86.13739
 20
35.62669
 40
0.17673
 50
291.6893
 51
0.0
  0
ARC
  8
0
  6
CONTINUOUS
 62
     7
 10
-97.16839
 20
41.69373
 40
0.8
 50
106.1913
 51
180.0
  0
ARC
  8
0
  6
CONTINUOUS
 62
     7
 10
-95.71839
 20
36.69999
 40
6.0
 50
73.80869
 51
106.1913
  0
ARC
  8
0
  6
CONTINUOUS
 62
     7
 10
-94.26839
 20
41.69374
 40
0.8
 50
0.0
 51
73.80872
  0
ARC
  8
0
  6
CONTINUOUS
 62
     7
 10
-86.71839
 20
36.69999
 40
6.0
 50
73.80862
 51
106.1913
  0
ARC
  8
0
  6
CONTINUOUS
 62
     7
 10
-88.1684
 20
41.69373
 40
0.8
 50
106.1913
 51
118.0138
  0
ARC
  8
0
  6
CONTINUOUS
 62
     7
 10
-85.26839
 20
41.69374
 40
0.8
 50
61.98621
 51
73.80872
  0
CIRCLE
  8
0
  6
CONTINUOUS
 62
     7
 10
-90.71839
 20
-11.8
 40
4.86435
  0
CIRCLE
  8
0
  6
CONTINUOUS
 62
     7
 10
-90.71839
 20
-11.8
 40
4.28325
  0
CIRCLE
  8
0
  6
CONTINUOUS
 62
     7
 10
-91.71839
 20
-38.2
 40
4.86435
  0
CIRCLE
  8
0
  6
CONTINUOUS
 62
     7
 10
-91.71839
 20
-38.2
 40
4.28325
  0
CIRCLE
  8
0
  6
CONTINUOUS
 62
     7
 10
-91.21839
 20
-25.0
 40
4.86435
  0
CIRCLE
  8
0
  6
CONTINUOUS
 62
     7
 10
-91.21839
 20
-25.0
 40
4.28325
  0
ARC
  8
0
  6
CONTINUOUS
 62
     7
 10
12.0
 20
-84.63962
 40
0.5
 50
0.0
 51
89.99999
  0
ARC
  8
0
  6
CONTINUOUS
 62
     7
 10
12.0
 20
-89.63962
 40
0.5
 50
270.0
 51
0.0
  0
CIRCLE
  8
0
  6
CONTINUOUS
 62
     7
 10
8.0
 20
-92.13962
 40
1.5
  0
CIRCLE
  8
0
  6
CONTINUOUS
 62
     7
 10
-11.0
 20
-82.13962
 40
1.5
  0
CIRCLE
  8
0
  6
CONTINUOUS
 62
     7
 10
-11.0
 20
-82.13962
 40
1.0
  0
ARC
  8
0
  6
CONTINUOUS
 62
     7
 10
-14.5
 20
-78.63962
 40
0.5
 50
89.99999
 51
180.0
  0
ARC
  8
0
  6
CONTINUOUS
 62
     7
 10
11.5
 20
-78.63962
 40
0.5
 50
0.0
 51
89.99999
  0
ARC
  8
0
  6
CONTINUOUS
 62
     7
 10
11.5
 20
-95.63962
 40
0.5
 50
270.0
 51
0.0
  0
ARC
  8
0
  6
CONTINUOUS
 62
     7
 10
-14.5
 20
-95.63962
 40
0.5
 50
180.0
 51
270.0
  0
ARC
  8
0
  6
CONTINUOUS
 62
     7
 10
9.0
 20
-81.13962
 40
3.2
 50
180.0
 51
270.0
  0
ARC
  8
0
  6
CONTINUOUS
 62
     7
 10
-12.0
 20
-93.13962
 40
3.2
 50
0.0
 51
89.99998
  0
ARC
  8
0
  6
CONTINUOUS
 62
     7
 10
-14.5
 20
-89.43961
 40
0.5
 50
180.0
 51
270.0
  0
ARC
  8
0
  6
CONTINUOUS
 62
     7
 10
-8.3
 20
-95.63962
 40
0.5
 50
180.0
 51
270.0
  0
ARC
  8
0
  6
CONTINUOUS
 62
     7
 10
5.3
 20
-78.63962
 40
0.5
 50
0.0
 51
89.99999
  0
ARC
  8
0
  6
CONTINUOUS
 62
     7
 10
11.5
 20
-84.83961
 40
0.5
 50
0.0
 51
89.99999
  0
CIRCLE
  8
0
  6
CONTINUOUS
 62
     7
 10
-12.0
 20
-93.13962
 40
2.8
  0
ARC
  8
0
  6
CONTINUOUS
 62
     7
 10
-12.0
 20
-91.86682
 40
0.6
 50
224.9999
 51
315.0
  0
ARC
  8
0
  6
CONTINUOUS
 62
     7
 10
-13.2728
 20
-93.13962
 40
0.6
 50
315.0
 51
44.99994
  0
ARC
  8
0
  6
CONTINUOUS
 62
     7
 10
-10.7272
 20
-93.13962
 40
0.6
 50
135.0001
 51
224.9999
  0
ARC
  8
0
  6
CONTINUOUS
 62
     7
 10
-12.0
 20
-94.41241
 40
0.6
 50
44.99994
 51
135.0001
  0
CIRCLE
  8
0
  6
CONTINUOUS
 62
     7
 10
9.0
 20
-81.13962
 40
2.8
  0
ARC
  8
0
  6
CONTINUOUS
 62
     7
 10
9.0
 20
-79.86682
 40
0.6
 50
224.9999
 51
315.0
  0
ARC
  8
0
  6
CONTINUOUS
 62
     7
 10
7.7272
 20
-81.13962
 40
0.6
 50
315.0
 51
44.99994
  0
ARC
  8
0
  6
CONTINUOUS
 62
     7
 10
10.2728
 20
-81.13962
 40
0.6
 50
135.0001
 51
224.9999
  0
ARC
  8
0
  6
CONTINUOUS
 62
     7
 10
9.0
 20
-82.41241
 40
0.6
 50
44.99994
 51
135.0001
  0
CIRCLE
  8
0
  6
CONTINUOUS
 62
     7
 10
-11.0
 20
-82.13962
 40
2.35
  0
CIRCLE
  8
0
  6
CONTINUOUS
 62
     7
 10
8.0
 20
-92.13962
 40
2.35
  0
CIRCLE
  8
0
  6
CONTINUOUS
 62
     7
 10
8.0
 20
-92.13962
 40
1.0
  0
TEXT
  8
0
  6
CONTINUOUS
 62
     7
 10
114.5353
 20
118.1347
 40
4.24264
  1
DATE : AUG ,1989
 41
0.8
  7
STANDARD
  0
TEXT
  8
0
  6
CONTINUOUS
 62
     7
 10
-163.965
 20
117.7787
 40
5.0
  1
180-4E1
 41
0.8
  7
STANDARD
  0
TEXT
  8
0
  6
CONTINUOUS
 62
     7
 10
-162.1329
 20
91.31543
 40
5.0
  1
MODEL : 180-4E1
 41
0.8
  7
STANDARD
  0
TEXT
  8
0
  6
CONTINUOUS
 62
     7
 10
94.88696
 20
-39.94
 40
2.0
  1
B
 41
0.8
  7
STANDARD
  0
TEXT
  8
0
  6
CONTINUOUS
 62
     7
 10
86.38696
 20
-11.94
 40
2.0
  1
A
 41
0.8
  7
STANDARD
  0
TEXT
  8
0
  6
CONTINUOUS
 62
     7
 10
-97.04982
 20
-6.94
 40
2.0
  1
R1
 41
0.8
  7
STANDARD
  0
TEXT
  8
0
  6
CONTINUOUS
 62
     7
 10
-87.04982
 20
-31.94
 40
2.0
  1
P
 41
0.8
  7
STANDARD
  0
TEXT
  8
0
  6
CONTINUOUS
 62
     7
 10
-89.04982
 20
-44.94
 40
2.0
  1
R2
 41
0.8
  7
STANDARD
  0
ENDSEC
  0
EOF
