  0
SECTION
  2
HEADER
  9
$ACADVER
  1
AC1014
  9
$ACADMAINTVER
 70
       0
  9
$DWGCODEPAGE
  3
ANSI_932
  9
$INSBASE
 10
0.0
 20
0.0
 30
0.0
  9
$EXTMIN
 10
-281.25
 20
-195.0
 30
0.0
  9
$EXTMAX
 10
282.09985352
 20
195.5
 30
0.0
  9
$LIMMIN
 10
-297.0
 20
-210.0
  9
$LIMMAX
 10
297.0
 20
210.0
  9
$ORTHOMODE
 70
       0
  9
$REGENMODE
 70
       1
  9
$FILLMODE
 70
       1
  9
$QTEXTMODE
 70
       0
  9
$MIRRTEXT
 70
       1
  9
$DRAGMODE
 70
       2
  9
$LTSCALE
 40
1.0
  9
$OSMODE
 70
       0
  9
$ATTMODE
 70
       1
  9
$TEXTSIZE
 40
3.20000005
  9
$TRACEWID
 40
0.05
  9
$TEXTSTYLE
  7
MX_NOTE_STANDARD
  9
$CLAYER
  8
0
  9
$CELTYPE
  6
CONTINUOUS
  9
$CECOLOR
 62
     256
  9
$CELTSCALE
 40
1.0
  9
$DELOBJ
 70
       1
  9
$DISPSILH
 70
       0
  9
$DIMSCALE
 40
1.0
  9
$DIMASZ
 40
2.5
  9
$DIMEXO
 40
1.5
  9
$DIMDLI
 40
3.75
  9
$DIMRND
 40
0.0
  9
$DIMDLE
 40
0.0
  9
$DIMEXE
 40
1.5
  9
$DIMTP
 40
0.0
  9
$DIMTM
 40
0.0
  9
$DIMTXT
 40
3.20000005
  9
$DIMCEN
 40
2.5
  9
$DIMTSZ
 40
0.0
  9
$DIMTOL
 70
       0
  9
$DIMLIM
 70
       0
  9
$DIMTIH
 70
       0
  9
$DIMTOH
 70
       0
  9
$DIMSE1
 70
       0
  9
$DIMSE2
 70
       0
  9
$DIMTAD
 70
       1
  9
$DIMZIN
 70
       8
  9
$DIMBLK
  1

  9
$DIMASO
 70
       1
  9
$DIMSHO
 70
       1
  9
$DIMPOST
  1

  9
$DIMAPOST
  1

  9
$DIMALT
 70
       0
  9
$DIMALTD
 70
       4
  9
$DIMALTF
 40
0.03937008
  9
$DIMLFAC
 40
1.0
  9
$DIMTOFL
 70
       1
  9
$DIMTVP
 40
0.0
  9
$DIMTIX
 70
       0
  9
$DIMSOXD
 70
       0
  9
$DIMSAH
 70
       1
  9
$DIMBLK1
  1
_OPEN30
  9
$DIMBLK2
  1
_OPEN30
  9
$DIMSTYLE
  2
MXDIMSTYLE
  9
$DIMCLRD
 70
       0
  9
$DIMCLRE
 70
       0
  9
$DIMCLRT
 70
       0
  9
$DIMTFAC
 40
1.0
  9
$DIMGAP
 40
1.0
  9
$DIMJUST
 70
       0
  9
$DIMSD1
 70
       0
  9
$DIMSD2
 70
       0
  9
$DIMTOLJ
 70
       0
  9
$DIMTZIN
 70
       0
  9
$DIMALTZ
 70
       0
  9
$DIMALTTZ
 70
       0
  9
$DIMFIT
 70
       3
  9
$DIMUPT
 70
       1
  9
$DIMUNIT
 70
       2
  9
$DIMDEC
 70
       2
  9
$DIMTDEC
 70
       2
  9
$DIMALTU
 70
       2
  9
$DIMALTTD
 70
       4
  9
$DIMTXSTY
  7
MX_NOTE_STANDARD
  9
$DIMAUNIT
 70
       0
  9
$LUNITS
 70
       2
  9
$LUPREC
 70
       4
  9
$SKETCHINC
 40
0.1
  9
$FILLETRAD
 40
0.0
  9
$AUNITS
 70
       0
  9
$AUPREC
 70
       0
  9
$MENU
  1
acad
  9
$ELEVATION
 40
0.0
  9
$PELEVATION
 40
0.0
  9
$THICKNESS
 40
0.0
  9
$LIMCHECK
 70
       0
  9
$BLIPMODE
 70
       1
  9
$CHAMFERA
 40
0.0
  9
$CHAMFERB
 40
0.0
  9
$CHAMFERC
 40
0.0
  9
$CHAMFERD
 40
0.0
  9
$SKPOLY
 70
       0
  9
$TDCREATE
 40
2454263.751956019
  9
$TDUPDATE
 40
2454263.751956019
  9
$TDINDWG
 40
0.0000000000
  9
$TDUSRTIMER
 40
0.0000000000
  9
$USRTIMER
 70
       1
  9
$ANGBASE
 50
0.0
  9
$ANGDIR
 70
       0
  9
$PDMODE
 70
       0
  9
$PDSIZE
 40
0.0
  9
$PLINEWID
 40
0.0
  9
$COORDS
 70
       1
  9
$SPLFRAME
 70
       0
  9
$SPLINETYPE
 70
       6
  9
$SPLINESEGS
 70
       8
  9
$ATTDIA
 70
       0
  9
$ATTREQ
 70
       1
  9
$HANDLING
 70
       1
  9
$HANDSEED
  5
136
  9
$SURFTAB1
 70
       6
  9
$SURFTAB2
 70
       6
  9
$SURFTYPE
 70
       6
  9
$SURFU
 70
       6
  9
$SURFV
 70
       6
  9
$UCSNAME
  2

  9
$UCSORG
 10
0.0
 20
0.0
 30
0.0
  9
$UCSXDIR
 10
1.0
 20
0.0
 30
0.0
  9
$UCSYDIR
 10
0.0
 20
1.0
 30
0.0
  9
$PUCSNAME
  2

  9
$PUCSORG
 10
0.0
 20
0.0
 30
0.0
  9
$PUCSXDIR
 10
1.0
 20
0.0
 30
0.0
  9
$PUCSYDIR
 10
0.0
 20
1.0
 30
0.0
  9
$USERI1
 70
       0
  9
$USERI2
 70
       0
  9
$USERI3
 70
       0
  9
$USERI4
 70
       0
  9
$USERI5
 70
       0
  9
$USERR1
 40
0.0
  9
$USERR2
 40
0.0
  9
$USERR3
 40
0.0
  9
$USERR4
 40
0.0
  9
$USERR5
 40
0.0
  9
$WORLDVIEW
 70
       1
  9
$SHADEDGE
 70
       3
  9
$SHADEDIF
 70
      70
  9
$TILEMODE
 70
       1
  9
$MAXACTVP
 70
      16
  9
$PINSBASE
 10
0.0
 20
0.0
 30
0.0
  9
$PLIMCHECK
 70
       0
  9
$PEXTMIN
 10
1.00000000E+20
 20
1.00000000E+20
 30
1.00000000E+20
  9
$PEXTMAX
 10
-1.00000000E+20
 20
-1.00000000E+20
 30
-1.00000000E+20
  9
$PLIMMIN
 10
0.0
 20
0.0
  9
$PLIMMAX
 10
12.0
 20
9.0
  9
$UNITMODE
 70
       0
  9
$VISRETAIN
 70
       0
  9
$PLINEGEN
 70
       1
  9
$PSLTSCALE
 70
       0
  9
$TREEDEPTH
 70
    3020
  9
$PICKSTYLE
 70
       1
  9
$CMLSTYLE
  2
Standard
  9
$CMLJUST
 70
       0
  9
$CMLSCALE
 40
1.0
  9
$PROXYGRAPHICS
 70
       0
  9
$MEASUREMENT
 70
       1
  0
ENDSEC
  0
SECTION
  2
CLASSES
  0
CLASS
  1
LWPOLYLINE
  2
AcDbPolyline
  3
"AutoCAD"
 90
        0
280
       0
281
       1
  0
CLASS
  1
IMAGE
  2
AcDbRasterImage
  3
ISM
 90
      127
280
       0
281
       1
  0
CLASS
  1
OLE2FRAME
  2
AcDbOle2Frame
  3
""
 90
        0
280
       0
281
       1
  0
CLASS
  1
HATCH
  2
AcDbHatch
  3
"ACAD_SEDONA"
 90
        0
280
       0
281
       1
  0
CLASS
  1
DICTIONARYVAR
  2
AcDbDictionaryVar
  3
"AutoCAD"
 90
        0
280
       0
281
       0
  0
CLASS
  1
RASTERVARIABLES
  2
AcDbRasterVariables
  3
ISM
 90
        0
280
       0
281
       0
  0
CLASS
  1
IMAGEDEF
  2
AcDbRasterImageDef
  3
ISM
 90
        0
280
       0
281
       0
  0
CLASS
  1
IMAGEDEF_REACTOR
  2
AcDbRasterImageDefReactor
  3
ISM
 90
        1
280
       0
281
       0
  0
CLASS
  1
IDBUFFER
  2
AcDbIdBuffer
  3
"Acad"
 90
        0
280
       0
281
       0
  0
CLASS
  1
SPATIAL_FILTER
  2
AcDbSpatialFilter
  3
"Acad"
 90
        0
280
       0
281
       0
  0
CLASS
  1
XRECORD
  2
AcDbXrecord
  3
"<Built In>"
 90
        0
280
       0
281
       0
  0
CLASS
  1
SORTENTSTABLE
  2
AcDbSortentsTable
  3
"AutoCAD"
 90
        0
280
       0
281
       0
  0
CLASS
  1
LAYER_INDEX
  2
AcDbLayerIndex
  3
"Acad"
 90
        0
280
       0
281
       0
  0
CLASS
  1
SPATIAL_INDEX
  2
AcDbSpatialIndex
  3
"Acad"
 90
        0
280
       0
281
       0
  0
CLASS
  1
OBJECT_PTR
  2
CAseDLPNTableRecord
  3
"ASE-LPNTableRecord"
 90
        1
280
       0
281
       0
  0
CLASS
  1
LAYOUT
  2
AcDbLayout
  3
"AutoCAD 2000"
 90
        0
280
       0
281
       0
  0
CLASS
  1
PLOTSETTINGS
  2
AcDbPlotSettings
  3
"AutoCAD 2000"
 90
        0
280
       0
281
       0
  0
CLASS
  1
ACDBDICTIONARYWDFLT
  2
AcDbDictionaryWithDefault
  3
"AutoCAD 2000"
 90
        0
280
       0
281
       0
  0
CLASS
  1
ACDBPLACEHOLDER
  2
AcDbPlaceHolder
  3
"AutoCAD 2000"
 90
        0
280
       0
281
       0
  0
ENDSEC
  0
SECTION
  2
TABLES
  0
TABLE
  2
VPORT
  5
7
100
AcDbSymbolTable
 70
       1
  0
VPORT
  5
15
100
AcDbSymbolTableRecord
100
AcDbViewportTableRecord
  2
*ACTIVE
 70
       0
 10
0.0
 20
0.0
 11
1.0
 21
1.0
 12
0.0
 22
0.0
 13
0.0
 23
0.0
 14
1.0
 24
1.0
 15
0.0
 25
0.0
 16
0.0
 26
0.0
 36
1.0
 17
0.0
 27
0.0
 37
0.0
 40
424.2
 41
1.73205081
 42
50.0
 43
0.0
 44
0.0
 50
0.0
 51
0.0
 71
       0
 72
     100
 73
       1
 74
       1
 75
       0
 76
       0
 77
       0
 78
       0
  0
ENDTAB
  0
TABLE
  2
LTYPE
  5
4
100
AcDbSymbolTable
 70
       4
  0
LTYPE
  5
11
100
AcDbSymbolTableRecord
100
AcDbLinetypeTableRecord
  2
BYBLOCK
 70
      64
  3

 72
      65
 73
       0
 40
0.0
  0
LTYPE
  5
12
100
AcDbSymbolTableRecord
100
AcDbLinetypeTableRecord
  2
BYLAYER
 70
      64
  3

 72
      65
 73
       0
 40
0.0
  0
LTYPE
  5
13
100
AcDbSymbolTableRecord
100
AcDbLinetypeTableRecord
  2
CONTINUOUS
 70
      64
  3
Solid line
 72
      65
 73
       0
 40
0.0
  0
LTYPE
  5
5C
100
AcDbSymbolTableRecord
100
AcDbLinetypeTableRecord
  2
PHANTOM
 70
      64
  3
Phantom ______  __  __  ______  __  __  ______
 72
      65
 73
       6
 40
63.5
 49
31.75
 74
       0
 49
-6.35
 74
       0
 49
6.35
 74
       0
 49
-6.35
 74
       0
 49
6.35
 74
       0
 49
-6.35
 74
       0
  0
ENDTAB
  0
TABLE
  2
LAYER
  5
2
100
AcDbSymbolTable
 70
       2
  0
LAYER
  5
14
100
AcDbSymbolTableRecord
100
AcDbLayerTableRecord
  2
0
 70
       0
 62
       7
  6
CONTINUOUS
  0
LAYER
  5
1D
100
AcDbSymbolTableRecord
100
AcDbLayerTableRecord
  2
DEFPOINTS
 70
       0
 62
       7
  6
CONTINUOUS
  0
ENDTAB
  0
TABLE
  2
STYLE
  5
3
100
AcDbSymbolTable
 70
       1
  0
STYLE
  5
17
100
AcDbSymbolTableRecord
100
AcDbTextStyleTableRecord
  2
MX_NOTE_STANDARD
 70
       0
 40
0.0
 41
1.0
 50
0.0
 71
       0
 42
3.20000005
  3
txt.shx
  4
extfont.shx
  0
ENDTAB
  0
TABLE
  2
VIEW
  5
5
100
AcDbSymbolTable
 70
       0
  0
ENDTAB
  0
TABLE
  2
UCS
  5
6
100
AcDbSymbolTable
 70
       0
  0
ENDTAB
  0
TABLE
  2
APPID
  5
8
100
AcDbSymbolTable
 70
       1
  0
APPID
  5
16
100
AcDbSymbolTableRecord
100
AcDbRegAppTableRecord
  2
ACAD
 70
       0
  0
ENDTAB
  0
TABLE
  2
DIMSTYLE
  5
9
100
AcDbSymbolTable
 70
       1
  0
DIMSTYLE
105
18
100
AcDbSymbolTableRecord
100
AcDbDimStyleTableRecord
  2
MXDIMSTYLE
 70
       0
  3

  4

  5

  6
_OPEN30
  7
_OPEN30
 40
1.0
 41
2.5
 42
1.5
 43
3.75
 44
1.5
 45
0.0
 46
0.0
 47
0.0
 48
0.0
 71
       0
 72
       0
 73
       0
 74
       0
 75
       0
 76
       0
 77
       1
 78
       8
140
3.20000005
141
2.5
142
0.0
143
0.03937008
144
1.0
145
0.0
146
1.0
147
1.0
170
       0
171
       4
172
       1
173
       1
174
       0
175
       0
176
       0
177
       0
178
       0
270
       2
271
       2
272
       2
273
       2
274
       4
275
       0
280
       0
281
       0
282
       0
283
       0
284
       0
285
       0
286
       0
287
       3
288
       1
340
17
  0
ENDTAB
  0
TABLE
  2
BLOCK_RECORD
  5
1
100
AcDbSymbolTable
 70
       1
  0
BLOCK_RECORD
  5
A
100
AcDbSymbolTableRecord
100
AcDbBlockTableRecord
  2
*MODEL_SPACE
  0
BLOCK_RECORD
  5
B
100
AcDbSymbolTableRecord
100
AcDbBlockTableRecord
  2
*PAPER_SPACE
  0
BLOCK_RECORD
  5
1E
100
AcDbSymbolTableRecord
100
AcDbBlockTableRecord
  2
_OPEN30
  0
ENDTAB
  0
ENDSEC
  0
SECTION
  2
BLOCKS
  0
BLOCK
  5
D
100
AcDbEntity
  8
0
100
AcDbBlockBegin
  2
*MODEL_SPACE
 70
       0
 10
0.0
 20
0.0
 30
0.0
  3
*MODEL_SPACE
  1

  0
ENDBLK
  5
E
100
AcDbEntity
  8
0
100
AcDbBlockEnd
  0
BLOCK
  5
F
100
AcDbEntity
 67
       1
  8
0
100
AcDbBlockBegin
  2
*PAPER_SPACE
 70
       0
 10
0.0
 20
0.0
 30
0.0
  3
*PAPER_SPACE
  1

  0
ENDBLK
  5
10
100
AcDbEntity
 67
       1
  8
0
100
AcDbBlockEnd
  0
BLOCK
  5
1F
100
AcDbEntity
  8
0
  6
ByBlock
 62
       0
100
AcDbBlockBegin
  2
_OPEN30
 70
       2
 10
0.0
 20
0.0
 30
0.0
  3
_OPEN30
  1

  0
LINE
  5
20
100
AcDbEntity
  8
0
  6
ByBlock
 62
       0
100
AcDbLine
 10
-1.0
 20
0.267949
 30
0.0
 11
0.0
 21
0.0
 31
0.0
  0
LINE
  5
21
100
AcDbEntity
  8
0
  6
ByBlock
 62
       0
100
AcDbLine
 10
0.0
 20
0.0
 30
0.0
 11
-1.0
 21
-0.267949
 31
0.0
  0
LINE
  5
22
100
AcDbEntity
  8
0
  6
ByBlock
 62
       0
100
AcDbLine
 10
0.0
 20
0.0
 30
0.0
 11
-1.0
 21
0.0
 31
0.0
  0
ENDBLK
  5
23
100
AcDbEntity
  8
0
  6
ByBlock
 62
       0
100
AcDbBlockEnd
  0
ENDSEC
  0
SECTION
  2
ENTITIES
  0
LINE
  5
24
100
AcDbEntity
  8
0
  6
CONTINUOUS
 62
       2
100
AcDbLine
 10
-155.80279862
 20
45.74603156
 30
0.0
 11
-155.80279862
 21
53.16603156
 31
0.0
  0
LINE
  5
25
100
AcDbEntity
  8
0
  6
CONTINUOUS
 62
       2
100
AcDbLine
 10
156.28955107
 20
45.74603154
 30
0.0
 11
156.28955107
 21
53.16603154
 31
0.0
  0
ARC
  5
26
100
AcDbEntity
  8
0
  6
CONTINUOUS
 62
       7
100
AcDbCircle
 10
-157.91358867
 20
21.44434023
 30
0.0
 40
1.3
100
AcDbArc
 50
185.00000002
 51
254.11914999
  0
LINE
  5
27
100
AcDbEntity
  8
0
  6
CONTINUOUS
 62
       7
100
AcDbLine
 10
-159.20864178
 20
21.33103776
 30
0.0
 11
-159.30657791
 21
22.45045291
 31
0.0
  0
ARC
  5
28
100
AcDbEntity
  8
0
  6
CONTINUOUS
 62
       7
100
AcDbCircle
 10
-153.69956716
 20
21.44434023
 30
0.0
 40
1.3
100
AcDbArc
 50
285.88085001
 51
354.99999998
  0
ARC
  5
29
100
AcDbEntity
  8
0
  6
CONTINUOUS
 62
       7
100
AcDbCircle
 10
-155.80657792
 20
28.85045295
 30
0.0
 40
9.0
100
AcDbArc
 50
254.11914999
 51
285.88085001
  0
LINE
  5
2A
100
AcDbEntity
  8
0
  6
CONTINUOUS
 62
       7
100
AcDbLine
 10
-152.40451406
 20
21.33103776
 30
0.0
 11
-152.30657792
 21
22.45045291
 31
0.0
  0
ARC
  5
2B
100
AcDbEntity
  8
0
  6
CONTINUOUS
 62
       7
100
AcDbCircle
 10
-139.91358867
 20
21.44434023
 30
0.0
 40
1.3
100
AcDbArc
 50
185.00000002
 51
254.11914999
  0
LINE
  5
2C
100
AcDbEntity
  8
0
  6
CONTINUOUS
 62
       7
100
AcDbLine
 10
-141.20864178
 20
21.33103776
 30
0.0
 11
-141.30657791
 21
22.45045291
 31
0.0
  0
ARC
  5
2D
100
AcDbEntity
  8
0
  6
CONTINUOUS
 62
       7
100
AcDbCircle
 10
-135.69956716
 20
21.44434023
 30
0.0
 40
1.3
100
AcDbArc
 50
285.88085001
 51
354.99999998
  0
ARC
  5
2E
100
AcDbEntity
  8
0
  6
CONTINUOUS
 62
       7
100
AcDbCircle
 10
-137.80657792
 20
28.85045295
 30
0.0
 40
9.0
100
AcDbArc
 50
254.11914999
 51
285.88085001
  0
LINE
  5
2F
100
AcDbEntity
  8
0
  6
CONTINUOUS
 62
       7
100
AcDbLine
 10
-134.40451406
 20
21.33103776
 30
0.0
 11
-134.30657792
 21
22.45045291
 31
0.0
  0
ARC
  5
30
100
AcDbEntity
  8
0
  6
CONTINUOUS
 62
       7
100
AcDbCircle
 10
136.18874575
 20
21.44434019
 30
0.0
 40
1.3
100
AcDbArc
 50
185.00000002
 51
254.11914999
  0
LINE
  5
31
100
AcDbEntity
  8
0
  6
CONTINUOUS
 62
       7
100
AcDbLine
 10
134.89369265
 20
21.33103772
 30
0.0
 11
134.79575651
 21
22.45045288
 31
0.0
  0
ARC
  5
32
100
AcDbEntity
  8
0
  6
CONTINUOUS
 62
       7
100
AcDbCircle
 10
140.40276726
 20
21.44434019
 30
0.0
 40
1.3
100
AcDbArc
 50
285.88085001
 51
354.99999998
  0
ARC
  5
33
100
AcDbEntity
  8
0
  6
CONTINUOUS
 62
       7
100
AcDbCircle
 10
138.29575651
 20
28.85045291
 30
0.0
 40
9.0
100
AcDbArc
 50
254.11914999
 51
285.88085001
  0
LINE
  5
34
100
AcDbEntity
  8
0
  6
CONTINUOUS
 62
       7
100
AcDbLine
 10
141.69782037
 20
21.33103772
 30
0.0
 11
141.79575651
 21
22.45045288
 31
0.0
  0
ARC
  5
35
100
AcDbEntity
  8
0
  6
CONTINUOUS
 62
       7
100
AcDbCircle
 10
154.18874575
 20
21.44434019
 30
0.0
 40
1.3
100
AcDbArc
 50
185.00000002
 51
254.11914999
  0
LINE
  5
36
100
AcDbEntity
  8
0
  6
CONTINUOUS
 62
       7
100
AcDbLine
 10
152.89369265
 20
21.33103772
 30
0.0
 11
152.79575651
 21
22.45045288
 31
0.0
  0
ARC
  5
37
100
AcDbEntity
  8
0
  6
CONTINUOUS
 62
       7
100
AcDbCircle
 10
158.40276726
 20
21.44434019
 30
0.0
 40
1.3
100
AcDbArc
 50
285.88085001
 51
354.99999998
  0
ARC
  5
38
100
AcDbEntity
  8
0
  6
CONTINUOUS
 62
       7
100
AcDbCircle
 10
156.29575651
 20
28.85045291
 30
0.0
 40
9.0
100
AcDbArc
 50
254.11914999
 51
285.88085001
  0
LINE
  5
39
100
AcDbEntity
  8
0
  6
CONTINUOUS
 62
       7
100
AcDbLine
 10
159.69782037
 20
21.33103772
 30
0.0
 11
159.79575651
 21
22.45045288
 31
0.0
  0
LINE
  5
3A
100
AcDbEntity
  8
0
  6
CONTINUOUS
 62
       7
100
AcDbLine
 10
-12.31787438
 20
-100.29530447
 30
0.0
 11
-15.28772286
 21
-103.26515295
 31
0.0
  0
LINE
  5
3B
100
AcDbEntity
  8
0
  6
CONTINUOUS
 62
       7
100
AcDbLine
 10
-15.28772286
 20
-100.29530447
 30
0.0
 11
-12.31787438
 21
-103.26515295
 31
0.0
  0
CIRCLE
  5
3C
100
AcDbEntity
  8
0
  6
CONTINUOUS
 62
       7
100
AcDbCircle
 10
-13.80279862
 20
-101.78022871
 30
0.0
 40
3.5
  0
LINE
  5
3D
100
AcDbEntity
  8
0
  6
CONTINUOUS
 62
       7
100
AcDbLine
 10
5.68212562
 20
-82.29530447
 30
0.0
 11
2.71227714
 21
-85.26515295
 31
0.0
  0
LINE
  5
3E
100
AcDbEntity
  8
0
  6
CONTINUOUS
 62
       7
100
AcDbLine
 10
2.71227714
 20
-82.29530447
 30
0.0
 11
5.68212562
 21
-85.26515295
 31
0.0
  0
CIRCLE
  5
3F
100
AcDbEntity
  8
0
  6
CONTINUOUS
 62
       7
100
AcDbCircle
 10
4.19720138
 20
-83.78022871
 30
0.0
 40
3.5
  0
LINE
  5
40
100
AcDbEntity
  8
0
  6
CONTINUOUS
 62
       2
100
AcDbLine
 10
-155.80657792
 20
25.30876941
 30
0.0
 11
-155.80657792
 21
18.45045295
 31
0.0
  0
LINE
  5
41
100
AcDbEntity
  8
0
  6
CONTINUOUS
 62
       2
100
AcDbLine
 10
-137.80657792
 20
35.04802719
 30
0.0
 11
-137.80657792
 21
18.45045295
 31
0.0
  0
LINE
  5
42
100
AcDbEntity
  8
0
  6
CONTINUOUS
 62
       2
100
AcDbLine
 10
138.29575651
 20
35.04802719
 30
0.0
 11
138.29575651
 21
18.71996905
 31
0.0
  0
LINE
  5
43
100
AcDbEntity
  8
0
  6
CONTINUOUS
 62
       2
100
AcDbLine
 10
156.29575651
 20
25.30876941
 30
0.0
 11
156.29575651
 21
18.71996905
 31
0.0
  0
MTEXT
  5
44
100
AcDbEntity
  8
0
  6
CONTINUOUS
 62
       7
100
AcDbMText
 10
-230.39090801
 20
165.6500001
 30
0.0
 40
6.30000019
 41
0.0
 71
       1
 72
       1
  1
\W1.152;\A1;050E1-01-11-21-LFA1
  0
MTEXT
  5
45
100
AcDbEntity
  8
0
  6
CONTINUOUS
 62
       7
100
AcDbMText
 10
-268.21538468
 20
173.6500001
 30
0.0
 40
6.30000019
 41
0.0
 71
       1
 72
       1
  1
\W1.128;\A1;MODEL:050E1-01-21-LFA1
  0
LINE
  5
46
100
AcDbEntity
  8
0
  6
CONTINUOUS
 62
       7
100
AcDbLine
 10
50.49720138
 20
-95.28022871
 30
0.0
 11
50.49720138
 21
-94.28022871
 31
0.0
  0
LINE
  5
47
100
AcDbEntity
  8
0
  6
CONTINUOUS
 62
       7
100
AcDbLine
 10
50.49720138
 20
-91.28022871
 30
0.0
 11
50.49720138
 21
-90.28022871
 31
0.0
  0
LINE
  5
48
100
AcDbEntity
  8
0
  6
CONTINUOUS
 62
       2
100
AcDbLine
 10
30.20164748
 20
85.18828608
 30
0.0
 11
27.28164748
 21
83.18828608
 31
0.0
  0
LINE
  5
49
100
AcDbEntity
  8
0
  6
CONTINUOUS
 62
       2
100
AcDbLine
 10
32.20164748
 20
85.18828608
 30
0.0
 11
29.28164748
 21
83.18828608
 31
0.0
  0
LINE
  5
4A
100
AcDbEntity
  8
0
  6
CONTINUOUS
 62
       2
100
AcDbLine
 10
30.19720138
 20
-93.78022871
 30
0.0
 11
27.27720138
 21
-95.78022871
 31
0.0
  0
LINE
  5
4B
100
AcDbEntity
  8
0
  6
CONTINUOUS
 62
       2
100
AcDbLine
 10
32.19720138
 20
-93.78022871
 30
0.0
 11
29.27720138
 21
-95.78022871
 31
0.0
  0
LINE
  5
4C
100
AcDbEntity
  8
0
  6
CONTINUOUS
 62
       2
100
AcDbLine
 10
31.19720138
 20
-89.78022871
 30
0.0
 11
28.27720138
 21
-91.78022871
 31
0.0
  0
LINE
  5
4D
100
AcDbEntity
  8
0
  6
CONTINUOUS
 62
       2
100
AcDbLine
 10
33.19720138
 20
-89.78022871
 30
0.0
 11
30.27720138
 21
-91.78022871
 31
0.0
  0
LINE
  5
4E
100
AcDbEntity
  8
0
  6
CONTINUOUS
 62
       7
100
AcDbLine
 10
8.19720138
 20
-106.28022871
 30
0.0
 11
8.69720138
 21
-106.28022871
 31
0.0
  0
LINE
  5
4F
100
AcDbEntity
  8
0
  6
CONTINUOUS
 62
       7
100
AcDbLine
 10
8.19720138
 20
-79.28022871
 30
0.0
 11
8.69720138
 21
-79.28022871
 31
0.0
  0
ARC
  5
50
100
AcDbEntity
  8
0
  6
CONTINUOUS
 62
       7
100
AcDbCircle
 10
18.19218594
 20
-82.28524415
 30
0.0
 40
1.00502796
100
AcDbArc
 50
0.28592738
 51
89.71407262
  0
ARC
  5
51
100
AcDbEntity
  8
0
  6
CONTINUOUS
 62
       7
100
AcDbCircle
 10
18.19219694
 20
-103.27522427
 30
0.0
 40
1.0050169
100
AcDbArc
 50
270.28530298
 51
359.71469702
  0
LINE
  5
52
100
AcDbEntity
  8
0
  6
CONTINUOUS
 62
       2
100
AcDbLine
 10
51.21720138
 20
-94.78022871
 30
0.0
 11
19.81720138
 21
-94.78022871
 31
0.0
  0
LINE
  5
53
100
AcDbEntity
  8
0
  6
CONTINUOUS
 62
       7
100
AcDbLine
 10
27.27720138
 20
-95.78022871
 30
0.0
 11
20.69720138
 21
-95.78022871
 31
0.0
  0
LINE
  5
54
100
AcDbEntity
  8
0
  6
CONTINUOUS
 62
       7
100
AcDbLine
 10
30.19720138
 20
-93.78022871
 30
0.0
 11
20.69720138
 21
-93.78022871
 31
0.0
  0
LINE
  5
55
100
AcDbEntity
  8
0
  6
CONTINUOUS
 62
       7
100
AcDbLine
 10
45.49720138
 20
-95.78022871
 30
0.0
 11
45.49720138
 21
-93.78022871
 31
0.0
  0
LINE
  5
56
100
AcDbEntity
  8
0
  6
CONTINUOUS
 62
       7
100
AcDbLine
 10
50.49720138
 20
-95.28022871
 30
0.0
 11
45.49720138
 21
-95.28022871
 31
0.0
  0
LINE
  5
57
100
AcDbEntity
  8
0
  6
CONTINUOUS
 62
       7
100
AcDbLine
 10
50.49720138
 20
-94.28022871
 30
0.0
 11
45.49720138
 21
-94.28022871
 31
0.0
  0
LINE
  5
58
100
AcDbEntity
  8
0
  6
CONTINUOUS
 62
       7
100
AcDbLine
 10
45.49720138
 20
-93.78022871
 30
0.0
 11
32.19720138
 21
-93.78022871
 31
0.0
  0
LINE
  5
59
100
AcDbEntity
  8
0
  6
CONTINUOUS
 62
       7
100
AcDbLine
 10
45.49720138
 20
-95.78022871
 30
0.0
 11
29.27720138
 21
-95.78022871
 31
0.0
  0
LINE
  5
5A
100
AcDbEntity
  8
0
  6
CONTINUOUS
 62
       7
100
AcDbLine
 10
20.69720138
 20
-87.28022871
 30
0.0
 11
19.19720138
 21
-87.28022871
 31
0.0
  0
LINE
  5
5B
100
AcDbEntity
  8
0
  6
CONTINUOUS
 62
       7
100
AcDbLine
 10
20.69720138
 20
-98.28022871
 30
0.0
 11
19.19720138
 21
-98.28022871
 31
0.0
  0
LINE
  5
5D
100
AcDbEntity
  8
0
  6
PHANTOM
 62
       2
100
AcDbLine
 10
19.19720138
 20
-99.78022871
 30
0.0
 11
19.19720138
 21
-85.78022871
 31
0.0
  0
LINE
  5
5E
100
AcDbEntity
  8
0
  6
CONTINUOUS
 62
       2
100
AcDbLine
 10
23.19720138
 20
-92.78022871
 30
0.0
 11
-25.55279862
 21
-92.78022871
 31
0.0
  0
LINE
  5
5F
100
AcDbEntity
  8
0
  6
CONTINUOUS
 62
       2
100
AcDbLine
 10
51.21720138
 20
-90.78022871
 30
0.0
 11
19.81720138
 21
-90.78022871
 31
0.0
  0
LINE
  5
60
100
AcDbEntity
  8
0
  6
CONTINUOUS
 62
       7
100
AcDbLine
 10
28.27720138
 20
-91.78022871
 30
0.0
 11
20.69720138
 21
-91.78022871
 31
0.0
  0
LINE
  5
61
100
AcDbEntity
  8
0
  6
CONTINUOUS
 62
       7
100
AcDbLine
 10
31.19720138
 20
-89.78022871
 30
0.0
 11
20.69720138
 21
-89.78022871
 31
0.0
  0
LINE
  5
62
100
AcDbEntity
  8
0
  6
CONTINUOUS
 62
       7
100
AcDbLine
 10
45.49720138
 20
-91.78022871
 30
0.0
 11
45.49720138
 21
-89.78022871
 31
0.0
  0
LINE
  5
63
100
AcDbEntity
  8
0
  6
CONTINUOUS
 62
       7
100
AcDbLine
 10
50.49720138
 20
-91.28022871
 30
0.0
 11
45.49720138
 21
-91.28022871
 31
0.0
  0
LINE
  5
64
100
AcDbEntity
  8
0
  6
CONTINUOUS
 62
       7
100
AcDbLine
 10
50.49720138
 20
-90.28022871
 30
0.0
 11
45.49720138
 21
-90.28022871
 31
0.0
  0
LINE
  5
65
100
AcDbEntity
  8
0
  6
CONTINUOUS
 62
       7
100
AcDbLine
 10
45.49720138
 20
-89.78022871
 30
0.0
 11
33.19720138
 21
-89.78022871
 31
0.0
  0
LINE
  5
66
100
AcDbEntity
  8
0
  6
CONTINUOUS
 62
       7
100
AcDbLine
 10
45.49720138
 20
-91.78022871
 30
0.0
 11
30.27720138
 21
-91.78022871
 31
0.0
  0
LINE
  5
67
100
AcDbEntity
  8
0
  6
CONTINUOUS
 62
       7
100
AcDbLine
 10
20.69720138
 20
-98.28022871
 30
0.0
 11
20.69720138
 21
-87.28022871
 31
0.0
  0
LINE
  5
68
100
AcDbEntity
  8
0
  6
CONTINUOUS
 62
       7
100
AcDbLine
 10
18.19720138
 20
-81.28022871
 30
0.0
 11
8.69720138
 21
-81.28022871
 31
0.0
  0
LINE
  5
69
100
AcDbEntity
  8
0
  6
CONTINUOUS
 62
       7
100
AcDbLine
 10
18.19720138
 20
-104.28022871
 30
0.0
 11
8.69720138
 21
-104.28022871
 31
0.0
  0
LINE
  5
6A
100
AcDbEntity
  8
0
  6
CONTINUOUS
 62
       7
100
AcDbLine
 10
19.19720138
 20
-103.28022871
 30
0.0
 11
19.19720138
 21
-82.28022871
 31
0.0
  0
LINE
  5
6B
100
AcDbEntity
  8
0
  6
CONTINUOUS
 62
       2
100
AcDbLine
 10
-13.80279862
 20
-98.51231047
 30
0.0
 11
-13.80279862
 21
-105.04814695
 31
0.0
  0
LINE
  5
6C
100
AcDbEntity
  8
0
  6
CONTINUOUS
 62
       2
100
AcDbLine
 10
4.19720138
 20
-80.51231047
 30
0.0
 11
4.19720138
 21
-87.04814695
 31
0.0
  0
LINE
  5
6D
100
AcDbEntity
  8
0
  6
CONTINUOUS
 62
       2
100
AcDbLine
 10
-17.07071686
 20
-101.78022871
 30
0.0
 11
-10.53488038
 21
-101.78022871
 31
0.0
  0
LINE
  5
6E
100
AcDbEntity
  8
0
  6
CONTINUOUS
 62
       2
100
AcDbLine
 10
0.92928314
 20
-83.78022871
 30
0.0
 11
7.46511962
 21
-83.78022871
 31
0.0
  0
LINE
  5
6F
100
AcDbEntity
  8
0
  6
CONTINUOUS
 62
       7
100
AcDbLine
 10
8.69720138
 20
-79.28022871
 30
0.0
 11
8.69720138
 21
-106.28022871
 31
0.0
  0
LINE
  5
70
100
AcDbEntity
  8
0
  6
CONTINUOUS
 62
       7
100
AcDbLine
 10
-18.30279862
 20
-79.28022871
 30
0.0
 11
-18.30279862
 21
-106.28022871
 31
0.0
  0
LINE
  5
71
100
AcDbEntity
  8
0
  6
CONTINUOUS
 62
       7
100
AcDbLine
 10
-18.30279862
 20
-106.28022871
 30
0.0
 11
-17.80279862
 21
-106.28022871
 31
0.0
  0
LINE
  5
72
100
AcDbEntity
  8
0
  6
CONTINUOUS
 62
       7
100
AcDbLine
 10
-18.30279862
 20
-79.28022871
 30
0.0
 11
-17.80279862
 21
-79.28022871
 31
0.0
  0
LINE
  5
73
100
AcDbEntity
  8
0
  6
CONTINUOUS
 62
       7
100
AcDbLine
 10
-17.80279862
 20
-110.78022871
 30
0.0
 11
-17.80279862
 21
-74.78022871
 31
0.0
  0
LINE
  5
74
100
AcDbEntity
  8
0
  6
CONTINUOUS
 62
       7
100
AcDbLine
 10
8.19720138
 20
-110.78022871
 30
0.0
 11
8.19720138
 21
-74.78022871
 31
0.0
  0
LINE
  5
75
100
AcDbEntity
  8
0
  6
CONTINUOUS
 62
       2
100
AcDbLine
 10
-4.80279862
 20
-67.84022871
 30
0.0
 11
-4.80279862
 21
-117.70022871
 31
0.0
  0
ARC
  5
76
100
AcDbEntity
  8
0
  6
CONTINUOUS
 62
       7
100
AcDbCircle
 10
-4.78781225
 20
-73.7752596
 30
0.0
 40
2.24501913
100
AcDbArc
 50
269.61752573
 51
359.8731818
  0
ARC
  5
77
100
AcDbEntity
  8
0
  6
CONTINUOUS
 62
       7
100
AcDbCircle
 10
-4.79279862
 20
-72.78022871
 30
0.0
 40
2.25
100
AcDbArc
 50
0.0
 51
180.0
  0
ARC
  5
78
100
AcDbEntity
  8
0
  6
CONTINUOUS
 62
       7
100
AcDbCircle
 10
-4.79780336
 20
-73.77523344
 30
0.0
 40
2.24500082
100
AcDbArc
 50
180.12748668
 51
269.87251332
  0
LINE
  5
79
100
AcDbEntity
  8
0
  6
CONTINUOUS
 62
       7
100
AcDbLine
 10
-16.28279862
 20
-77.78022871
 30
0.0
 11
6.61720138
 21
-77.78022871
 31
0.0
  0
LINE
  5
7A
100
AcDbEntity
  8
0
  6
CONTINUOUS
 62
       7
100
AcDbLine
 10
-2.54279862
 20
-72.78022871
 30
0.0
 11
-2.54279862
 21
-73.78022871
 31
0.0
  0
LINE
  5
7B
100
AcDbEntity
  8
0
  6
CONTINUOUS
 62
       7
100
AcDbLine
 10
-7.04279862
 20
-72.78022871
 30
0.0
 11
-7.04279862
 21
-73.78022871
 31
0.0
  0
LINE
  5
7C
100
AcDbEntity
  8
0
  6
PHANTOM
 62
       2
100
AcDbLine
 10
-8.62279862
 20
-72.78022871
 30
0.0
 11
-1.10279862
 21
-72.78022871
 31
0.0
  0
LINE
  5
7D
100
AcDbEntity
  8
0
  6
PHANTOM
 62
       2
100
AcDbLine
 10
-8.62279862
 20
-73.78022871
 30
0.0
 11
-0.96279862
 21
-73.78022871
 31
0.0
  0
LINE
  5
7E
100
AcDbEntity
  8
0
  6
CONTINUOUS
 62
       7
100
AcDbLine
 10
2.19720138
 20
-68.78022871
 30
0.0
 11
8.19720138
 21
-74.78022871
 31
0.0
  0
LINE
  5
7F
100
AcDbEntity
  8
0
  6
CONTINUOUS
 62
       7
100
AcDbLine
 10
-17.80279862
 20
-74.78022871
 30
0.0
 11
-11.80279862
 21
-68.78022871
 31
0.0
  0
LINE
  5
80
100
AcDbEntity
  8
0
  6
CONTINUOUS
 62
       7
100
AcDbLine
 10
-11.80279862
 20
-68.78022871
 30
0.0
 11
2.19720138
 21
-68.78022871
 31
0.0
  0
ARC
  5
81
100
AcDbEntity
  8
0
  6
CONTINUOUS
 62
       7
100
AcDbCircle
 10
-4.79780105
 20
-111.77523114
 30
0.0
 40
2.25500797
100
AcDbArc
 50
359.8730205
 51
90.1269795
  0
ARC
  5
82
100
AcDbEntity
  8
0
  6
CONTINUOUS
 62
       7
100
AcDbCircle
 10
-4.79279862
 20
-112.78022871
 30
0.0
 40
2.25
100
AcDbArc
 50
180.0
 51
0.0
  0
ARC
  5
83
100
AcDbEntity
  8
0
  6
CONTINUOUS
 62
       7
100
AcDbCircle
 10
-4.78781464
 20
-111.77516858
 30
0.0
 40
2.25498966
100
AcDbArc
 50
90.38072247
 51
180.12856999
  0
LINE
  5
84
100
AcDbEntity
  8
0
  6
CONTINUOUS
 62
       7
100
AcDbLine
 10
-16.20279862
 20
-107.78022871
 30
0.0
 11
6.47720138
 21
-107.78022871
 31
0.0
  0
LINE
  5
85
100
AcDbEntity
  8
0
  6
CONTINUOUS
 62
       7
100
AcDbLine
 10
-2.54279862
 20
-112.78022871
 30
0.0
 11
-2.54279862
 21
-111.78022871
 31
0.0
  0
LINE
  5
86
100
AcDbEntity
  8
0
  6
CONTINUOUS
 62
       7
100
AcDbLine
 10
-7.04279862
 20
-112.78022871
 30
0.0
 11
-7.04279862
 21
-111.78022871
 31
0.0
  0
LINE
  5
87
100
AcDbEntity
  8
0
  6
PHANTOM
 62
       2
100
AcDbLine
 10
-8.62279862
 20
-112.78022871
 30
0.0
 11
-1.10279862
 21
-112.78022871
 31
0.0
  0
LINE
  5
88
100
AcDbEntity
  8
0
  6
PHANTOM
 62
       2
100
AcDbLine
 10
-8.62279862
 20
-111.78022871
 30
0.0
 11
-0.96279862
 21
-111.78022871
 31
0.0
  0
LINE
  5
89
100
AcDbEntity
  8
0
  6
CONTINUOUS
 62
       7
100
AcDbLine
 10
8.19720138
 20
-110.78022871
 30
0.0
 11
2.19720138
 21
-116.78022871
 31
0.0
  0
LINE
  5
8A
100
AcDbEntity
  8
0
  6
CONTINUOUS
 62
       7
100
AcDbLine
 10
-11.80279862
 20
-116.78022871
 30
0.0
 11
-17.80279862
 21
-110.78022871
 31
0.0
  0
LINE
  5
8B
100
AcDbEntity
  8
0
  6
CONTINUOUS
 62
       7
100
AcDbLine
 10
-11.80279862
 20
-116.78022871
 30
0.0
 11
2.19720138
 21
-116.78022871
 31
0.0
  0
SPLINE
  5
8C
100
AcDbEntity
  8
0
  6
CONTINUOUS
 62
       7
100
AcDbSpline
210
0.0
220
0.0
230
1.0
 70
       0
 71
       3
 72
       0
 73
       0
 74
       3
 44
0.000001
 12
-0.0025278252792511
 22
0.9999968050445749
 32
0.0
 13
-0.999747527607987
 23
-0.0224695581113044
 33
0.0
 11
160.29575651463807
 21
98.55045295022785
 31
0.0
 11
160.05575651451642
 21
99.620452950770186
 31
0.0
 11
157.77575651336088
 21
100.55045295124154
 31
0.0
  0
SPLINE
  5
8D
100
AcDbEntity
  8
0
  6
CONTINUOUS
 62
       7
100
AcDbSpline
210
0.0
220
0.0
230
1.0
 70
       0
 71
       3
 72
       0
 73
       0
 74
       3
 44
0.000001
 12
0.002527825279251
 22
0.9999968050445749
 32
0.0
 13
0.999747527607987
 23
-0.0224695581113046
 33
0.0
 11
155.29575651210382
 21
98.55045295022785
 31
0.0
 11
155.53575651222548
 21
99.620452950770186
 31
0.0
 11
157.81575651338107
 21
100.55045295124154
 31
0.0
  0
CIRCLE
  5
8E
100
AcDbEntity
  8
0
  6
CONTINUOUS
 62
       2
100
AcDbCircle
 10
147.28955106
 20
49.45603154
 30
0.0
 40
2.5
  0
CIRCLE
  5
8F
100
AcDbEntity
  8
0
  6
CONTINUOUS
 62
       7
100
AcDbCircle
 10
147.28955106
 20
49.45603154
 30
0.0
 40
1.75
  0
CIRCLE
  5
90
100
AcDbEntity
  8
0
  6
CONTINUOUS
 62
       7
100
AcDbCircle
 10
138.28955106
 20
29.45603153
 30
0.0
 40
2.0
  0
CIRCLE
  5
91
100
AcDbEntity
  8
0
  6
CONTINUOUS
 62
       7
100
AcDbCircle
 10
156.28955107
 20
49.45603154
 30
0.0
 40
2.0
  0
LINE
  5
92
100
AcDbEntity
  8
0
  6
CONTINUOUS
 62
       2
100
AcDbLine
 10
152.56575651
 20
49.45045293
 30
0.0
 11
159.98575651
 21
49.45045293
 31
0.0
  0
LINE
  5
93
100
AcDbEntity
  8
0
  6
CONTINUOUS
 62
       2
100
AcDbLine
 10
134.5257565
 20
29.45045292
 30
0.0
 11
141.72575651
 21
29.45045292
 31
0.0
  0
LINE
  5
94
100
AcDbEntity
  8
0
  6
CONTINUOUS
 62
       2
100
AcDbLine
 10
143.03575651
 20
49.45045293
 30
0.0
 11
151.47575651
 21
49.45045293
 31
0.0
  0
LINE
  5
95
100
AcDbEntity
  8
0
  6
CONTINUOUS
 62
       2
100
AcDbLine
 10
140.87350875
 20
39.45045292
 30
0.0
 11
153.85330062
 21
39.45045292
 31
0.0
  0
LINE
  5
96
100
AcDbEntity
  8
0
  6
CONTINUOUS
 62
       7
100
AcDbLine
 10
160.29575651
 20
98.55045295
 30
0.0
 11
160.29575651
 21
97.75045295
 31
0.0
  0
LINE
  5
97
100
AcDbEntity
  8
0
  6
CONTINUOUS
 62
       7
100
AcDbLine
 10
155.29575651
 20
98.55045295
 30
0.0
 11
155.29575651
 21
97.75045295
 31
0.0
  0
LINE
  5
98
100
AcDbEntity
  8
0
  6
CONTINUOUS
 62
       7
100
AcDbLine
 10
155.29575651
 20
98.55045295
 30
0.0
 11
160.29575651
 21
98.55045295
 31
0.0
  0
LINE
  5
99
100
AcDbEntity
  8
0
  6
CONTINUOUS
 62
       2
100
AcDbLine
 10
157.79575651
 20
102.28045295
 30
0.0
 11
157.79575651
 21
97.22045295
 31
0.0
  0
LINE
  5
9A
100
AcDbEntity
  8
0
  6
CONTINUOUS
 62
       7
100
AcDbLine
 10
154.29575651
 20
97.75045295
 30
0.0
 11
160.79575651
 21
97.75045295
 31
0.0
  0
LINE
  5
9B
100
AcDbEntity
  8
0
  6
CONTINUOUS
 62
       7
100
AcDbLine
 10
154.29575651
 20
100.75045295
 30
0.0
 11
154.29575651
 21
97.75045295
 31
0.0
  0
LINE
  5
9C
100
AcDbEntity
  8
0
  6
CONTINUOUS
 62
       7
100
AcDbLine
 10
133.7957565
 20
100.75045295
 30
0.0
 11
133.7957565
 21
24.45045291
 31
0.0
  0
LINE
  5
9D
100
AcDbEntity
  8
0
  6
CONTINUOUS
 62
       7
100
AcDbLine
 10
160.79575651
 20
100.75045295
 30
0.0
 11
160.79575651
 21
24.45045291
 31
0.0
  0
LINE
  5
9E
100
AcDbEntity
  8
0
  6
CONTINUOUS
 62
       2
100
AcDbLine
 10
147.29575651
 20
102.67045295
 30
0.0
 11
147.29575651
 21
18.71996905
 31
0.0
  0
LINE
  5
9F
100
AcDbEntity
  8
0
  6
CONTINUOUS
 62
       7
100
AcDbLine
 10
133.7957565
 20
24.45045291
 30
0.0
 11
160.79575651
 21
24.45045291
 31
0.0
  0
LINE
  5
A0
100
AcDbEntity
  8
0
  6
CONTINUOUS
 62
       7
100
AcDbLine
 10
133.7957565
 20
100.75045295
 30
0.0
 11
160.79575651
 21
100.75045295
 31
0.0
  0
LINE
  5
A1
100
AcDbEntity
  8
0
  6
CONTINUOUS
 62
       7
100
AcDbLine
 10
133.7957565
 20
95.45045295
 30
0.0
 11
160.79575651
 21
95.45045295
 31
0.0
  0
LINE
  5
A2
100
AcDbEntity
  8
0
  6
CONTINUOUS
 62
       7
100
AcDbLine
 10
133.7957565
 20
58.45045293
 30
0.0
 11
160.79575651
 21
58.45045293
 31
0.0
  0
LINE
  5
A3
100
AcDbEntity
  8
0
  6
CONTINUOUS
 62
       2
100
AcDbLine
 10
138.28955106
 20
33.06603153
 30
0.0
 11
138.28955106
 21
25.57603153
 31
0.0
  0
CIRCLE
  5
A4
100
AcDbEntity
  8
0
  6
CONTINUOUS
 62
       7
100
AcDbCircle
 10
147.28576872
 20
39.4604224
 30
0.0
 40
4.0
  0
CIRCLE
  5
A5
100
AcDbEntity
  8
0
  6
CONTINUOUS
 62
       2
100
AcDbCircle
 10
147.28576872
 20
39.4604224
 30
0.0
 40
5.0
  0
LINE
  5
A6
100
AcDbEntity
  8
0
  6
CONTINUOUS
 62
       7
100
AcDbLine
 10
136.7957565
 20
61.95045293
 30
0.0
 11
157.79575651
 21
61.95045293
 31
0.0
  0
LINE
  5
A7
100
AcDbEntity
  8
0
  6
CONTINUOUS
 62
       7
100
AcDbLine
 10
136.7957565
 20
92.45045295
 30
0.0
 11
157.79575651
 21
92.45045295
 31
0.0
  0
LINE
  5
A8
100
AcDbEntity
  8
0
  6
CONTINUOUS
 62
       7
100
AcDbLine
 10
145.29575651
 20
87.45045295
 30
0.0
 11
149.29575651
 21
87.45045295
 31
0.0
  0
LINE
  5
A9
100
AcDbEntity
  8
0
  6
CONTINUOUS
 62
       2
100
AcDbLine
 10
140.79575651
 20
83.95045295
 30
0.0
 11
153.79575651
 21
83.95045295
 31
0.0
  0
LINE
  5
AA
100
AcDbEntity
  8
0
  6
CONTINUOUS
 62
       7
100
AcDbLine
 10
145.29575651
 20
80.45045295
 30
0.0
 11
149.29575651
 21
80.45045295
 31
0.0
  0
CIRCLE
  5
AB
100
AcDbEntity
  8
0
  6
CONTINUOUS
 62
       7
100
AcDbCircle
 10
145.29575651
 20
83.95045295
 30
0.0
 40
1.2
  0
LINE
  5
AC
100
AcDbEntity
  8
0
  6
CONTINUOUS
 62
       7
100
AcDbLine
 10
136.2957565
 20
92.95045295
 30
0.0
 11
158.29575651
 21
92.95045295
 31
0.0
  0
LINE
  5
AD
100
AcDbEntity
  8
0
  6
CONTINUOUS
 62
       7
100
AcDbLine
 10
136.2957565
 20
61.45045293
 30
0.0
 11
158.29575651
 21
61.45045293
 31
0.0
  0
LINE
  5
AE
100
AcDbEntity
  8
0
  6
CONTINUOUS
 62
       7
100
AcDbLine
 10
139.79575651
 20
73.95045293
 30
0.0
 11
154.79575651
 21
73.95045293
 31
0.0
  0
LINE
  5
AF
100
AcDbEntity
  8
0
  6
CONTINUOUS
 62
       7
100
AcDbLine
 10
139.79575651
 20
65.95045293
 30
0.0
 11
154.79575651
 21
65.95045293
 31
0.0
  0
ARC
  5
B0
100
AcDbEntity
  8
0
  6
CONTINUOUS
 62
       7
100
AcDbCircle
 10
139.79575651
 20
66.45045293
 30
0.0
 40
0.5
100
AcDbArc
 50
180.0
 51
270.0
  0
ARC
  5
B1
100
AcDbEntity
  8
0
  6
CONTINUOUS
 62
       7
100
AcDbCircle
 10
139.79575651
 20
73.45045293
 30
0.0
 40
0.5
100
AcDbArc
 50
90.0
 51
180.0
  0
LINE
  5
B2
100
AcDbEntity
  8
0
  6
CONTINUOUS
 62
       7
100
AcDbLine
 10
139.29575651
 20
73.45045293
 30
0.0
 11
139.29575651
 21
66.45045293
 31
0.0
  0
ARC
  5
B3
100
AcDbEntity
  8
0
  6
CONTINUOUS
 62
       7
100
AcDbCircle
 10
136.2957565
 20
61.95045293
 30
0.0
 40
0.5
100
AcDbArc
 50
180.0
 51
270.0
  0
ARC
  5
B4
100
AcDbEntity
  8
0
  6
CONTINUOUS
 62
       7
100
AcDbCircle
 10
136.2957565
 20
92.45045295
 30
0.0
 40
0.5
100
AcDbArc
 50
90.0
 51
180.0
  0
LINE
  5
B5
100
AcDbEntity
  8
0
  6
CONTINUOUS
 62
       7
100
AcDbLine
 10
135.7957565
 20
92.45045295
 30
0.0
 11
135.7957565
 21
61.95045293
 31
0.0
  0
CIRCLE
  5
B6
100
AcDbEntity
  8
0
  6
CONTINUOUS
 62
       7
100
AcDbCircle
 10
145.29575651
 20
83.95045295
 30
0.0
 40
0.4
  0
LINE
  5
B7
100
AcDbEntity
  8
0
  6
CONTINUOUS
 62
       2
100
AcDbLine
 10
145.29575651
 20
88.45045295
 30
0.0
 11
145.29575651
 21
79.45045295
 31
0.0
  0
ARC
  5
B8
100
AcDbEntity
  8
0
  6
CONTINUOUS
 62
       7
100
AcDbCircle
 10
145.29575651
 20
83.95045295
 30
0.0
 40
3.5
100
AcDbArc
 50
90.0
 51
270.0
  0
ARC
  5
B9
100
AcDbEntity
  8
0
  6
CONTINUOUS
 62
       7
100
AcDbCircle
 10
136.7957565
 20
62.45045293
 30
0.0
 40
0.5
100
AcDbArc
 50
180.0
 51
270.0
  0
ARC
  5
BA
100
AcDbEntity
  8
0
  6
CONTINUOUS
 62
       7
100
AcDbCircle
 10
136.7957565
 20
91.95045295
 30
0.0
 40
0.5
100
AcDbArc
 50
90.0
 51
180.0
  0
LINE
  5
BB
100
AcDbEntity
  8
0
  6
CONTINUOUS
 62
       7
100
AcDbLine
 10
136.2957565
 20
91.95045295
 30
0.0
 11
136.2957565
 21
62.45045293
 31
0.0
  0
LINE
  5
BC
100
AcDbEntity
  8
0
  6
CONTINUOUS
 62
       7
100
AcDbLine
 10
158.29575651
 20
91.95045295
 30
0.0
 11
158.29575651
 21
62.45045293
 31
0.0
  0
CIRCLE
  5
BD
100
AcDbEntity
  8
0
  6
CONTINUOUS
 62
       7
100
AcDbCircle
 10
149.29575651
 20
83.95045295
 30
0.0
 40
1.2
  0
LINE
  5
BE
100
AcDbEntity
  8
0
  6
CONTINUOUS
 62
       7
100
AcDbLine
 10
158.79575651
 20
92.45045295
 30
0.0
 11
158.79575651
 21
61.95045293
 31
0.0
  0
ARC
  5
BF
100
AcDbEntity
  8
0
  6
CONTINUOUS
 62
       7
100
AcDbCircle
 10
158.29575651
 20
92.45045295
 30
0.0
 40
0.5
100
AcDbArc
 50
0.0
 51
90.0
  0
ARC
  5
C0
100
AcDbEntity
  8
0
  6
CONTINUOUS
 62
       7
100
AcDbCircle
 10
149.29575651
 20
83.95045295
 30
0.0
 40
3.5
100
AcDbArc
 50
270.0
 51
90.0
  0
CIRCLE
  5
C1
100
AcDbEntity
  8
0
  6
CONTINUOUS
 62
       7
100
AcDbCircle
 10
149.29575651
 20
83.95045295
 30
0.0
 40
0.4
  0
LINE
  5
C2
100
AcDbEntity
  8
0
  6
CONTINUOUS
 62
       2
100
AcDbLine
 10
149.29575651
 20
88.45045295
 30
0.0
 11
149.29575651
 21
79.45045295
 31
0.0
  0
ARC
  5
C3
100
AcDbEntity
  8
0
  6
CONTINUOUS
 62
       7
100
AcDbCircle
 10
157.79575651
 20
91.95045295
 30
0.0
 40
0.5
100
AcDbArc
 50
0.0
 51
90.0
  0
LINE
  5
C4
100
AcDbEntity
  8
0
  6
CONTINUOUS
 62
       7
100
AcDbLine
 10
155.29575651
 20
73.45045293
 30
0.0
 11
155.29575651
 21
66.45045293
 31
0.0
  0
ARC
  5
C5
100
AcDbEntity
  8
0
  6
CONTINUOUS
 62
       7
100
AcDbCircle
 10
154.79575651
 20
73.45045293
 30
0.0
 40
0.5
100
AcDbArc
 50
0.0
 51
90.0
  0
ARC
  5
C6
100
AcDbEntity
  8
0
  6
CONTINUOUS
 62
       7
100
AcDbCircle
 10
154.79575651
 20
66.45045293
 30
0.0
 40
0.5
100
AcDbArc
 50
270.0
 51
0.0
  0
ARC
  5
C7
100
AcDbEntity
  8
0
  6
CONTINUOUS
 62
       7
100
AcDbCircle
 10
158.29575651
 20
61.95045293
 30
0.0
 40
0.5
100
AcDbArc
 50
270.0
 51
0.0
  0
ARC
  5
C8
100
AcDbEntity
  8
0
  6
CONTINUOUS
 62
       7
100
AcDbCircle
 10
157.79575651
 20
62.45045293
 30
0.0
 40
0.5
100
AcDbArc
 50
270.0
 51
0.0
  0
ARC
  5
C9
100
AcDbEntity
  8
0
  6
CONTINUOUS
 62
       7
100
AcDbCircle
 10
135.24637787
 20
21.43698694
 30
0.0
 40
3.01347376
100
AcDbArc
 50
90.13025467
 51
179.86974533
  0
ARC
  5
CA
100
AcDbEntity
  8
0
  6
CONTINUOUS
 62
       7
100
AcDbCircle
 10
131.24400448
 20
21.43550144
 30
0.0
 40
0.98894256
100
AcDbArc
 50
269.51702226
 51
0.48297774
  0
ARC
  5
CB
100
AcDbEntity
  8
0
  6
CONTINUOUS
 62
       7
100
AcDbCircle
 10
131.2440045
 20
21.43550142
 30
0.0
 40
2.99829056
100
AcDbArc
 50
269.84069816
 51
0.15930184
  0
ARC
  5
CC
100
AcDbEntity
  8
0
  6
CONTINUOUS
 62
       7
100
AcDbCircle
 10
135.2463784
 20
21.43698641
 30
0.0
 40
1.00411831
100
AcDbArc
 50
90.39094202
 51
179.60905798
  0
LINE
  5
CD
100
AcDbEntity
  8
0
  6
CONTINUOUS
 62
       7
100
AcDbLine
 10
123.29575651
 20
18.45045291
 30
0.0
 11
131.52548565
 21
18.45045291
 31
0.0
  0
LINE
  5
CE
100
AcDbEntity
  8
0
  6
CONTINUOUS
 62
       7
100
AcDbLine
 10
123.29575651
 20
20.45045291
 30
0.0
 11
131.52548565
 21
20.45045291
 31
0.0
  0
LINE
  5
CF
100
AcDbEntity
  8
0
  6
CONTINUOUS
 62
       7
100
AcDbLine
 10
171.29575651
 20
18.45045291
 30
0.0
 11
163.06602736
 21
18.45045291
 31
0.0
  0
LINE
  5
D0
100
AcDbEntity
  8
0
  6
CONTINUOUS
 62
       7
100
AcDbLine
 10
171.29575651
 20
20.45045291
 30
0.0
 11
163.06602736
 21
20.45045291
 31
0.0
  0
ARC
  5
D1
100
AcDbEntity
  8
0
  6
CONTINUOUS
 62
       7
100
AcDbCircle
 10
159.34513514
 20
21.43698694
 30
0.0
 40
3.01347376
100
AcDbArc
 50
0.13025467
 51
89.86974533
  0
ARC
  5
D2
100
AcDbEntity
  8
0
  6
CONTINUOUS
 62
       7
100
AcDbCircle
 10
159.34513461
 20
21.43698641
 30
0.0
 40
1.00411831
100
AcDbArc
 50
0.39094202
 51
89.60905798
  0
ARC
  5
D3
100
AcDbEntity
  8
0
  6
CONTINUOUS
 62
       7
100
AcDbCircle
 10
163.34750852
 20
21.43550142
 30
0.0
 40
2.99829056
100
AcDbArc
 50
179.84069816
 51
270.15930184
  0
ARC
  5
D4
100
AcDbEntity
  8
0
  6
CONTINUOUS
 62
       7
100
AcDbCircle
 10
163.34750853
 20
21.43550144
 30
0.0
 40
0.98894256
100
AcDbArc
 50
179.51702226
 51
270.48297774
  0
LINE
  5
D5
100
AcDbEntity
  8
0
  6
CONTINUOUS
 62
       7
100
AcDbLine
 10
135.23952713
 20
22.45045291
 30
0.0
 11
159.35198589
 21
22.45045291
 31
0.0
  0
LINE
  5
D6
100
AcDbEntity
  8
0
  6
CONTINUOUS
 62
       7
100
AcDbLine
 10
171.29575651
 20
20.45045291
 30
0.0
 11
171.29575651
 21
18.45045291
 31
0.0
  0
LINE
  5
D7
100
AcDbEntity
  8
0
  6
CONTINUOUS
 62
       7
100
AcDbLine
 10
123.29575651
 20
20.45045291
 30
0.0
 11
123.29575651
 21
18.45045291
 31
0.0
  0
SPLINE
  5
D8
100
AcDbEntity
  8
0
  6
CONTINUOUS
 62
       7
100
AcDbSpline
210
0.0
220
0.0
230
1.0
 70
       0
 71
       3
 72
       0
 73
       0
 74
       3
 44
0.000001
 12
-0.0025278252792511
 22
0.9999968050445749
 32
0.0
 13
-0.999747527607987
 23
-0.0224695581113053
 33
0.0
 11
-12.800760831570884
 21
98.549637833698938
 31
0.0
 11
-13.040849753495678
 21
99.620034277280325
 31
0.0
 11
-15.321694511781303
 21
100.55037884973896
 31
0.0
  0
SPLINE
  5
D9
100
AcDbEntity
  8
0
  6
CONTINUOUS
 62
       7
100
AcDbSpline
210
0.0
220
0.0
230
1.0
 70
       0
 71
       3
 72
       0
 73
       0
 74
       3
 44
0.000001
 12
0.002527825279251
 22
0.9999968050445749
 32
0.0
 13
0.999747527607987
 23
-0.0224695581113047
 33
0.0
 11
-17.80261337167093
 21
98.549637833698938
 31
0.0
 11
-17.562524449746107
 21
99.620034277280325
 31
0.0
 11
-15.281679691460496
 21
100.55037884973896
 31
0.0
  0
ARC
  5
DA
100
AcDbEntity
  8
0
  6
CONTINUOUS
 62
       7
100
AcDbCircle
 10
7.70151555
 20
99.75476712
 30
0.0
 40
0.99569686
100
AcDbArc
 50
359.73042697
 51
90.26957303
  0
ARC
  5
DB
100
AcDbEntity
  8
0
  6
CONTINUOUS
 62
       7
100
AcDbCircle
 10
-17.30832858
 20
99.7559829
 30
0.0
 40
0.99448755
100
AcDbArc
 50
89.66005272
 51
180.33994728
  0
LINE
  5
DC
100
AcDbEntity
  8
0
  6
CONTINUOUS
 62
       2
100
AcDbLine
 10
11.24814618
 20
39.45601053
 30
0.0
 11
6.20627882
 21
39.45601053
 31
0.0
  0
LINE
  5
DD
100
AcDbEntity
  8
0
  6
CONTINUOUS
 62
       2
100
AcDbLine
 10
-15.84188718
 20
44.45786307
 30
0.0
 11
-20.77371378
 21
44.45786307
 31
0.0
  0
LINE
  5
DE
100
AcDbEntity
  8
0
  6
CONTINUOUS
 62
       2
100
AcDbLine
 10
11.03806837
 20
49.45971561
 30
0.0
 11
6.20627882
 21
49.45971561
 31
0.0
  0
LINE
  5
DF
100
AcDbEntity
  8
0
  6
CONTINUOUS
 62
       7
100
AcDbLine
 10
-17.80261337
 20
98.54963783
 30
0.0
 11
-17.80261337
 21
97.74934143
 31
0.0
  0
LINE
  5
E0
100
AcDbEntity
  8
0
  6
CONTINUOUS
 62
       7
100
AcDbLine
 10
-12.80076083
 20
98.54963783
 30
0.0
 11
-12.80076083
 21
97.74934143
 31
0.0
  0
LINE
  5
E1
100
AcDbEntity
  8
0
  6
CONTINUOUS
 62
       7
100
AcDbLine
 10
-17.80261337
 20
98.54963783
 30
0.0
 11
-12.80076083
 21
98.54963783
 31
0.0
  0
LINE
  5
E2
100
AcDbEntity
  8
0
  6
CONTINUOUS
 62
       7
100
AcDbLine
 10
-17.30242812
 20
100.75045295
 30
0.0
 11
7.69683088
 21
100.75045295
 31
0.0
  0
LINE
  5
E3
100
AcDbEntity
  8
0
  6
CONTINUOUS
 62
       7
100
AcDbLine
 10
-18.30279863
 20
24.45045291
 30
0.0
 11
8.69720139
 21
24.45045291
 31
0.0
  0
LINE
  5
E4
100
AcDbEntity
  8
0
  6
CONTINUOUS
 62
       2
100
AcDbLine
 10
-15.3016871
 20
102.28101983
 30
0.0
 11
-15.3016871
 21
96.80899315
 31
0.0
  0
LINE
  5
E5
100
AcDbEntity
  8
0
  6
CONTINUOUS
 62
       7
100
AcDbLine
 10
-11.80039032
 20
100.75045295
 30
0.0
 11
-11.80039032
 21
97.74934143
 31
0.0
  0
LINE
  5
E6
100
AcDbEntity
  8
0
  6
CONTINUOUS
 62
       7
100
AcDbLine
 10
-18.30279863
 20
97.74934143
 30
0.0
 11
-11.80039032
 21
97.74934143
 31
0.0
  0
LINE
  5
E7
100
AcDbEntity
  8
0
  6
CONTINUOUS
 62
       7
100
AcDbLine
 10
-18.30279863
 20
99.76188336
 30
0.0
 11
-18.30279863
 21
24.45045291
 31
0.0
  0
LINE
  5
E8
100
AcDbEntity
  8
0
  6
CONTINUOUS
 62
       7
100
AcDbLine
 10
8.69720139
 20
99.75945179
 30
0.0
 11
8.69720139
 21
24.45045291
 31
0.0
  0
LINE
  5
E9
100
AcDbEntity
  8
0
  6
CONTINUOUS
 62
       2
100
AcDbLine
 10
3.57720139
 20
49.45045291
 30
0.0
 11
12.69720139
 21
49.45045291
 31
0.0
  0
LINE
  5
EA
100
AcDbEntity
  8
0
  6
CONTINUOUS
 62
       2
100
AcDbLine
 10
12.69720139
 20
39.45045291
 30
0.0
 11
3.57720139
 21
39.45045291
 31
0.0
  0
LINE
  5
EB
100
AcDbEntity
  8
0
  6
CONTINUOUS
 62
       2
100
AcDbLine
 10
51.22164748
 20
84.18828608
 30
0.0
 11
19.82164748
 21
84.18828608
 31
0.0
  0
LINE
  5
EC
100
AcDbEntity
  8
0
  6
CONTINUOUS
 62
       7
100
AcDbLine
 10
30.20164748
 20
85.18828608
 30
0.0
 11
20.70164748
 21
85.18828608
 31
0.0
  0
LINE
  5
ED
100
AcDbEntity
  8
0
  6
CONTINUOUS
 62
       7
100
AcDbLine
 10
27.28164748
 20
83.18828608
 30
0.0
 11
20.70164748
 21
83.18828608
 31
0.0
  0
LINE
  5
EE
100
AcDbEntity
  8
0
  6
CONTINUOUS
 62
       7
100
AcDbLine
 10
8.69720138
 20
93.18828608
 30
0.0
 11
9.69757188
 21
93.18828608
 31
0.0
  0
LINE
  5
EF
100
AcDbEntity
  8
0
  6
CONTINUOUS
 62
       7
100
AcDbLine
 10
8.69720138
 20
61.68828606
 30
0.0
 11
9.69757189
 21
61.68828606
 31
0.0
  0
ARC
  5
F0
100
AcDbEntity
  8
0
  6
CONTINUOUS
 62
       7
100
AcDbCircle
 10
20.20164748
 20
81.18828608
 30
0.0
 40
0.5
100
AcDbArc
 50
270.0
 51
0.0
  0
ARC
  5
F1
100
AcDbEntity
  8
0
  6
CONTINUOUS
 62
       7
100
AcDbCircle
 10
20.20164748
 20
87.18828608
 30
0.0
 40
0.5
100
AcDbArc
 50
0.0
 51
90.0
  0
LINE
  5
F2
100
AcDbEntity
  8
0
  6
CONTINUOUS
 62
       7
100
AcDbLine
 10
19.20109178
 20
80.68828608
 30
0.0
 11
20.20164748
 21
80.68828608
 31
0.0
  0
LINE
  5
F3
100
AcDbEntity
  8
0
  6
CONTINUOUS
 62
       7
100
AcDbLine
 10
19.20109178
 20
87.68828608
 30
0.0
 11
20.20164748
 21
87.68828608
 31
0.0
  0
ARC
  5
F4
100
AcDbEntity
  8
0
  6
CONTINUOUS
 62
       7
100
AcDbCircle
 10
18.70109172
 20
62.68828606
 30
0.0
 40
0.5
100
AcDbArc
 50
270.0
 51
0.0
  0
ARC
  5
F5
100
AcDbEntity
  8
0
  6
CONTINUOUS
 62
       7
100
AcDbCircle
 10
18.70109172
 20
92.18828608
 30
0.0
 40
0.5
100
AcDbArc
 50
0.0
 51
90.0
  0
LINE
  5
F6
100
AcDbEntity
  8
0
  6
CONTINUOUS
 62
       7
100
AcDbLine
 10
9.69757188
 20
62.18828606
 30
0.0
 11
18.70109172
 21
62.18828606
 31
0.0
  0
LINE
  5
F7
100
AcDbEntity
  8
0
  6
CONTINUOUS
 62
       7
100
AcDbLine
 10
9.69757188
 20
92.68828608
 30
0.0
 11
18.70109172
 21
92.68828608
 31
0.0
  0
LINE
  5
F8
100
AcDbEntity
  8
0
  6
CONTINUOUS
 62
       7
100
AcDbLine
 10
19.20109172
 20
92.18828608
 30
0.0
 11
19.20109172
 21
62.68828606
 31
0.0
  0
LINE
  5
F9
100
AcDbEntity
  8
0
  6
CONTINUOUS
 62
       7
100
AcDbLine
 10
20.70164748
 20
87.18828608
 30
0.0
 11
20.70164748
 21
81.18828608
 31
0.0
  0
LINE
  5
FA
100
AcDbEntity
  8
0
  6
CONTINUOUS
 62
       7
100
AcDbLine
 10
9.69757189
 20
93.18828608
 30
0.0
 11
9.69757189
 21
61.68828606
 31
0.0
  0
LINE
  5
FB
100
AcDbEntity
  8
0
  6
CONTINUOUS
 62
       7
100
AcDbLine
 10
50.50164748
 20
84.68828608
 30
0.0
 11
45.50164748
 21
84.68828608
 31
0.0
  0
LINE
  5
FC
100
AcDbEntity
  8
0
  6
CONTINUOUS
 62
       7
100
AcDbLine
 10
50.50164748
 20
83.68828608
 30
0.0
 11
45.50164748
 21
83.68828608
 31
0.0
  0
LINE
  5
FD
100
AcDbEntity
  8
0
  6
CONTINUOUS
 62
       7
100
AcDbLine
 10
45.50164748
 20
83.18828608
 30
0.0
 11
45.50164748
 21
85.18828608
 31
0.0
  0
LINE
  5
FE
100
AcDbEntity
  8
0
  6
CONTINUOUS
 62
       7
100
AcDbLine
 10
45.50164748
 20
85.18828608
 30
0.0
 11
32.20164748
 21
85.18828608
 31
0.0
  0
LINE
  5
FF
100
AcDbEntity
  8
0
  6
CONTINUOUS
 62
       7
100
AcDbLine
 10
45.50164748
 20
83.18828608
 30
0.0
 11
29.28164748
 21
83.18828608
 31
0.0
  0
LINE
  5
100
100
AcDbEntity
  8
0
  6
CONTINUOUS
 62
       7
100
AcDbLine
 10
50.50164748
 20
83.68828608
 30
0.0
 11
50.50164748
 21
84.68828608
 31
0.0
  0
LINE
  5
101
100
AcDbEntity
  8
0
  6
CONTINUOUS
 62
       2
100
AcDbLine
 10
-4.80279862
 20
103.67363484
 30
0.0
 11
-4.80279862
 21
16.80641943
 31
0.0
  0
LINE
  5
102
100
AcDbEntity
  8
0
  6
CONTINUOUS
 62
       7
100
AcDbLine
 10
8.19720138
 20
24.45045291
 30
0.0
 11
8.19720138
 21
18.45045291
 31
0.0
  0
LINE
  5
103
100
AcDbEntity
  8
0
  6
CONTINUOUS
 62
       7
100
AcDbLine
 10
-17.80279862
 20
24.45045291
 30
0.0
 11
-17.80279862
 21
18.45045291
 31
0.0
  0
LINE
  5
104
100
AcDbEntity
  8
0
  6
CONTINUOUS
 62
       7
100
AcDbLine
 10
8.69720139
 20
58.45045293
 30
0.0
 11
-18.30279863
 21
58.45045293
 31
0.0
  0
LINE
  5
105
100
AcDbEntity
  8
0
  6
CONTINUOUS
 62
       7
100
AcDbLine
 10
8.69720139
 20
95.45045295
 30
0.0
 11
-18.30279863
 21
95.45045295
 31
0.0
  0
LINE
  5
106
100
AcDbEntity
  8
0
  6
CONTINUOUS
 62
       7
100
AcDbLine
 10
8.19720138
 20
18.45045291
 30
0.0
 11
-17.80279862
 21
18.45045291
 31
0.0
  0
LINE
  5
107
100
AcDbEntity
  8
0
  6
CONTINUOUS
 62
       7
100
AcDbLine
 10
8.19720138
 20
20.45045291
 30
0.0
 11
-17.80279862
 21
20.45045291
 31
0.0
  0
SPLINE
  5
108
100
AcDbEntity
  8
0
  6
CONTINUOUS
 62
       7
100
AcDbSpline
210
0.0
220
0.0
230
1.0
 70
       0
 71
       3
 72
       0
 73
       0
 74
       3
 44
0.000001
 12
0.002527825279251
 22
0.9999968050445749
 32
0.0
 13
0.999747527607987
 23
-0.0224695581113051
 33
0.0
 11
-138.8065779166659
 21
98.550452951298951
 31
0.0
 11
-138.56657791666112
 21
99.620452951320345
 31
0.0
 11
-136.28657791661553
 21
100.55045295133897
 31
0.0
  0
SPLINE
  5
109
100
AcDbEntity
  8
0
  6
CONTINUOUS
 62
       7
100
AcDbSpline
210
0.0
220
0.0
230
1.0
 70
       0
 71
       3
 72
       0
 73
       0
 74
       3
 44
0.000001
 12
-0.0025278252792511
 22
0.9999968050445749
 32
0.0
 13
-0.999747527607987
 23
-0.0224695581113049
 33
0.0
 11
-133.80657791656591
 21
98.550452951298951
 31
0.0
 11
-134.04657791657073
 21
99.620452951320345
 31
0.0
 11
-136.32657791661632
 21
100.55045295133897
 31
0.0
  0
CIRCLE
  5
10A
100
AcDbEntity
  8
0
  6
CONTINUOUS
 62
       7
100
AcDbCircle
 10
-137.80279862
 20
29.45603156
 30
0.0
 40
3.25
  0
CIRCLE
  5
10B
100
AcDbEntity
  8
0
  6
CONTINUOUS
 62
       7
100
AcDbCircle
 10
-155.80279862
 20
49.45603156
 30
0.0
 40
3.25
  0
CIRCLE
  5
10C
100
AcDbEntity
  8
0
  6
CONTINUOUS
 62
       7
100
AcDbCircle
 10
-137.80279862
 20
29.45603156
 30
0.0
 40
1.75
  0
CIRCLE
  5
10D
100
AcDbEntity
  8
0
  6
CONTINUOUS
 62
       7
100
AcDbCircle
 10
-155.80279862
 20
49.45603156
 30
0.0
 40
1.75
  0
LINE
  5
10E
100
AcDbEntity
  8
0
  6
CONTINUOUS
 62
       7
100
AcDbLine
 10
-157.80657792
 20
98.45045295
 30
0.0
 11
-152.80657792
 21
98.45045295
 31
0.0
  0
LINE
  5
10F
100
AcDbEntity
  8
0
  6
CONTINUOUS
 62
       7
100
AcDbLine
 10
-152.80657792
 20
98.45045295
 30
0.0
 11
-152.80657792
 21
95.45045295
 31
0.0
  0
LINE
  5
110
100
AcDbEntity
  8
0
  6
CONTINUOUS
 62
       7
100
AcDbLine
 10
-157.80657792
 20
98.45045295
 30
0.0
 11
-157.80657792
 21
95.45045295
 31
0.0
  0
LINE
  5
111
100
AcDbEntity
  8
0
  6
CONTINUOUS
 62
       7
100
AcDbLine
 10
-133.30657792
 20
100.75045295
 30
0.0
 11
-133.30657792
 21
24.45045295
 31
0.0
  0
LINE
  5
112
100
AcDbEntity
  8
0
  6
CONTINUOUS
 62
       7
100
AcDbLine
 10
-160.30657792
 20
100.75045295
 30
0.0
 11
-160.30657792
 21
24.45045295
 31
0.0
  0
LINE
  5
113
100
AcDbEntity
  8
0
  6
CONTINUOUS
 62
       2
100
AcDbLine
 10
-152.93657792
 20
44.45045295
 30
0.0
 11
-141.37657792
 21
44.45045295
 31
0.0
  0
LINE
  5
114
100
AcDbEntity
  8
0
  6
CONTINUOUS
 62
       2
100
AcDbLine
 10
-150.56657792
 20
49.45045295
 30
0.0
 11
-161.18657792
 21
49.45045295
 31
0.0
  0
LINE
  5
115
100
AcDbEntity
  8
0
  6
CONTINUOUS
 62
       2
100
AcDbLine
 10
-132.41657792
 20
29.45045295
 30
0.0
 11
-143.11657792
 21
29.45045295
 31
0.0
  0
LINE
  5
116
100
AcDbEntity
  8
0
  6
CONTINUOUS
 62
       2
100
AcDbLine
 10
-146.80657792
 20
102.79045295
 30
0.0
 11
-146.80657792
 21
19.45443767
 31
0.0
  0
LINE
  5
117
100
AcDbEntity
  8
0
  6
CONTINUOUS
 62
       7
100
AcDbLine
 10
-138.80657792
 20
98.55045295
 30
0.0
 11
-138.80657792
 21
97.75045295
 31
0.0
  0
LINE
  5
118
100
AcDbEntity
  8
0
  6
CONTINUOUS
 62
       7
100
AcDbLine
 10
-133.80657792
 20
98.55045295
 30
0.0
 11
-133.80657792
 21
97.75045295
 31
0.0
  0
LINE
  5
119
100
AcDbEntity
  8
0
  6
CONTINUOUS
 62
       7
100
AcDbLine
 10
-138.80657792
 20
98.55045295
 30
0.0
 11
-133.80657792
 21
98.55045295
 31
0.0
  0
LINE
  5
11A
100
AcDbEntity
  8
0
  6
CONTINUOUS
 62
       7
100
AcDbLine
 10
-139.80657792
 20
100.75045295
 30
0.0
 11
-139.80657792
 21
97.75045295
 31
0.0
  0
LINE
  5
11B
100
AcDbEntity
  8
0
  6
CONTINUOUS
 62
       7
100
AcDbLine
 10
-139.80657792
 20
97.75045295
 30
0.0
 11
-133.30657792
 21
97.75045295
 31
0.0
  0
LINE
  5
11C
100
AcDbEntity
  8
0
  6
CONTINUOUS
 62
       2
100
AcDbLine
 10
-136.30657792
 20
102.28045295
 30
0.0
 11
-136.30657792
 21
97.22045295
 31
0.0
  0
LINE
  5
11D
100
AcDbEntity
  8
0
  6
CONTINUOUS
 62
       7
100
AcDbLine
 10
-160.30657792
 20
95.45045295
 30
0.0
 11
-133.30657792
 21
95.45045295
 31
0.0
  0
LINE
  5
11E
100
AcDbEntity
  8
0
  6
CONTINUOUS
 62
       7
100
AcDbLine
 10
-160.30657792
 20
100.75045295
 30
0.0
 11
-133.30657792
 21
100.75045295
 31
0.0
  0
LINE
  5
11F
100
AcDbEntity
  8
0
  6
CONTINUOUS
 62
       7
100
AcDbLine
 10
-160.30657792
 20
24.45045295
 30
0.0
 11
-133.30657792
 21
24.45045295
 31
0.0
  0
LINE
  5
120
100
AcDbEntity
  8
0
  6
CONTINUOUS
 62
       7
100
AcDbLine
 10
-160.30657792
 20
58.45045295
 30
0.0
 11
-133.30657792
 21
58.45045295
 31
0.0
  0
CIRCLE
  5
121
100
AcDbEntity
  8
0
  6
CONTINUOUS
 62
       7
100
AcDbCircle
 10
-146.81656571
 20
44.46042243
 30
0.0
 40
4.0
  0
CIRCLE
  5
122
100
AcDbEntity
  8
0
  6
CONTINUOUS
 62
       2
100
AcDbCircle
 10
-146.81656571
 20
44.46042243
 30
0.0
 40
5.0
  0
ARC
  5
123
100
AcDbEntity
  8
0
  6
CONTINUOUS
 62
       7
100
AcDbCircle
 10
-158.85595655
 20
21.43698698
 30
0.0
 40
3.01347376
100
AcDbArc
 50
90.13025467
 51
179.86974533
  0
ARC
  5
124
100
AcDbEntity
  8
0
  6
CONTINUOUS
 62
       7
100
AcDbCircle
 10
-158.85595602
 20
21.43698645
 30
0.0
 40
1.00411831
100
AcDbArc
 50
90.39094202
 51
179.60905798
  0
LINE
  5
125
100
AcDbEntity
  8
0
  6
CONTINUOUS
 62
       7
100
AcDbLine
 10
-170.80657792
 20
20.45045295
 30
0.0
 11
-162.57684877
 21
20.45045295
 31
0.0
  0
LINE
  5
126
100
AcDbEntity
  8
0
  6
CONTINUOUS
 62
       7
100
AcDbLine
 10
-170.80657792
 20
18.45045295
 30
0.0
 11
-162.57684877
 21
18.45045295
 31
0.0
  0
ARC
  5
127
100
AcDbEntity
  8
0
  6
CONTINUOUS
 62
       7
100
AcDbCircle
 10
-162.85832993
 20
21.43550146
 30
0.0
 40
2.99829056
100
AcDbArc
 50
269.84069816
 51
0.15930184
  0
ARC
  5
128
100
AcDbEntity
  8
0
  6
CONTINUOUS
 62
       7
100
AcDbCircle
 10
-162.85832994
 20
21.43550148
 30
0.0
 40
0.98894256
100
AcDbArc
 50
269.51702226
 51
0.48297774
  0
LINE
  5
129
100
AcDbEntity
  8
0
  6
CONTINUOUS
 62
       7
100
AcDbLine
 10
-158.86280729
 20
22.45045295
 30
0.0
 11
-134.75034854
 21
22.45045295
 31
0.0
  0
LINE
  5
12A
100
AcDbEntity
  8
0
  6
CONTINUOUS
 62
       7
100
AcDbLine
 10
-122.80657792
 20
20.45045295
 30
0.0
 11
-131.03630706
 21
20.45045295
 31
0.0
  0
LINE
  5
12B
100
AcDbEntity
  8
0
  6
CONTINUOUS
 62
       7
100
AcDbLine
 10
-122.80657792
 20
18.45045295
 30
0.0
 11
-131.03630706
 21
18.45045295
 31
0.0
  0
ARC
  5
12C
100
AcDbEntity
  8
0
  6
CONTINUOUS
 62
       7
100
AcDbCircle
 10
-134.75719928
 20
21.43698698
 30
0.0
 40
3.01347376
100
AcDbArc
 50
0.13025467
 51
89.86974533
  0
ARC
  5
12D
100
AcDbEntity
  8
0
  6
CONTINUOUS
 62
       7
100
AcDbCircle
 10
-134.75719981
 20
21.43698645
 30
0.0
 40
1.00411831
100
AcDbArc
 50
0.39094202
 51
89.60905798
  0
ARC
  5
12E
100
AcDbEntity
  8
0
  6
CONTINUOUS
 62
       7
100
AcDbCircle
 10
-130.75482591
 20
21.43550146
 30
0.0
 40
2.99829056
100
AcDbArc
 50
179.84069816
 51
270.15930184
  0
ARC
  5
12F
100
AcDbEntity
  8
0
  6
CONTINUOUS
 62
       7
100
AcDbCircle
 10
-130.75482589
 20
21.43550148
 30
0.0
 40
0.98894256
100
AcDbArc
 50
179.51702226
 51
270.48297774
  0
LINE
  5
130
100
AcDbEntity
  8
0
  6
CONTINUOUS
 62
       7
100
AcDbLine
 10
-122.80657792
 20
20.45045295
 30
0.0
 11
-122.80657792
 21
18.45045295
 31
0.0
  0
LINE
  5
131
100
AcDbEntity
  8
0
  6
CONTINUOUS
 62
       7
100
AcDbLine
 10
-170.80657792
 20
20.45045295
 30
0.0
 11
-170.80657792
 21
18.45045295
 31
0.0
  0
LINE
  5
132
100
AcDbEntity
  8
0
  6
CONTINUOUS
 62
       7
100
AcDbLine
 10
282.09985352
 20
195.5
 30
0.0
 11
282.09985352
 21
-195.0
 31
0.0
  0
LINE
  5
133
100
AcDbEntity
  8
0
  6
CONTINUOUS
 62
       7
100
AcDbLine
 10
-281.25
 20
195.5
 30
0.0
 11
282.09985352
 21
195.5
 31
0.0
  0
LINE
  5
134
100
AcDbEntity
  8
0
  6
CONTINUOUS
 62
       7
100
AcDbLine
 10
-281.25
 20
195.5
 30
0.0
 11
-281.25
 21
-195.0
 31
0.0
  0
LINE
  5
135
100
AcDbEntity
  8
0
  6
CONTINUOUS
 62
       7
100
AcDbLine
 10
-281.25
 20
-195.0
 30
0.0
 11
282.09985352
 21
-195.0
 31
0.0
  0
ENDSEC
  0
SECTION
  2
OBJECTS
  0
DICTIONARY
  5
19
100
AcDbDictionary
  3
ACAD_GROUP
350
1A
  3
ACAD_MLINESTYLE
350
1B
  0
DICTIONARY
  5
1A
102
{ACAD_REACTORS
330
19
102
}
100
AcDbDictionary
  0
DICTIONARY
  5
1B
102
{ACAD_REACTORS
330
19
102
}
100
AcDbDictionary
  3
STANDARD
350
1C
  0
MLINESTYLE
  5
1C
102
{ACAD_REACTORS
330
1B
102
}
100
AcDbMlineStyle
  2
Standard
 70
       0
  3

 62
       0
 51
90.0
 52
90.0
 71
       2
 49
0.5
 62
     256
  6
ByLayer
 49
-0.5
 62
     256
  6
ByLayer
  0
ENDSEC
  0
EOF
