  0
SECTION
  2
HEADER
  0
ENDSEC
  0
SECTION
  2
TABLES
  0
TABLE
  2
LTYPE
 70
     4
  0
LTYPE
  2
CONTINUOUS
 70
    64
  3
Solid line
 72
    65
 73
     0
 40
0.000000
  0
LTYPE
  2
DASHED
 70
    64
  3
__ __ __ __ __ __ __ __ __ __ __ __ __ __ __
 72
    65
 73
     2
 40
3.500000
 49
2.000000
 49
-1.500000
  0
LTYPE
  2
CENTER
 70
    64
  3
____ _ ____ _ ____ _ ____ _ ____ _ ____ _ ____
 72
    65
 73
     4
 40
17.500000
 49
13.000000
 49
-1.500000
 49
1.500000
 49
-1.500000
  0
LTYPE
  2
PHANTOM
 70
    64
  3
_____ _ _ _____ _ _ _____ _ _ _____ _ _ ____  
 72
    65
 73
     6
 40
15.500000
 49
8.000000
 49
-1.500000
 49
1.500000
 49
-1.500000
 49
1.500000
 49
-1.500000
  0
LTYPE
  2
DASHED1
 70
    64
  3
__ __ __ __ __ __ __ __ __ __ __ __ __ __ __
 72
    65
 73
     2
 40
1.500000
 49
1.000000
 49
-0.500000
  0
LTYPE
  2
DASHED2
 70
    64
  3
__ __ __ __ __ __ __ __ __ __ __ __ __ __ __
 72
    65
 73
     2
 40
3.500000
 49
2.500000
 49
-1.000000
  0
LTYPE
  2
DASHED3
 70
    64
  3
__ __ __ __ __ __ __ __ __ __ __ __ __ __ __
 72
    65
 73
     2
 40
6.000000
 49
4.000000
 49
-2.000000
  0
LTYPE
  2
DASHED4
 70
    64
  3
__ __ __ __ __ __ __ __ __ __ __ __ __ __ __
 72
    65
 73
     2
 40
12.000000
 49
10.000000
 49
-2.000000
  0
LTYPE
  2
DASHED5
 70
    64
  3
__ __ __ __ __ __ __ __ __ __ __ __ __ __ __
 72
    65
 73
     2
 40
17.000000
 49
15.000000
 49
-2.000000
  0
LTYPE
  2
DASHED6
 70
    64
  3
__ __ __ __ __ __ __ __ __ __ __ __ __ __ __
 72
    65
 73
     2
 40
29.000000
 49
27.000000
 49
-2.000000
  0
LTYPE
  2
PHANTOM1
 70
    64
  3
_____ _ _ _____ _ _ _____ _ _ _____ _ _ ____  
 72
    65
 73
     6
 40
31.000000
 49
25.000000
 49
-1.500000
 49
1.000000
 49
-1.000000
 49
1.000000
 49
-1.500000
  0
LTYPE
  2
PHANTOM2
 70
    64
  3
_____ _ _ _____ _ _ _____ _ _ _____ _ _ ____  
 72
    65
 73
     6
 40
36.000000
 49
27.000000
 49
-1.500000
 49
2.500000
 49
-1.000000
 49
2.500000
 49
-1.500000
  0
LTYPE
  2
PHANTOM3
 70
    64
  3
_____ _ _ _____ _ _ _____ _ _ _____ _ _ ____  
 72
    65
 73
     6
 40
78.000000
 49
64.000000
 49
-2.000000
 49
4.000000
 49
-2.000000
 49
4.000000
 49
-2.000000
  0
LTYPE
  2
CENTER1
 70
    64
  3
____ _ ____ _ ____ _ ____ _ ____ _ ____ _ ____
 72
    65
 73
     4
 40
19.000000
 49
14.000000
 49
-1.000000
 49
3.000000
 49
-1.000000
  0
LTYPE
  2
CENTER2
 70
    64
  3
____ _ ____ _ ____ _ ____ _ ____ _ ____ _ ____
 72
    65
 73
     4
 40
28.500000
 49
25.000000
 49
-1.000000
 49
1.500000
 49
-1.000000
  0
LTYPE
  2
CENTER3
 70
    64
  3
____ _ ____ _ ____ _ ____ _ ____ _ ____ _ ____
 72
    65
 73
     4
 40
31.500000
 49
27.000000
 49
-1.000000
 49
2.500000
 49
-1.000000
  0
LTYPE
  2
CENTER4
 70
    64
  3
____ _ ____ _ ____ _ ____ _ ____ _ ____ _ ____
 72
    65
 73
     4
 40
50.000000
 49
45.000000
 49
-1.000000
 49
3.000000
 49
-1.000000
  0
LTYPE
  2
CENTER5
 70
    64
  3
____ _ ____ _ ____ _ ____ _ ____ _ ____ _ ____
 72
    65
 73
     4
 40
100.000000
 49
92.000000
 49
-2.000000
 49
4.000000
 49
-2.000000
  0
LTYPE
  2
SBK1
 70
    64
  3
______ _ _ _ ______ _ _ _ ______ _ _ _ _____  
 72
    65
 73
     8
 40
60.500000
 49
45.000000
 49
-2.000000
 49
2.500000
 49
-2.000000
 49
2.500000
 49
-2.000000
 49
2.500000
 49
-2.000000
  0
LTYPE
  2
SBK2
 70
    64
  3
______ _ _ _ ______ _ _ _ ______ _ _ _ _____  
 72
    65
 73
     8
 40
84.000000
 49
64.000000
 49
-2.000000
 49
4.000000
 49
-2.000000
 49
4.000000
 49
-2.000000
 49
4.000000
 49
-2.000000
  0
LTYPE
  2
STCH
 70
    64
  3
__ __ __ __ __ __ __ __ __ __ __ __ __ __ __
 72
    65
 73
     2
 40
3.000000
 49
1.000000
 49
-2.000000
  0
LTYPE
  2
MTCH
 70
    64
  3
_____ _ _ _____ _ _ _____ _ _ _____ _ _ ____  
 72
    65
 73
     6
 40
80.000000
 49
66.000000
 49
-2.000000
 49
4.000000
 49
-2.000000
 49
4.000000
 49
-2.000000
  0
ENDTAB
  0
TABLE
  2
LAYER
 70
     1
  0
LAYER
  2
0
 70
     0
 62
     7
  6
CONTINUOUS
  0
ENDTAB
  0
TABLE
  2
STYLE
 70
     1
  0
STYLE
  2
STANDARD
 70
     0
 40
0.000000
 41
1.000000
 50
0.000000
 71
     0
 42
0.200000
  3
txt
  4
BIGFONT
  0
ENDTAB
  0
TABLE
  2
VIEW
 70
     0
  0
ENDTAB
  0
ENDSEC
  0
SECTION
  2
BLOCKS
  0
ENDSEC
  0
SECTION
  2
ENTITIES
  0
LINE
  8
0
 62
     4
 10
35.861954
 20
-8.493275
 11
41.778030
 21
-8.493275
  0
LINE
  8
0
 62
     4
 10
35.861954
 20
-7.493275
 11
41.778030
 21
-7.493275
  0
LINE
  8
0
  6
CENTER
 62
     1
 10
34.319992
 20
-7.993275
 11
43.319992
 21
-7.993275
  0
LINE
  8
0
 62
     4
 10
-22.124994
 20
-8.501984
 11
-22.124994
 21
-11.001984
  0
LINE
  8
0
 62
     4
 10
-21.524994
 20
-8.501984
 11
-21.524994
 21
-10.401983
  0
LINE
  8
0
 62
     4
 10
-22.524994
 20
-7.501984
 11
-22.524994
 21
-8.501984
  0
LINE
  8
0
 62
     4
 10
-21.524994
 20
-7.501984
 11
-22.524994
 21
-7.501984
  0
LINE
  8
0
 62
     4
 10
-21.524994
 20
-8.501984
 11
-22.524994
 21
-8.501984
  0
LINE
  8
0
 62
     4
 10
-26.524994
 20
-9.601983
 11
-28.024994
 21
-9.601983
  0
LINE
  8
0
 62
     4
 10
-26.524994
 20
-6.401984
 11
-28.024994
 21
-6.401984
  0
LINE
  8
0
 62
     4
 10
-25.924995
 20
-5.001984
 11
-25.924995
 21
-11.001984
  0
LINE
  8
0
 62
     4
 10
-22.124994
 20
-5.001984
 11
-22.124994
 21
-7.501984
  0
LINE
  8
0
 62
     4
 10
-26.524994
 20
-5.601984
 11
-25.924994
 21
-5.001983
  0
LINE
  8
0
 62
     4
 10
-25.924994
 20
-11.001985
 11
-26.524994
 21
-10.401983
  0
LINE
  8
0
 62
     4
 10
-21.524994
 20
-10.401983
 11
-22.124994
 21
-11.001984
  0
LINE
  8
0
 62
     4
 10
-21.524994
 20
-5.601984
 11
-22.124994
 21
-5.001985
  0
LINE
  8
0
 62
     4
 10
-22.124994
 20
-11.001984
 11
-25.924995
 21
-11.001984
  0
LINE
  8
0
 62
     4
 10
-22.124994
 20
-5.001984
 11
-25.924995
 21
-5.001984
  0
LINE
  8
0
 62
     4
 10
-26.524994
 20
-5.601984
 11
-26.524994
 21
-10.401983
  0
LINE
  8
0
 62
     4
 10
-21.524994
 20
-5.601984
 11
-21.524994
 21
-7.501984
  0
LINE
  8
0
  6
CENTER
 62
     1
 10
-19.454994
 20
-8.001984
 11
-33.514992
 21
-8.001984
  0
LINE
  8
0
 10
-28.019989
 20
-4.500000
 11
-28.019989
 21
-24.500000
  0
LINE
  8
0
 10
-52.019989
 20
-4.500000
 11
-52.019989
 21
-24.500000
  0
LINE
  8
0
 10
-31.019989
 20
-15.309999
 11
-28.019989
 21
-15.309999
  0
LINE
  8
0
 10
-31.019989
 20
-11.679999
 11
-28.019989
 21
-11.679999
  0
LINE
  8
0
 10
-31.019989
 20
-11.679999
 11
-31.019989
 21
-15.309999
  0
LINE
  8
0
 10
-52.019989
 20
-22.000000
 11
-28.019989
 21
-22.000000
  0
LINE
  8
0
 10
-52.019989
 20
-4.500000
 11
-28.019989
 21
-4.500000
  0
LINE
  8
0
 10
-30.419998
 20
-11.679999
 11
-30.419998
 21
-15.309999
  0
LINE
  8
0
 10
-28.019989
 20
20.689987
 11
-52.019989
 21
20.689987
  0
LINE
  8
0
 10
-28.019989
 20
21.689987
 11
-28.019989
 21
-4.500000
  0
LINE
  8
0
 10
-52.019989
 20
21.689987
 11
-52.019989
 21
-4.500000
  0
LINE
  8
0
 10
-28.019989
 20
21.689987
 11
-52.019989
 21
21.689987
  0
LINE
  8
0
 10
-52.020000
 20
21.690001
 11
-51.020000
 21
23.690001
  0
LINE
  8
0
 10
-28.019997
 20
21.689995
 11
-28.769995
 21
23.189991
  0
LINE
  8
0
 10
-34.019989
 20
23.689987
 11
-34.019989
 21
21.689987
  0
LINE
  8
0
 10
-28.469986
 20
22.289993
 11
-33.569992
 21
22.289993
  0
LINE
  8
0
 10
-28.469986
 20
22.289993
 11
-28.469986
 21
21.689987
  0
LINE
  8
0
 10
-33.569992
 20
22.289993
 11
-33.569992
 21
21.689987
  0
LINE
  8
0
 10
-28.769989
 20
23.559998
 11
-28.769989
 21
22.289993
  0
LINE
  8
0
 10
-33.269989
 20
23.559998
 11
-33.269989
 21
22.289993
  0
LINE
  8
0
 10
-64.019989
 20
12.639999
 11
-60.019989
 21
12.639999
  0
LINE
  8
0
 10
-64.019989
 20
14.339999
 11
-59.569992
 21
14.339999
  0
LINE
  8
0
 10
-74.019989
 20
13.169999
 11
-64.019989
 21
13.169999
  0
LINE
  8
0
 10
-74.019989
 20
13.809999
 11
-64.019989
 21
13.809999
  0
LINE
  8
0
 10
-64.019989
 20
14.339999
 11
-64.019989
 21
12.639999
  0
LINE
  8
0
 10
-74.019989
 20
13.809999
 11
-74.019989
 21
13.169999
  0
LINE
  8
0
  6
PHANTOM
 10
-60.559990
 20
10.639997
 11
-59.029987
 21
16.339998
  0
LINE
  8
0
  6
PHANTOM
 10
-59.009987
 20
10.639996
 11
-57.479988
 21
16.339996
  0
LINE
  8
0
 10
-58.019989
 20
14.339999
 11
-54.019989
 21
14.339999
  0
LINE
  8
0
 10
-58.469986
 20
12.639999
 11
-54.019989
 21
12.639999
  0
LINE
  8
0
 10
-28.989996
 20
23.639996
 11
-29.019991
 21
23.689987
  0
LINE
  8
0
 10
-54.019989
 20
11.790000
 11
-52.019989
 21
11.790000
  0
LINE
  8
0
 10
-54.019989
 20
15.190000
 11
-54.019989
 21
11.790000
  0
LINE
  8
0
 10
-54.019989
 20
15.190000
 11
-52.019989
 21
15.190000
  0
LINE
  8
0
 10
-51.019989
 20
23.689987
 11
-32.889999
 21
23.689987
  0
LINE
  8
0
 10
-29.149994
 20
23.689987
 11
-29.019989
 21
23.689987
  0
LINE
  8
0
 10
-28.019989
 20
-24.500000
 11
-52.019989
 21
-24.500000
  0
LINE
  8
0
 10
31.319992
 20
-22.000000
 11
46.319992
 21
-22.000000
  0
LINE
  8
0
 10
46.319992
 20
-4.500000
 11
46.319992
 21
-12.469999
  0
LINE
  8
0
 10
31.319992
 20
-4.500000
 11
31.319992
 21
-12.469999
  0
LINE
  8
0
  6
CENTER
 10
35.319992
 20
-16.500000
 11
42.319992
 21
-16.500000
  0
LINE
  8
0
  6
CENTER
 10
38.819992
 20
26.129990
 11
38.819992
 21
-28.500000
  0
LINE
  8
0
 10
31.319992
 20
-4.500000
 11
46.319992
 21
-4.500000
  0
LINE
  8
0
 10
32.399990
 20
-12.579990
 11
34.239994
 21
-14.419993
  0
LINE
  8
0
 10
32.399998
 20
-14.419996
 11
34.239998
 21
-12.579996
  0
LINE
  8
0
 10
43.399994
 20
-12.579996
 11
45.239994
 21
-14.419999
  0
LINE
  8
0
 10
43.399982
 20
-14.419998
 11
45.239986
 21
-12.579996
  0
LINE
  8
0
 10
31.319992
 20
-14.530000
 11
31.319992
 21
-24.500000
  0
LINE
  8
0
 10
46.319992
 20
-14.530000
 11
46.319992
 21
-24.500000
  0
LINE
  8
0
 10
31.319992
 20
21.689987
 11
31.319992
 21
-4.500000
  0
LINE
  8
0
 10
46.319992
 20
21.689987
 11
46.319992
 21
-4.500000
  0
LINE
  8
0
 10
37.319992
 20
23.689987
 11
37.319992
 21
21.689987
  0
LINE
  8
0
 10
31.319986
 20
21.689997
 11
32.069984
 21
23.189993
  0
LINE
  8
0
 10
32.069992
 20
23.559998
 11
32.069992
 21
22.289993
  0
LINE
  8
0
 10
32.319992
 20
23.689987
 11
32.449997
 21
23.689987
  0
LINE
  8
0
 10
36.569992
 20
23.559998
 11
36.569992
 21
22.289993
  0
LINE
  8
0
 10
36.149994
 20
23.689987
 11
45.319992
 21
23.689987
  0
LINE
  8
0
 10
46.320000
 20
21.689999
 11
45.320000
 21
23.689999
  0
LINE
  8
0
 10
31.319992
 20
21.689987
 11
46.319992
 21
21.689987
  0
LINE
  8
0
 10
31.319992
 20
20.689987
 11
46.319992
 21
20.689987
  0
LINE
  8
0
 10
36.869995
 20
22.289993
 11
31.769989
 21
22.289993
  0
LINE
  8
0
 10
36.869995
 20
22.289993
 11
36.869995
 21
21.689987
  0
LINE
  8
0
 10
31.769989
 20
22.289993
 11
31.769989
 21
21.689987
  0
LINE
  8
0
 10
32.289993
 20
23.639986
 11
32.319996
 21
23.689995
  0
LINE
  8
0
 10
31.319992
 20
-24.500000
 11
46.319992
 21
-24.500000
  0
LINE
  8
0
 10
-138.399994
 20
94.500000
 11
138.350006
 21
94.500000
  0
LINE
  8
0
 10
138.350006
 20
94.500000
 11
138.350006
 21
-94.800003
  0
LINE
  8
0
 10
-138.399994
 20
-94.800003
 11
138.350006
 21
-94.800003
  0
LINE
  8
0
 10
-138.399994
 20
94.500000
 11
-138.399994
 21
-94.800003
  0
LINE
  8
0
 10
73.350006
 20
-84.800003
 11
138.350006
 21
-84.800003
  0
LINE
  8
0
 10
-138.399994
 20
84.500000
 11
-73.399994
 21
84.500000
  0
LINE
  8
0
 10
73.350006
 20
84.500000
 11
138.350006
 21
84.500000
  0
LINE
  8
0
 10
73.350006
 20
-84.800003
 11
73.350006
 21
-94.800003
  0
LINE
  8
0
 10
73.350006
 20
94.500000
 11
73.350006
 21
84.500000
  0
LINE
  8
0
 10
-73.399994
 20
94.500000
 11
-73.399994
 21
84.500000
  0
ARC
  8
0
 62
     4
 10
38.819992
 20
-7.993275
 40
2.392823
 50
192.061325
 51
347.938690
  0
CIRCLE
  8
0
 62
     4
 10
38.819992
 20
-7.993275
 40
3.000000
  0
ARC
  8
0
 62
     4
 10
38.819992
 20
-7.993275
 40
2.392823
 50
12.061309
 51
167.938675
  0
CIRCLE
  8
0
 10
38.825027
 20
-16.501984
 40
2.099999
  0
ARC
  8
0
 10
-34.724991
 20
-13.495000
 40
6.005813
 50
342.409790
 51
17.590218
  0
ARC
  8
0
 10
-31.019989
 20
17.998032
 40
5.999821
 50
67.974976
 51
112.025009
  0
ARC
  8
0
 10
-49.019989
 20
17.997986
 40
5.991308
 50
71.813004
 51
108.186913
  0
ARC
  8
0
 10
44.325012
 20
-13.495000
 40
2.697067
 50
42.295406
 51
317.704590
  0
ARC
  8
0
 10
33.325027
 20
-13.495000
 40
2.704512
 50
222.152084
 51
137.847916
  0
CIRCLE
  8
0
 10
38.825027
 20
-16.501984
 40
2.500000
  0
CIRCLE
  8
0
 10
33.325027
 20
-13.501984
 40
2.250000
  0
CIRCLE
  8
0
 10
44.325027
 20
-13.501984
 40
2.250000
  0
ARC
  8
0
 10
43.319992
 20
17.997986
 40
5.991308
 50
71.813004
 51
108.186913
  0
ARC
  8
0
 10
34.319992
 20
17.997986
 40
5.999864
 50
67.975121
 51
112.024841
  0
TEXT
  8
0
 10
-128.149994
 20
73.580002
 40
3.200000
  1
MODEL:030E1-83
 50
0.000000
 41
1.052632
 51
0.000000
  7
STANDARD
  0
TEXT
  8
0
 10
-117.306992
 20
85.620003
 40
3.200000
  1
ROCK SW
 50
0.000000
 41
1.052632
 51
0.000000
  7
STANDARD
  0
TEXT
  8
0
 10
-122.107132
 20
89.620003
 40
3.200000
  1
030 SERIES
 50
0.000000
 41
1.052632
 51
0.000000
  7
STANDARD
  0
TEXT
  8
0
 10
76.207352
 20
-92.850006
 40
4.500000
  1
KOGANEI CORP.
 50
0.000000
 41
1.052632
 51
0.000000
  7
STANDARD
  0
TEXT
  8
0
 10
92.842865
 20
87.620003
 40
3.200000
  1
VER. 1.0
 50
0.000000
 41
1.052632
 51
0.000000
  7
STANDARD
  0
ENDSEC
  0
EOF
