  0
SECTION
  2
HEADER
  0
ENDSEC
  0
SECTION
  2
TABLES
  0
TABLE
  2
LTYPE
 70
     4
  0
LTYPE
  2
CONTINUOUS
 70
    64
  3
Solid line
 72
    65
 73
     0
 40
0.000000
  0
LTYPE
  2
DASHED
 70
    64
  3
__ __ __ __ __ __ __ __ __ __ __ __ __ __ __
 72
    65
 73
     2
 40
3.500000
 49
2.000000
 49
-1.500000
  0
LTYPE
  2
CENTER
 70
    64
  3
____ _ ____ _ ____ _ ____ _ ____ _ ____ _ ____
 72
    65
 73
     4
 40
17.500000
 49
13.000000
 49
-1.500000
 49
1.500000
 49
-1.500000
  0
LTYPE
  2
PHANTOM
 70
    64
  3
_____ _ _ _____ _ _ _____ _ _ _____ _ _ ____  
 72
    65
 73
     6
 40
15.500000
 49
8.000000
 49
-1.500000
 49
1.500000
 49
-1.500000
 49
1.500000
 49
-1.500000
  0
LTYPE
  2
DASHED1
 70
    64
  3
__ __ __ __ __ __ __ __ __ __ __ __ __ __ __
 72
    65
 73
     2
 40
1.500000
 49
1.000000
 49
-0.500000
  0
LTYPE
  2
DASHED2
 70
    64
  3
__ __ __ __ __ __ __ __ __ __ __ __ __ __ __
 72
    65
 73
     2
 40
3.500000
 49
2.500000
 49
-1.000000
  0
LTYPE
  2
DASHED3
 70
    64
  3
__ __ __ __ __ __ __ __ __ __ __ __ __ __ __
 72
    65
 73
     2
 40
6.000000
 49
4.000000
 49
-2.000000
  0
LTYPE
  2
DASHED4
 70
    64
  3
__ __ __ __ __ __ __ __ __ __ __ __ __ __ __
 72
    65
 73
     2
 40
12.000000
 49
10.000000
 49
-2.000000
  0
LTYPE
  2
DASHED5
 70
    64
  3
__ __ __ __ __ __ __ __ __ __ __ __ __ __ __
 72
    65
 73
     2
 40
17.000000
 49
15.000000
 49
-2.000000
  0
LTYPE
  2
DASHED6
 70
    64
  3
__ __ __ __ __ __ __ __ __ __ __ __ __ __ __
 72
    65
 73
     2
 40
29.000000
 49
27.000000
 49
-2.000000
  0
LTYPE
  2
PHANTOM1
 70
    64
  3
_____ _ _ _____ _ _ _____ _ _ _____ _ _ ____  
 72
    65
 73
     6
 40
31.000000
 49
25.000000
 49
-1.500000
 49
1.000000
 49
-1.000000
 49
1.000000
 49
-1.500000
  0
LTYPE
  2
PHANTOM2
 70
    64
  3
_____ _ _ _____ _ _ _____ _ _ _____ _ _ ____  
 72
    65
 73
     6
 40
36.000000
 49
27.000000
 49
-1.500000
 49
2.500000
 49
-1.000000
 49
2.500000
 49
-1.500000
  0
LTYPE
  2
PHANTOM3
 70
    64
  3
_____ _ _ _____ _ _ _____ _ _ _____ _ _ ____  
 72
    65
 73
     6
 40
78.000000
 49
64.000000
 49
-2.000000
 49
4.000000
 49
-2.000000
 49
4.000000
 49
-2.000000
  0
LTYPE
  2
CENTER1
 70
    64
  3
____ _ ____ _ ____ _ ____ _ ____ _ ____ _ ____
 72
    65
 73
     4
 40
19.000000
 49
14.000000
 49
-1.000000
 49
3.000000
 49
-1.000000
  0
LTYPE
  2
CENTER2
 70
    64
  3
____ _ ____ _ ____ _ ____ _ ____ _ ____ _ ____
 72
    65
 73
     4
 40
28.500000
 49
25.000000
 49
-1.000000
 49
1.500000
 49
-1.000000
  0
LTYPE
  2
CENTER3
 70
    64
  3
____ _ ____ _ ____ _ ____ _ ____ _ ____ _ ____
 72
    65
 73
     4
 40
31.500000
 49
27.000000
 49
-1.000000
 49
2.500000
 49
-1.000000
  0
LTYPE
  2
CENTER4
 70
    64
  3
____ _ ____ _ ____ _ ____ _ ____ _ ____ _ ____
 72
    65
 73
     4
 40
50.000000
 49
45.000000
 49
-1.000000
 49
3.000000
 49
-1.000000
  0
LTYPE
  2
CENTER5
 70
    64
  3
____ _ ____ _ ____ _ ____ _ ____ _ ____ _ ____
 72
    65
 73
     4
 40
100.000000
 49
92.000000
 49
-2.000000
 49
4.000000
 49
-2.000000
  0
LTYPE
  2
SBK1
 70
    64
  3
______ _ _ _ ______ _ _ _ ______ _ _ _ _____  
 72
    65
 73
     8
 40
60.500000
 49
45.000000
 49
-2.000000
 49
2.500000
 49
-2.000000
 49
2.500000
 49
-2.000000
 49
2.500000
 49
-2.000000
  0
LTYPE
  2
SBK2
 70
    64
  3
______ _ _ _ ______ _ _ _ ______ _ _ _ _____  
 72
    65
 73
     8
 40
84.000000
 49
64.000000
 49
-2.000000
 49
4.000000
 49
-2.000000
 49
4.000000
 49
-2.000000
 49
4.000000
 49
-2.000000
  0
LTYPE
  2
STCH
 70
    64
  3
__ __ __ __ __ __ __ __ __ __ __ __ __ __ __
 72
    65
 73
     2
 40
3.000000
 49
1.000000
 49
-2.000000
  0
LTYPE
  2
MTCH
 70
    64
  3
_____ _ _ _____ _ _ _____ _ _ _____ _ _ ____  
 72
    65
 73
     6
 40
80.000000
 49
66.000000
 49
-2.000000
 49
4.000000
 49
-2.000000
 49
4.000000
 49
-2.000000
  0
ENDTAB
  0
TABLE
  2
LAYER
 70
     1
  0
LAYER
  2
0
 70
     0
 62
     7
  6
CONTINUOUS
  0
ENDTAB
  0
TABLE
  2
STYLE
 70
     1
  0
STYLE
  2
STANDARD
 70
     0
 40
0.000000
 41
1.000000
 50
0.000000
 71
     0
 42
0.200000
  3
txt
  4
BIGFONT
  0
ENDTAB
  0
TABLE
  2
VIEW
 70
     0
  0
ENDTAB
  0
ENDSEC
  0
SECTION
  2
BLOCKS
  0
ENDSEC
  0
SECTION
  2
ENTITIES
  0
LINE
  8
0
 62
     4
 10
0.750000
 20
43.912460
 11
3.250000
 21
43.912460
  0
LINE
  8
0
 62
     4
 10
0.750000
 20
40.912460
 11
3.250000
 21
40.912460
  0
LINE
  8
0
  6
CENTER
 62
     2
 10
0.000000
 20
10.912460
 11
4.000000
 21
10.912460
  0
LINE
  8
0
  6
PHANTOM
 62
     2
 10
0.000000
 20
19.812454
 11
4.000000
 21
19.812454
  0
LINE
  8
0
  6
CENTER
 62
     1
 10
5.303955
 20
49.063126
 11
5.303955
 21
46.542740
  0
LINE
  8
0
  6
CENTER
 62
     1
 10
-1.303970
 20
49.063126
 11
-1.303970
 21
46.428177
  0
LINE
  8
0
 62
     4
 10
-0.403961
 20
48.312454
 11
-2.203964
 21
48.312454
  0
LINE
  8
0
 62
     4
 10
3.303970
 20
47.912460
 11
3.303970
 21
47.712463
  0
LINE
  8
0
 62
     4
 10
3.303955
 20
47.712463
 11
6.903961
 21
47.712463
  0
LINE
  8
0
 62
     4
 10
4.403961
 20
48.312454
 11
6.203964
 21
48.312454
  0
LINE
  8
0
 10
-3.000000
 20
27.412460
 11
7.000000
 21
27.412460
  0
LINE
  8
0
 62
     4
 10
-2.270004
 20
28.624863
 11
6.270004
 21
28.624863
  0
LINE
  8
0
 62
     4
 10
-2.770004
 20
45.412460
 11
-2.770004
 21
29.124863
  0
LINE
  8
0
 62
     4
 10
6.770004
 20
45.412460
 11
6.770004
 21
29.124863
  0
LINE
  8
0
 62
     4
 10
-2.500000
 20
45.912460
 11
6.500000
 21
45.912460
  0
LINE
  8
0
 62
     4
 10
-2.500000
 20
47.912460
 11
3.838272
 21
47.912460
  0
LINE
  8
0
 62
     4
 10
-3.000000
 20
46.912460
 11
7.000000
 21
46.912460
  0
LINE
  8
0
 62
     4
 10
-3.000000
 20
47.412460
 11
-3.000000
 21
27.412460
  0
LINE
  8
0
 62
     4
 10
7.000000
 20
47.412460
 11
7.000000
 21
27.412460
  0
LINE
  8
0
 10
27.599991
 20
33.412460
 11
27.399994
 21
33.412460
  0
LINE
  8
0
  6
CENTER
 62
     1
 10
48.212891
 20
22.412460
 11
44.384552
 21
22.412460
  0
LINE
  8
0
  6
CENTER
 62
     1
 10
46.299988
 20
24.418337
 11
46.299988
 21
20.470356
  0
LINE
  8
0
  6
CENTER
 62
     1
 10
39.300003
 20
24.346556
 11
39.300003
 21
20.589993
  0
LINE
  8
0
  6
PHANTOM
 62
     2
 10
8.000000
 20
22.412460
 11
3.000000
 21
22.412460
  0
LINE
  8
0
  6
CENTER
 62
     2
 10
-4.000000
 20
19.912460
 11
-9.000000
 21
19.912460
  0
LINE
  8
0
  6
CENTER
 62
     2
 10
-6.500000
 20
22.412460
 11
-6.500000
 21
17.412460
  0
LINE
  8
0
  6
CENTER
 62
     2
 10
51.299988
 20
22.412460
 11
51.299988
 21
17.412460
  0
LINE
  8
0
  6
CENTER
 62
     2
 10
48.799988
 20
19.912460
 11
53.799988
 21
19.912460
  0
LINE
  8
0
 10
-10.000000
 20
4.412460
 11
54.799988
 21
4.412460
  0
LINE
  8
0
 62
     4
 10
37.800003
 20
32.412460
 11
47.800003
 21
32.412460
  0
LINE
  8
0
 62
     4
 10
37.800003
 20
7.412460
 11
47.800003
 21
7.412460
  0
LINE
  8
0
 62
     4
 10
37.800003
 20
32.412460
 11
37.800003
 21
7.412460
  0
LINE
  8
0
 62
     4
 10
47.800003
 20
32.412460
 11
47.800003
 21
7.412460
  0
LINE
  8
0
  6
CENTER
 62
     2
 10
42.800003
 20
35.756332
 11
42.800003
 21
2.409561
  0
LINE
  8
0
  6
CENTER
 62
     2
 10
2.000000
 20
51.133530
 11
2.000000
 21
2.354614
  0
LINE
  8
0
 10
1.199982
 20
5.412460
 11
1.199982
 21
4.412460
  0
LINE
  8
0
  6
CENTER
 62
     2
 10
-1.300018
 20
6.873138
 11
-1.300018
 21
3.809189
  0
LINE
  8
0
 10
1.199982
 20
5.412460
 11
-3.000015
 21
5.412460
  0
LINE
  8
0
  6
CENTER
 62
     2
 10
5.499985
 20
24.912460
 11
5.499985
 21
19.912460
  0
LINE
  8
0
  6
CENTER
 62
     2
 10
-1.500000
 20
24.912460
 11
-1.500000
 21
19.912460
  0
LINE
  8
0
  6
CENTER
 62
     2
 10
-4.000000
 20
22.412460
 11
1.000000
 21
22.412460
  0
LINE
  8
0
  6
CENTER
 62
     2
 10
-1.000000
 20
25.112457
 11
4.999985
 21
25.112457
  0
LINE
  8
0
 10
0.000065
 20
23.957886
 11
2.000066
 21
22.803185
  0
LINE
  8
0
 10
2.000016
 20
27.421995
 11
4.000018
 21
26.267294
  0
LINE
  8
0
 10
2.000049
 20
22.802975
 11
4.000036
 21
23.957666
  0
LINE
  8
0
 10
0.000051
 20
26.267132
 11
2.000039
 21
27.421825
  0
LINE
  8
0
 10
3.999985
 20
26.267166
 11
3.999985
 21
23.957764
  0
LINE
  8
0
 10
0.000000
 20
26.267166
 11
0.000000
 21
23.957764
  0
LINE
  8
0
 10
-3.000000
 20
7.412460
 11
6.999985
 21
7.412460
  0
LINE
  8
0
 10
-3.000000
 20
27.412460
 11
-3.000000
 21
4.412460
  0
LINE
  8
0
 10
6.999985
 20
27.412460
 11
6.999985
 21
4.412460
  0
LINE
  8
0
 10
54.799988
 20
33.412460
 11
37.599991
 21
33.412460
  0
LINE
  8
0
 10
54.799988
 20
33.412460
 11
54.799988
 21
4.412460
  0
LINE
  8
0
 10
-10.000000
 20
33.412460
 11
-10.000000
 21
4.412460
  0
LINE
  8
0
 10
-2.207107
 20
23.119568
 11
-0.792894
 21
21.705355
  0
LINE
  8
0
 10
-0.792893
 20
23.119566
 11
-2.207107
 21
21.705351
  0
LINE
  8
0
 10
4.792878
 20
23.119568
 11
6.207091
 21
21.705355
  0
LINE
  8
0
 10
6.207091
 20
23.119566
 11
4.792877
 21
21.705353
  0
LINE
  8
0
  6
CENTER
 62
     1
 10
41.226166
 20
22.412460
 11
37.801651
 21
22.412460
  0
LINE
  8
0
 62
     4
 10
38.592892
 20
23.119572
 11
40.007107
 21
21.705359
  0
LINE
  8
0
 62
     4
 10
40.007118
 20
23.119560
 11
38.592903
 21
21.705347
  0
LINE
  8
0
 62
     4
 10
45.592880
 20
23.119572
 11
47.007092
 21
21.705357
  0
LINE
  8
0
 62
     4
 10
47.007092
 20
23.119572
 11
45.592880
 21
21.705360
  0
LINE
  8
0
  6
CENTER
 62
     2
 10
12.199997
 20
51.133530
 11
12.199997
 21
2.354614
  0
LINE
  8
0
  6
CENTER
 62
     2
 10
6.200000
 20
22.412460
 11
11.199997
 21
22.412460
  0
LINE
  8
0
 10
16.407084
 20
23.119560
 11
14.992869
 21
21.705347
  0
LINE
  8
0
 10
14.992869
 20
23.119560
 11
16.407084
 21
21.705347
  0
LINE
  8
0
 10
9.407105
 20
23.119568
 11
7.992893
 21
21.705353
  0
LINE
  8
0
 10
7.992893
 20
23.119568
 11
9.407106
 21
21.705355
  0
LINE
  8
0
 10
17.199982
 20
27.412460
 11
17.199982
 21
4.412460
  0
LINE
  8
0
 10
7.200000
 20
27.412460
 11
7.200000
 21
4.412460
  0
LINE
  8
0
 10
7.200000
 20
7.412460
 11
17.199982
 21
7.412460
  0
LINE
  8
0
 10
10.199997
 20
26.267166
 11
10.199997
 21
23.957764
  0
LINE
  8
0
 10
14.199982
 20
26.267166
 11
14.199982
 21
23.957764
  0
LINE
  8
0
 10
10.200046
 20
26.267130
 11
12.200034
 21
27.421824
  0
LINE
  8
0
 10
12.200043
 20
22.802973
 11
14.200030
 21
23.957664
  0
LINE
  8
0
 10
12.200017
 20
27.421997
 11
14.200018
 21
26.267298
  0
LINE
  8
0
 10
10.200065
 20
23.957886
 11
12.200066
 21
22.803185
  0
LINE
  8
0
  6
CENTER
 62
     2
 10
9.200000
 20
25.112457
 11
15.199982
 21
25.112457
  0
LINE
  8
0
  6
CENTER
 62
     2
 10
8.700000
 20
24.912460
 11
8.700000
 21
19.912460
  0
LINE
  8
0
  6
CENTER
 62
     2
 10
15.699982
 20
24.912460
 11
15.699982
 21
19.912460
  0
LINE
  8
0
 10
11.399979
 20
5.412460
 11
7.199985
 21
5.412460
  0
LINE
  8
0
  6
CENTER
 62
     2
 10
8.899981
 20
6.873138
 11
8.899981
 21
3.809189
  0
LINE
  8
0
 10
11.399979
 20
5.412460
 11
11.399979
 21
4.412460
  0
LINE
  8
0
 62
     4
 10
17.199997
 20
47.412460
 11
17.199997
 21
27.412460
  0
LINE
  8
0
 62
     4
 10
7.200000
 20
47.412460
 11
7.200000
 21
27.412460
  0
LINE
  8
0
 62
     4
 10
7.200000
 20
46.912460
 11
17.199997
 21
46.912460
  0
LINE
  8
0
 62
     4
 10
7.700000
 20
47.912460
 11
14.038269
 21
47.912460
  0
LINE
  8
0
 62
     4
 10
7.700000
 20
45.912460
 11
16.699997
 21
45.912460
  0
LINE
  8
0
 62
     4
 10
16.970001
 20
45.412460
 11
16.970001
 21
29.124863
  0
LINE
  8
0
 62
     4
 10
7.429996
 20
45.412460
 11
7.429996
 21
29.124863
  0
LINE
  8
0
 62
     4
 10
7.929996
 20
28.624863
 11
16.470001
 21
28.624863
  0
LINE
  8
0
 10
7.200000
 20
27.412460
 11
17.199997
 21
27.412460
  0
LINE
  8
0
 62
     4
 10
14.603958
 20
48.312454
 11
16.403961
 21
48.312454
  0
LINE
  8
0
 62
     4
 10
13.503952
 20
47.712463
 11
17.103958
 21
47.712463
  0
LINE
  8
0
 62
     4
 10
13.503967
 20
47.912460
 11
13.503967
 21
47.712463
  0
LINE
  8
0
 62
     4
 10
9.796036
 20
48.312454
 11
7.996036
 21
48.312454
  0
LINE
  8
0
  6
CENTER
 62
     1
 10
8.896029
 20
49.063126
 11
8.896029
 21
46.428177
  0
LINE
  8
0
  6
CENTER
 62
     1
 10
15.503952
 20
49.063126
 11
15.503952
 21
46.542740
  0
LINE
  8
0
  6
CENTER
 62
     2
 10
10.199997
 20
19.812454
 11
14.199997
 21
19.812454
  0
LINE
  8
0
  6
CENTER
 62
     2
 10
10.199997
 20
10.912460
 11
14.199997
 21
10.912460
  0
LINE
  8
0
 62
     4
 10
10.949997
 20
40.912460
 11
13.449997
 21
40.912460
  0
LINE
  8
0
 62
     4
 10
10.949997
 20
43.912460
 11
13.449997
 21
43.912460
  0
LINE
  8
0
  6
CENTER
 62
     2
 10
22.399994
 20
51.133530
 11
22.399994
 21
2.354614
  0
LINE
  8
0
 10
26.607079
 20
23.119572
 11
25.192865
 21
21.705359
  0
LINE
  8
0
 10
25.192865
 20
23.119572
 11
26.607079
 21
21.705359
  0
LINE
  8
0
 10
19.607094
 20
23.119572
 11
18.192879
 21
21.705359
  0
LINE
  8
0
 10
18.192888
 20
23.119562
 11
19.607094
 21
21.705357
  0
LINE
  8
0
 10
27.399979
 20
27.412460
 11
27.399979
 21
4.412460
  0
LINE
  8
0
 10
17.399994
 20
27.412460
 11
17.399994
 21
4.412460
  0
LINE
  8
0
 10
17.399994
 20
7.412460
 11
27.399979
 21
7.412460
  0
LINE
  8
0
 10
20.399994
 20
26.267166
 11
20.399994
 21
23.957764
  0
LINE
  8
0
 10
24.399979
 20
26.267166
 11
24.399979
 21
23.957764
  0
LINE
  8
0
 10
20.400051
 20
26.267132
 11
22.400038
 21
27.421824
  0
LINE
  8
0
 10
22.400047
 20
22.802975
 11
24.400034
 21
23.957666
  0
LINE
  8
0
 10
22.400007
 20
27.421991
 11
24.400007
 21
26.267290
  0
LINE
  8
0
 10
20.400055
 20
23.957880
 11
22.400055
 21
22.803179
  0
LINE
  8
0
  6
CENTER
 62
     2
 10
19.399994
 20
25.112457
 11
25.399979
 21
25.112457
  0
LINE
  8
0
  6
CENTER
 62
     2
 10
18.899994
 20
24.912460
 11
18.899994
 21
19.912460
  0
LINE
  8
0
  6
PHANTOM
 62
     2
 10
25.899979
 20
24.912460
 11
25.899979
 21
19.912460
  0
LINE
  8
0
 10
21.599976
 20
5.412460
 11
17.399979
 21
5.412460
  0
LINE
  8
0
  6
CENTER
 62
     2
 10
19.099976
 20
6.873138
 11
19.099976
 21
3.809189
  0
LINE
  8
0
 10
21.599976
 20
5.412460
 11
21.599976
 21
4.412460
  0
LINE
  8
0
 62
     4
 10
27.399994
 20
47.412460
 11
27.399994
 21
27.412460
  0
LINE
  8
0
 62
     4
 10
17.399994
 20
47.412460
 11
17.399994
 21
27.412460
  0
LINE
  8
0
 62
     4
 10
17.399994
 20
46.912460
 11
27.399994
 21
46.912460
  0
LINE
  8
0
 62
     4
 10
17.899994
 20
47.912460
 11
24.238266
 21
47.912460
  0
LINE
  8
0
 62
     4
 10
17.899994
 20
45.912460
 11
26.899994
 21
45.912460
  0
LINE
  8
0
 62
     4
 10
27.169998
 20
45.412460
 11
27.169998
 21
29.124863
  0
LINE
  8
0
 62
     4
 10
17.629990
 20
45.412460
 11
17.629990
 21
29.124863
  0
LINE
  8
0
 62
     4
 10
18.129990
 20
28.624863
 11
26.669998
 21
28.624863
  0
LINE
  8
0
 10
17.399994
 20
27.412460
 11
27.399994
 21
27.412460
  0
LINE
  8
0
 62
     4
 10
24.803955
 20
48.312454
 11
26.603958
 21
48.312454
  0
LINE
  8
0
 62
     4
 10
23.703949
 20
47.712463
 11
27.303955
 21
47.712463
  0
LINE
  8
0
 62
     4
 10
23.703964
 20
47.912460
 11
23.703964
 21
47.712463
  0
LINE
  8
0
 62
     4
 10
19.996033
 20
48.312454
 11
18.196030
 21
48.312454
  0
LINE
  8
0
  6
CENTER
 62
     1
 10
19.096024
 20
49.063126
 11
19.096024
 21
46.428177
  0
LINE
  8
0
  6
CENTER
 62
     1
 10
25.703949
 20
49.063126
 11
25.703949
 21
46.542740
  0
LINE
  8
0
  6
CENTER
 62
     2
 10
20.399994
 20
19.812454
 11
24.399994
 21
19.812454
  0
LINE
  8
0
  6
CENTER
 62
     2
 10
20.399994
 20
10.912460
 11
24.399994
 21
10.912460
  0
LINE
  8
0
 62
     4
 10
21.149994
 20
40.912460
 11
23.649994
 21
40.912460
  0
LINE
  8
0
 62
     4
 10
21.149994
 20
43.912460
 11
23.649994
 21
43.912460
  0
LINE
  8
0
  6
CENTER
 62
     2
 10
32.599991
 20
51.133530
 11
32.599991
 21
2.354614
  0
LINE
  8
0
 10
36.807076
 20
23.119562
 11
35.392860
 21
21.705349
  0
LINE
  8
0
 10
35.392872
 20
23.119570
 11
36.807087
 21
21.705357
  0
LINE
  8
0
 10
29.807098
 20
23.119572
 11
28.392885
 21
21.705359
  0
LINE
  8
0
 10
28.392887
 20
23.119572
 11
29.807100
 21
21.705359
  0
LINE
  8
0
 10
37.599976
 20
27.412460
 11
37.599976
 21
4.412460
  0
LINE
  8
0
 10
27.599991
 20
27.412460
 11
27.599991
 21
4.412460
  0
LINE
  8
0
 10
27.599991
 20
7.412460
 11
37.599976
 21
7.412460
  0
LINE
  8
0
 10
30.599991
 20
26.267166
 11
30.599991
 21
23.957764
  0
LINE
  8
0
 10
34.599976
 20
26.267166
 11
34.599976
 21
23.957764
  0
LINE
  8
0
 10
30.600044
 20
26.267128
 11
32.600033
 21
27.421822
  0
LINE
  8
0
 10
32.600037
 20
22.802979
 11
34.600025
 21
23.957670
  0
LINE
  8
0
 10
32.600002
 20
27.422001
 11
34.600002
 21
26.267302
  0
LINE
  8
0
 10
30.600052
 20
23.957891
 11
32.600052
 21
22.803190
  0
LINE
  8
0
  6
CENTER
 62
     2
 10
29.599991
 20
25.112457
 11
35.599976
 21
25.112457
  0
LINE
  8
0
  6
PHANTOM
 62
     2
 10
29.099991
 20
24.912460
 11
29.099991
 21
19.912460
  0
LINE
  8
0
  6
CENTER
 62
     2
 10
36.099976
 20
24.912460
 11
36.099976
 21
19.912460
  0
LINE
  8
0
 10
31.799973
 20
5.412460
 11
27.599976
 21
5.412460
  0
LINE
  8
0
  6
CENTER
 62
     2
 10
29.299973
 20
6.873138
 11
29.299973
 21
3.809189
  0
LINE
  8
0
 10
31.799973
 20
5.412460
 11
31.799973
 21
4.412460
  0
LINE
  8
0
  6
PHANTOM
 62
     2
 10
37.698624
 20
22.412460
 11
33.599991
 21
22.412460
  0
LINE
  8
0
 62
     4
 10
37.599991
 20
47.412460
 11
37.599991
 21
27.412460
  0
LINE
  8
0
 62
     4
 10
27.599991
 20
47.412460
 11
27.599991
 21
27.412460
  0
LINE
  8
0
 62
     4
 10
27.599991
 20
46.912460
 11
37.599991
 21
46.912460
  0
LINE
  8
0
 62
     4
 10
28.099991
 20
47.912460
 11
34.438263
 21
47.912460
  0
LINE
  8
0
 62
     4
 10
28.099991
 20
45.912460
 11
37.099991
 21
45.912460
  0
LINE
  8
0
 62
     4
 10
37.369995
 20
45.412460
 11
37.369995
 21
29.124863
  0
LINE
  8
0
 62
     4
 10
27.829987
 20
45.412460
 11
27.829987
 21
29.124863
  0
LINE
  8
0
 62
     4
 10
28.329987
 20
28.624863
 11
36.869995
 21
28.624863
  0
LINE
  8
0
 10
27.599991
 20
27.412460
 11
37.599991
 21
27.412460
  0
LINE
  8
0
 62
     4
 10
35.003952
 20
48.312454
 11
36.803955
 21
48.312454
  0
LINE
  8
0
 62
     4
 10
33.903946
 20
47.712463
 11
37.503952
 21
47.712463
  0
LINE
  8
0
 62
     4
 10
33.903961
 20
47.912460
 11
33.903961
 21
47.712463
  0
LINE
  8
0
 62
     4
 10
30.196030
 20
48.312454
 11
28.396027
 21
48.312454
  0
LINE
  8
0
  6
CENTER
 62
     1
 10
29.296021
 20
49.063126
 11
29.296021
 21
46.428177
  0
LINE
  8
0
  6
CENTER
 62
     1
 10
35.903946
 20
49.063126
 11
35.903946
 21
46.542740
  0
LINE
  8
0
  6
CENTER
 62
     2
 10
30.599991
 20
19.812454
 11
34.599991
 21
19.812454
  0
LINE
  8
0
  6
CENTER
 62
     2
 10
30.599991
 20
10.912460
 11
34.599991
 21
10.912460
  0
LINE
  8
0
 62
     4
 10
31.349991
 20
40.912460
 11
33.849991
 21
40.912460
  0
LINE
  8
0
 62
     4
 10
31.349991
 20
43.912460
 11
33.849991
 21
43.912460
  0
LINE
  8
0
 10
17.399994
 20
33.412460
 11
17.199997
 21
33.412460
  0
LINE
  8
0
 10
-3.000000
 20
33.412460
 11
-10.000000
 21
33.412460
  0
LINE
  8
0
 10
7.200000
 20
33.412460
 11
7.000000
 21
33.412460
  0
LINE
  8
0
  6
PHANTOM
 62
     2
 10
23.399994
 20
22.412460
 11
31.599991
 21
22.412460
  0
LINE
  8
0
  6
CENTER
 62
     2
 10
13.199997
 20
22.412460
 11
21.399994
 21
22.412460
  0
LINE
  8
0
 62
     4
 10
-0.750015
 20
-49.972687
 11
4.749985
 21
-49.972687
  0
LINE
  8
0
 62
     4
 10
4.749985
 20
-49.972687
 11
4.749985
 21
-50.972687
  0
LINE
  8
0
 62
     4
 10
-0.750015
 20
-49.972687
 11
-0.750015
 21
-50.972687
  0
LINE
  8
0
 10
7.000000
 20
-70.572693
 11
7.000000
 21
-71.572693
  0
LINE
  8
0
 10
-3.000000
 20
-70.572693
 11
-3.000000
 21
-71.572693
  0
LINE
  8
0
 10
-3.000000
 20
-70.572693
 11
7.000000
 21
-70.572693
  0
LINE
  8
0
 10
47.800003
 20
-70.572693
 11
47.800003
 21
-71.572693
  0
LINE
  8
0
 10
37.800003
 20
-70.572693
 11
37.800003
 21
-71.572693
  0
LINE
  8
0
 10
37.800003
 20
-70.572693
 11
47.800003
 21
-70.572693
  0
LINE
  8
0
 10
47.799988
 20
-69.572693
 11
47.799988
 21
-69.615479
  0
LINE
  8
0
 10
37.800003
 20
-69.572693
 11
37.800003
 21
-69.615479
  0
LINE
  8
0
 10
-10.000000
 20
-83.572693
 11
54.799988
 21
-83.572693
  0
LINE
  8
0
  6
PHANTOM
 62
     1
 10
4.746466
 20
-46.060017
 11
-0.736946
 21
-43.503059
  0
LINE
  8
0
 62
     4
 10
0.099991
 20
-44.996689
 11
0.099991
 21
-49.972687
  0
LINE
  8
0
 62
     4
 10
1.399994
 20
-45.602890
 11
1.399994
 21
-49.972687
  0
LINE
  8
0
 62
     4
 10
2.599991
 20
-46.162460
 11
2.599991
 21
-49.972687
  0
LINE
  8
0
 62
     4
 10
3.899994
 20
-46.768661
 11
3.899994
 21
-49.972687
  0
LINE
  8
0
 62
     4
 10
2.600006
 20
-41.972687
 11
3.900009
 21
-41.972687
  0
LINE
  8
0
 62
     4
 10
3.000000
 20
-38.472687
 11
3.500000
 21
-38.472687
  0
LINE
  8
0
 62
     4
 10
0.500000
 20
-38.472687
 11
1.000000
 21
-38.472687
  0
LINE
  8
0
 62
     4
 10
0.100006
 20
-41.972687
 11
1.400009
 21
-41.972687
  0
LINE
  8
0
 62
     4
 10
3.000000
 20
-38.472702
 11
3.000000
 21
-41.972702
  0
LINE
  8
0
 62
     4
 10
3.500000
 20
-38.472702
 11
3.500000
 21
-41.972702
  0
LINE
  8
0
 62
     4
 10
0.500000
 20
-38.472702
 11
0.500000
 21
-41.972702
  0
LINE
  8
0
 62
     4
 10
1.000000
 20
-38.472702
 11
1.000000
 21
-41.972702
  0
LINE
  8
0
 62
     4
 10
0.099991
 20
-41.972702
 11
0.099991
 21
-43.893311
  0
LINE
  8
0
 62
     4
 10
1.399994
 20
-41.972702
 11
1.399994
 21
-44.499512
  0
LINE
  8
0
 62
     4
 10
3.899994
 20
-41.972702
 11
3.899994
 21
-45.665283
  0
LINE
  8
0
 62
     4
 10
2.599991
 20
-41.972702
 11
2.599991
 21
-45.059082
  0
LINE
  8
0
  6
CENTER
 62
     1
 10
0.750000
 20
-37.269272
 11
0.750000
 21
-51.670090
  0
LINE
  8
0
  6
CENTER
 62
     1
 10
3.250000
 20
-37.201462
 11
3.250000
 21
-51.670090
  0
LINE
  8
0
  6
PHANTOM
 62
     1
 10
4.752664
 20
-47.166286
 11
-0.786107
 21
-44.583511
  0
LINE
  8
0
 62
     4
 10
-2.314362
 20
-50.972687
 11
6.314377
 21
-50.972687
  0
LINE
  8
0
 62
     4
 10
-2.999961
 20
-53.572697
 11
-2.812422
 21
-51.429119
  0
LINE
  8
0
 62
     4
 10
7.000004
 20
-53.572708
 11
6.812466
 21
-51.429131
  0
LINE
  8
0
 10
-3.000000
 20
-53.572693
 11
7.000000
 21
-53.572693
  0
LINE
  8
0
 10
7.000000
 20
-53.572693
 11
7.000000
 21
-70.572693
  0
LINE
  8
0
 10
-3.000000
 20
-53.572693
 11
-3.000000
 21
-70.572693
  0
LINE
  8
0
 10
0.000000
 20
-55.472702
 11
0.000000
 21
-56.572693
  0
LINE
  8
0
 10
4.000000
 20
-55.472702
 11
0.000000
 21
-55.472702
  0
LINE
  8
0
 10
2.000000
 20
-55.651321
 11
2.000000
 21
-56.572693
  0
LINE
  8
0
 10
4.000000
 20
-55.472702
 11
4.000000
 21
-56.572693
  0
LINE
  8
0
  6
CENTER
 62
     2
 10
-1.300003
 20
-55.772690
 11
-1.300003
 21
-60.772690
  0
LINE
  8
0
  6
CENTER
 62
     2
 10
-3.800003
 20
-58.272690
 11
1.199997
 21
-58.272690
  0
LINE
  8
0
 10
3.500000
 20
-68.872696
 11
3.500000
 21
-70.572693
  0
LINE
  8
0
  6
CENTER
 62
     2
 10
2.800003
 20
-68.872696
 11
7.800003
 21
-68.872696
  0
LINE
  8
0
  6
CENTER
 62
     2
 10
5.300003
 20
-66.372696
 11
5.300003
 21
-71.372696
  0
LINE
  8
0
 10
5.300003
 20
-67.072693
 11
7.000000
 21
-67.072693
  0
LINE
  8
0
 10
-1.300003
 20
-60.072693
 11
-3.000000
 21
-60.072693
  0
LINE
  8
0
 10
0.500000
 20
-58.272690
 11
0.500000
 21
-56.572693
  0
LINE
  8
0
 10
7.000000
 20
-56.572693
 11
-3.000000
 21
-56.572693
  0
LINE
  8
0
  6
CENTER
 62
     2
 10
2.000000
 20
-52.301300
 11
2.000000
 21
-73.347672
  0
LINE
  8
0
  6
CENTER
 62
     1
 10
46.299988
 20
-68.072693
 11
46.299988
 21
-71.072693
  0
LINE
  8
0
  6
CENTER
 62
     1
 10
39.300003
 20
-68.072693
 11
39.300003
 21
-71.072693
  0
LINE
  8
0
 62
     4
 10
47.800003
 20
-69.572693
 11
47.800003
 21
-70.572693
  0
LINE
  8
0
 62
     4
 10
37.800003
 20
-69.572693
 11
37.800003
 21
-70.572693
  0
LINE
  8
0
  6
CENTER
 62
     1
 10
42.800003
 20
-66.882874
 11
42.800003
 21
-73.925751
  0
LINE
  8
0
 62
     4
 10
37.800003
 20
-69.572693
 11
47.800003
 21
-69.572693
  0
LINE
  8
0
 10
54.799988
 20
-71.572693
 11
54.799988
 21
-83.572693
  0
LINE
  8
0
 10
-10.000000
 20
-71.572693
 11
-10.000000
 21
-83.572693
  0
LINE
  8
0
 10
-10.000000
 20
-71.572693
 11
54.799988
 21
-71.572693
  0
LINE
  8
0
 10
-2.007109
 20
-57.565586
 11
-0.592896
 21
-58.979797
  0
LINE
  8
0
 10
-0.592894
 20
-57.565582
 11
-2.007110
 21
-58.979801
  0
LINE
  8
0
 10
4.592896
 20
-68.165588
 11
6.007109
 21
-69.579803
  0
LINE
  8
0
 10
6.007109
 20
-68.165588
 11
4.592894
 21
-69.579803
  0
LINE
  8
0
 10
7.200000
 20
-70.572693
 11
17.199997
 21
-70.572693
  0
LINE
  8
0
 10
7.200000
 20
-53.572693
 11
17.199997
 21
-53.572693
  0
LINE
  8
0
  6
CENTER
 62
     2
 10
6.399997
 20
-58.272690
 11
11.399994
 21
-58.272690
  0
LINE
  8
0
 10
8.899997
 20
-60.072693
 11
7.200000
 21
-60.072693
  0
LINE
  8
0
 10
17.199997
 20
-56.572693
 11
7.200000
 21
-56.572693
  0
LINE
  8
0
 10
16.207100
 20
-68.165596
 11
14.792887
 21
-69.579811
  0
LINE
  8
0
 10
14.792887
 20
-68.165596
 11
16.207100
 21
-69.579811
  0
LINE
  8
0
 10
9.607095
 20
-57.565590
 11
8.192882
 21
-58.979801
  0
LINE
  8
0
 10
8.192884
 20
-57.565590
 11
9.607098
 21
-58.979805
  0
LINE
  8
0
  6
CENTER
 62
     2
 10
12.199997
 20
-52.301300
 11
12.199997
 21
-73.347672
  0
LINE
  8
0
 10
10.699997
 20
-58.272690
 11
10.699997
 21
-56.572693
  0
LINE
  8
0
 10
15.500000
 20
-67.072693
 11
17.199997
 21
-67.072693
  0
LINE
  8
0
  6
CENTER
 62
     2
 10
15.500000
 20
-66.372696
 11
15.500000
 21
-71.372696
  0
LINE
  8
0
  6
CENTER
 62
     2
 10
13.000000
 20
-68.872696
 11
18.000000
 21
-68.872696
  0
LINE
  8
0
 10
13.699997
 20
-68.872696
 11
13.699997
 21
-70.572693
  0
LINE
  8
0
  6
CENTER
 62
     2
 10
8.899997
 20
-55.772690
 11
8.899997
 21
-60.772690
  0
LINE
  8
0
 10
14.199997
 20
-55.472702
 11
14.199997
 21
-56.572693
  0
LINE
  8
0
 10
12.199997
 20
-55.651321
 11
12.199997
 21
-56.572693
  0
LINE
  8
0
 10
14.199997
 20
-55.472702
 11
10.199997
 21
-55.472702
  0
LINE
  8
0
 10
10.199997
 20
-55.472702
 11
10.199997
 21
-56.572693
  0
LINE
  8
0
 10
17.199997
 20
-53.572693
 11
17.199997
 21
-70.572693
  0
LINE
  8
0
 62
     4
 10
17.199997
 20
-53.572716
 11
17.012459
 21
-51.429138
  0
LINE
  8
0
 62
     4
 10
7.885638
 20
-50.972687
 11
16.514374
 21
-50.972687
  0
LINE
  8
0
  6
PHANTOM
 62
     1
 10
14.952666
 20
-47.166275
 11
9.413896
 21
-44.583500
  0
LINE
  8
0
  6
CENTER
 62
     1
 10
13.449997
 20
-37.201462
 11
13.449997
 21
-51.670090
  0
LINE
  8
0
  6
CENTER
 62
     1
 10
10.949997
 20
-37.269272
 11
10.949997
 21
-51.670090
  0
LINE
  8
0
 62
     4
 10
12.799988
 20
-41.972702
 11
12.799988
 21
-45.059082
  0
LINE
  8
0
 62
     4
 10
14.099991
 20
-41.972702
 11
14.099991
 21
-45.665283
  0
LINE
  8
0
 62
     4
 10
11.599991
 20
-41.972702
 11
11.599991
 21
-44.499512
  0
LINE
  8
0
 62
     4
 10
10.299988
 20
-41.972702
 11
10.299988
 21
-43.893311
  0
LINE
  8
0
 62
     4
 10
11.199997
 20
-38.472702
 11
11.199997
 21
-41.972702
  0
LINE
  8
0
 62
     4
 10
10.699997
 20
-38.472702
 11
10.699997
 21
-41.972702
  0
LINE
  8
0
 62
     4
 10
13.699997
 20
-38.472702
 11
13.699997
 21
-41.972702
  0
LINE
  8
0
 62
     4
 10
13.199997
 20
-38.472702
 11
13.199997
 21
-41.972702
  0
LINE
  8
0
 62
     4
 10
10.300003
 20
-41.972687
 11
11.600006
 21
-41.972687
  0
LINE
  8
0
 62
     4
 10
10.699997
 20
-38.472687
 11
11.199997
 21
-38.472687
  0
LINE
  8
0
 62
     4
 10
13.199997
 20
-38.472687
 11
13.699997
 21
-38.472687
  0
LINE
  8
0
 62
     4
 10
12.800003
 20
-41.972687
 11
14.100006
 21
-41.972687
  0
LINE
  8
0
 62
     4
 10
14.099991
 20
-46.768661
 11
14.099991
 21
-49.972687
  0
LINE
  8
0
 62
     4
 10
12.799988
 20
-46.162460
 11
12.799988
 21
-49.972687
  0
LINE
  8
0
 62
     4
 10
11.599991
 20
-45.602890
 11
11.599991
 21
-49.972687
  0
LINE
  8
0
 62
     4
 10
10.299988
 20
-44.996689
 11
10.299988
 21
-49.972687
  0
LINE
  8
0
  6
PHANTOM
 62
     1
 10
14.946470
 20
-46.060009
 11
9.463058
 21
-43.503052
  0
LINE
  8
0
 10
17.199997
 20
-70.572693
 11
17.199997
 21
-71.572693
  0
LINE
  8
0
 62
     4
 10
9.449985
 20
-49.972687
 11
9.449985
 21
-50.972687
  0
LINE
  8
0
 62
     4
 10
14.949982
 20
-49.972687
 11
14.949982
 21
-50.972687
  0
LINE
  8
0
 62
     4
 10
9.449985
 20
-49.972687
 11
14.949982
 21
-49.972687
  0
LINE
  8
0
 10
7.200000
 20
-53.572693
 11
7.200000
 21
-70.572693
  0
LINE
  8
0
 62
     4
 10
7.200040
 20
-53.572697
 11
7.387578
 21
-51.429115
  0
LINE
  8
0
 10
7.200000
 20
-70.572693
 11
7.200000
 21
-71.572693
  0
LINE
  8
0
 10
17.399994
 20
-70.572693
 11
27.399994
 21
-70.572693
  0
LINE
  8
0
 10
17.399994
 20
-53.572693
 11
27.399994
 21
-53.572693
  0
LINE
  8
0
  6
CENTER
 62
     2
 10
16.599991
 20
-58.272690
 11
21.599991
 21
-58.272690
  0
LINE
  8
0
 10
19.099991
 20
-60.072693
 11
17.399994
 21
-60.072693
  0
LINE
  8
0
 10
27.399994
 20
-56.572693
 11
17.399994
 21
-56.572693
  0
LINE
  8
0
 10
26.407104
 20
-68.165596
 11
24.992891
 21
-69.579811
  0
LINE
  8
0
 10
24.992886
 20
-68.165596
 11
26.407106
 21
-69.579811
  0
LINE
  8
0
 10
19.807098
 20
-57.565582
 11
18.392885
 21
-58.979801
  0
LINE
  8
0
 10
18.392885
 20
-57.565586
 11
19.807098
 21
-58.979801
  0
LINE
  8
0
  6
CENTER
 62
     2
 10
22.399994
 20
-52.301300
 11
22.399994
 21
-73.347672
  0
LINE
  8
0
 10
20.899994
 20
-58.272690
 11
20.899994
 21
-56.572693
  0
LINE
  8
0
 10
25.699997
 20
-67.072693
 11
27.399994
 21
-67.072693
  0
LINE
  8
0
  6
CENTER
 62
     2
 10
25.699997
 20
-66.372696
 11
25.699997
 21
-71.372696
  0
LINE
  8
0
  6
CENTER
 62
     2
 10
23.199997
 20
-68.872696
 11
28.199997
 21
-68.872696
  0
LINE
  8
0
 10
23.899994
 20
-68.872696
 11
23.899994
 21
-70.572693
  0
LINE
  8
0
  6
CENTER
 62
     2
 10
19.099991
 20
-55.772690
 11
19.099991
 21
-60.772690
  0
LINE
  8
0
 10
24.399994
 20
-55.472702
 11
24.399994
 21
-56.572693
  0
LINE
  8
0
 10
22.399994
 20
-55.651321
 11
22.399994
 21
-56.572693
  0
LINE
  8
0
 10
24.399994
 20
-55.472702
 11
20.399994
 21
-55.472702
  0
LINE
  8
0
 10
20.399994
 20
-55.472702
 11
20.399994
 21
-56.572693
  0
LINE
  8
0
 10
27.399994
 20
-53.572693
 11
27.399994
 21
-70.572693
  0
LINE
  8
0
 62
     4
 10
27.400003
 20
-53.572708
 11
27.212465
 21
-51.429131
  0
LINE
  8
0
 62
     4
 10
18.085632
 20
-50.972687
 11
26.714371
 21
-50.972687
  0
LINE
  8
0
  6
PHANTOM
 62
     1
 10
25.152660
 20
-47.166279
 11
19.613890
 21
-44.583511
  0
LINE
  8
0
  6
CENTER
 62
     1
 10
23.649994
 20
-37.201462
 11
23.649994
 21
-51.670090
  0
LINE
  8
0
  6
CENTER
 62
     1
 10
21.149994
 20
-37.269272
 11
21.149994
 21
-51.670090
  0
LINE
  8
0
 62
     4
 10
22.999985
 20
-41.972702
 11
22.999985
 21
-45.059082
  0
LINE
  8
0
 62
     4
 10
24.299988
 20
-41.972702
 11
24.299988
 21
-45.665283
  0
LINE
  8
0
 62
     4
 10
21.799988
 20
-41.972702
 11
21.799988
 21
-44.499512
  0
LINE
  8
0
 62
     4
 10
20.499985
 20
-41.972702
 11
20.499985
 21
-43.893311
  0
LINE
  8
0
 62
     4
 10
21.399994
 20
-38.472702
 11
21.399994
 21
-41.972702
  0
LINE
  8
0
 62
     4
 10
20.899994
 20
-38.472702
 11
20.899994
 21
-41.972702
  0
LINE
  8
0
 62
     4
 10
23.899994
 20
-38.472702
 11
23.899994
 21
-41.972702
  0
LINE
  8
0
 62
     4
 10
23.399994
 20
-38.472702
 11
23.399994
 21
-41.972702
  0
LINE
  8
0
 62
     4
 10
20.500000
 20
-41.972687
 11
21.800003
 21
-41.972687
  0
LINE
  8
0
 62
     4
 10
20.899994
 20
-38.472687
 11
21.399994
 21
-38.472687
  0
LINE
  8
0
 62
     4
 10
23.399994
 20
-38.472687
 11
23.899994
 21
-38.472687
  0
LINE
  8
0
 62
     4
 10
23.000000
 20
-41.972687
 11
24.300003
 21
-41.972687
  0
LINE
  8
0
 62
     4
 10
24.299988
 20
-46.768661
 11
24.299988
 21
-49.972687
  0
LINE
  8
0
 62
     4
 10
22.999985
 20
-46.162460
 11
22.999985
 21
-49.972687
  0
LINE
  8
0
 62
     4
 10
21.799988
 20
-45.602890
 11
21.799988
 21
-49.972687
  0
LINE
  8
0
 62
     4
 10
20.499985
 20
-44.996689
 11
20.499985
 21
-49.972687
  0
LINE
  8
0
  6
PHANTOM
 62
     1
 10
25.146463
 20
-46.060013
 11
19.663054
 21
-43.503059
  0
LINE
  8
0
 10
27.399994
 20
-70.572693
 11
27.399994
 21
-71.572693
  0
LINE
  8
0
 62
     4
 10
19.649979
 20
-49.972687
 11
19.649979
 21
-50.972687
  0
LINE
  8
0
 62
     4
 10
25.149979
 20
-49.972687
 11
25.149979
 21
-50.972687
  0
LINE
  8
0
 62
     4
 10
19.649979
 20
-49.972687
 11
25.149979
 21
-49.972687
  0
LINE
  8
0
 10
17.399994
 20
-53.572693
 11
17.399994
 21
-70.572693
  0
LINE
  8
0
 62
     4
 10
17.400036
 20
-53.572689
 11
17.587574
 21
-51.429115
  0
LINE
  8
0
 10
17.399994
 20
-70.572693
 11
17.399994
 21
-71.572693
  0
LINE
  8
0
 10
27.599991
 20
-70.572693
 11
37.599991
 21
-70.572693
  0
LINE
  8
0
 10
27.599991
 20
-53.572693
 11
37.599991
 21
-53.572693
  0
LINE
  8
0
  6
CENTER
 62
     2
 10
26.799988
 20
-58.272690
 11
31.799988
 21
-58.272690
  0
LINE
  8
0
 10
29.299988
 20
-60.072693
 11
27.599991
 21
-60.072693
  0
LINE
  8
0
 10
37.599991
 20
-56.572693
 11
27.599991
 21
-56.572693
  0
LINE
  8
0
 10
36.607098
 20
-68.165581
 11
35.192886
 21
-69.579796
  0
LINE
  8
0
 10
35.192886
 20
-68.165581
 11
36.607098
 21
-69.579796
  0
LINE
  8
0
 10
30.007101
 20
-57.565582
 11
28.592890
 21
-58.979794
  0
LINE
  8
0
 10
28.592886
 20
-57.565578
 11
30.007103
 21
-58.979797
  0
LINE
  8
0
  6
CENTER
 62
     2
 10
32.599991
 20
-52.301300
 11
32.599991
 21
-73.347672
  0
LINE
  8
0
 10
31.099991
 20
-58.272690
 11
31.099991
 21
-56.572693
  0
LINE
  8
0
 10
35.899994
 20
-67.072693
 11
37.599991
 21
-67.072693
  0
LINE
  8
0
  6
CENTER
 62
     2
 10
35.899994
 20
-66.372696
 11
35.899994
 21
-71.372696
  0
LINE
  8
0
  6
CENTER
 62
     2
 10
33.399994
 20
-68.872696
 11
38.399994
 21
-68.872696
  0
LINE
  8
0
 10
34.099991
 20
-68.872696
 11
34.099991
 21
-70.572693
  0
LINE
  8
0
  6
CENTER
 62
     2
 10
29.299988
 20
-55.772690
 11
29.299988
 21
-60.772690
  0
LINE
  8
0
 10
34.599991
 20
-55.472702
 11
34.599991
 21
-56.572693
  0
LINE
  8
0
 10
32.599991
 20
-55.651321
 11
32.599991
 21
-56.572693
  0
LINE
  8
0
 10
34.599991
 20
-55.472702
 11
30.599991
 21
-55.472702
  0
LINE
  8
0
 10
30.599991
 20
-55.472702
 11
30.599991
 21
-56.572693
  0
LINE
  8
0
 10
37.599991
 20
-53.572693
 11
37.599991
 21
-70.572693
  0
LINE
  8
0
 62
     4
 10
37.599998
 20
-53.572716
 11
37.412460
 21
-51.429138
  0
LINE
  8
0
 62
     4
 10
28.285629
 20
-50.972687
 11
36.914368
 21
-50.972687
  0
LINE
  8
0
  6
PHANTOM
 62
     1
 10
35.352654
 20
-47.166271
 11
29.813881
 21
-44.583500
  0
LINE
  8
0
  6
CENTER
 62
     1
 10
33.849991
 20
-37.201462
 11
33.849991
 21
-51.670090
  0
LINE
  8
0
  6
CENTER
 62
     1
 10
31.349991
 20
-37.269272
 11
31.349991
 21
-51.670090
  0
LINE
  8
0
 62
     4
 10
33.199982
 20
-41.972702
 11
33.199982
 21
-45.059082
  0
LINE
  8
0
 62
     4
 10
34.499985
 20
-41.972702
 11
34.499985
 21
-45.665283
  0
LINE
  8
0
 62
     4
 10
31.999985
 20
-41.972702
 11
31.999985
 21
-44.499512
  0
LINE
  8
0
 62
     4
 10
30.699982
 20
-41.972702
 11
30.699982
 21
-43.893311
  0
LINE
  8
0
 62
     4
 10
31.599991
 20
-38.472702
 11
31.599991
 21
-41.972702
  0
LINE
  8
0
 62
     4
 10
31.099991
 20
-38.472702
 11
31.099991
 21
-41.972702
  0
LINE
  8
0
 62
     4
 10
34.099991
 20
-38.472702
 11
34.099991
 21
-41.972702
  0
LINE
  8
0
 62
     4
 10
33.599991
 20
-38.472702
 11
33.599991
 21
-41.972702
  0
LINE
  8
0
 62
     4
 10
30.699997
 20
-41.972687
 11
32.000000
 21
-41.972687
  0
LINE
  8
0
 62
     4
 10
31.099991
 20
-38.472687
 11
31.599991
 21
-38.472687
  0
LINE
  8
0
 62
     4
 10
33.599991
 20
-38.472687
 11
34.099991
 21
-38.472687
  0
LINE
  8
0
 62
     4
 10
33.199997
 20
-41.972687
 11
34.500000
 21
-41.972687
  0
LINE
  8
0
 62
     4
 10
34.499985
 20
-46.768661
 11
34.499985
 21
-49.972687
  0
LINE
  8
0
 62
     4
 10
33.199982
 20
-46.162460
 11
33.199982
 21
-49.972687
  0
LINE
  8
0
 62
     4
 10
31.999985
 20
-45.602890
 11
31.999985
 21
-49.972687
  0
LINE
  8
0
 62
     4
 10
30.699982
 20
-44.996689
 11
30.699982
 21
-49.972687
  0
LINE
  8
0
  6
PHANTOM
 62
     1
 10
35.346462
 20
-46.060009
 11
29.863049
 21
-43.503048
  0
LINE
  8
0
 10
37.599991
 20
-70.572693
 11
37.599991
 21
-71.572693
  0
LINE
  8
0
 62
     4
 10
29.849976
 20
-49.972687
 11
29.849976
 21
-50.972687
  0
LINE
  8
0
 62
     4
 10
35.349976
 20
-49.972687
 11
35.349976
 21
-50.972687
  0
LINE
  8
0
 62
     4
 10
29.849976
 20
-49.972687
 11
35.349976
 21
-49.972687
  0
LINE
  8
0
 10
27.599991
 20
-53.572693
 11
27.599991
 21
-70.572693
  0
LINE
  8
0
 62
     4
 10
27.600031
 20
-53.572689
 11
27.787569
 21
-51.429111
  0
LINE
  8
0
 10
27.599991
 20
-70.572693
 11
27.599991
 21
-71.572693
  0
LINE
  8
0
  6
CENTER
 62
     2
 10
-6.500000
 20
-81.072693
 11
-6.500000
 21
-86.072693
  0
LINE
  8
0
 10
137.657547
 20
32.412460
 11
137.657547
 21
7.412460
  0
LINE
  8
0
 62
     4
 10
123.657547
 20
27.412460
 11
120.768387
 21
27.412460
  0
LINE
  8
0
 10
150.657547
 20
4.412460
 11
138.657547
 21
4.412460
  0
LINE
  8
0
 10
138.657547
 20
33.412460
 11
138.657547
 21
32.412460
  0
LINE
  8
0
 10
150.657547
 20
33.412460
 11
138.657547
 21
33.412460
  0
LINE
  8
0
  6
CENTER
 62
     2
 10
144.657547
 20
17.412460
 11
144.657547
 21
9.412460
  0
LINE
  8
0
  6
CENTER
 62
     2
 10
148.657547
 20
13.412460
 11
140.657547
 21
13.412460
  0
LINE
  8
0
  6
CENTER
 62
     2
 10
144.657547
 20
29.412460
 11
144.657547
 21
21.412460
  0
LINE
  8
0
  6
CENTER
 62
     2
 10
148.657547
 20
25.412460
 11
140.657547
 21
25.412460
  0
LINE
  8
0
 10
123.657547
 20
27.412460
 11
123.657547
 21
4.412460
  0
LINE
  8
0
 62
     4
 10
137.657547
 20
7.412460
 11
136.657547
 21
7.412460
  0
LINE
  8
0
 10
137.657547
 20
4.412460
 11
123.657547
 21
4.412460
  0
LINE
  8
0
  6
CENTER
 62
     2
 10
130.657547
 20
50.678345
 11
130.657547
 21
2.102036
  0
LINE
  8
0
 10
133.457550
 20
5.412460
 11
137.657547
 21
5.412460
  0
LINE
  8
0
  6
CENTER
 62
     2
 10
135.957550
 20
6.873138
 11
135.957550
 21
3.809189
  0
LINE
  8
0
 10
133.457550
 20
5.412460
 11
133.457550
 21
4.412460
  0
LINE
  8
0
 10
122.736176
 20
22.803070
 11
123.657547
 21
22.803070
  0
LINE
  8
0
 10
122.557564
 20
23.112459
 11
122.736191
 21
22.803068
  0
LINE
  8
0
 10
122.557541
 20
23.112457
 11
122.557541
 21
27.112457
  0
LINE
  8
0
 10
122.736176
 20
23.957764
 11
123.657547
 21
23.957764
  0
LINE
  8
0
 10
122.736176
 20
26.267166
 11
123.657547
 21
26.267166
  0
LINE
  8
0
 10
122.557602
 20
27.112425
 11
122.730804
 21
27.412420
  0
LINE
  8
0
  6
CENTER
 62
     2
 10
124.057541
 20
25.112457
 11
121.057541
 21
25.112457
  0
LINE
  8
0
 10
122.557541
 20
26.012466
 11
122.157547
 21
26.012466
  0
LINE
  8
0
 10
122.157547
 20
24.212463
 11
122.157547
 21
26.012466
  0
LINE
  8
0
 10
122.557541
 20
24.212463
 11
122.157547
 21
24.212463
  0
LINE
  8
0
 10
124.657547
 20
22.969238
 11
123.657547
 21
22.969238
  0
LINE
  8
0
 10
124.657547
 20
21.855682
 11
123.657547
 21
21.855682
  0
LINE
  8
0
 10
124.657547
 20
22.969238
 11
124.657547
 21
21.855682
  0
LINE
  8
0
 10
138.657547
 20
7.412460
 11
138.657547
 21
4.412460
  0
LINE
  8
0
 10
137.657547
 20
7.412460
 11
137.657547
 21
4.412460
  0
LINE
  8
0
 10
136.657547
 20
27.412460
 11
123.657547
 21
27.412460
  0
LINE
  8
0
 62
     4
 10
123.657547
 20
47.412460
 11
123.657547
 21
27.412460
  0
LINE
  8
0
 62
     4
 10
137.657547
 20
47.412460
 11
137.657547
 21
32.412460
  0
LINE
  8
0
 62
     4
 10
126.823227
 20
47.912460
 11
137.157547
 21
47.912460
  0
LINE
  8
0
 62
     4
 10
137.657547
 20
46.912460
 11
123.657547
 21
46.912460
  0
LINE
  8
0
 62
     4
 10
120.557091
 20
27.459333
 11
118.346237
 21
28.490271
  0
LINE
  8
0
  6
CENTER
 62
     1
 10
118.732208
 20
42.412460
 11
104.302383
 21
42.412460
  0
LINE
  8
0
 62
     4
 10
117.057526
 20
43.062454
 11
113.405853
 21
43.062454
  0
LINE
  8
0
 62
     4
 10
117.057526
 20
41.762466
 11
113.754181
 21
41.762466
  0
LINE
  8
0
 62
     4
 10
118.057541
 20
45.412460
 11
118.057541
 21
28.943390
  0
LINE
  8
0
 62
     4
 10
127.357544
 20
47.712463
 11
123.757553
 21
47.712463
  0
LINE
  8
0
 62
     4
 10
127.357544
 20
47.912460
 11
127.357544
 21
47.712463
  0
LINE
  8
0
 62
     4
 10
135.057541
 20
48.312454
 11
136.857544
 21
48.312454
  0
LINE
  8
0
 62
     4
 10
126.257538
 20
48.312454
 11
124.457550
 21
48.312454
  0
LINE
  8
0
 62
     4
 10
109.390350
 20
43.062454
 11
109.390350
 21
41.762451
  0
LINE
  8
0
 62
     4
 10
112.718918
 20
41.762466
 11
109.390350
 21
41.762466
  0
LINE
  8
0
 62
     4
 10
112.370575
 20
43.062454
 11
109.390350
 21
43.062454
  0
LINE
  8
0
 62
     4
 10
109.390350
 20
42.162460
 11
105.979828
 21
42.162460
  0
LINE
  8
0
 62
     4
 10
109.390350
 20
42.662460
 11
105.979828
 21
42.662460
  0
LINE
  8
0
 62
     4
 10
105.979828
 20
42.662460
 11
105.979828
 21
42.162460
  0
LINE
  8
0
 62
     4
 10
118.557541
 20
45.912460
 11
123.657547
 21
45.912460
  0
LINE
  8
0
 62
     4
 10
120.657547
 20
27.424896
 11
120.657547
 21
45.912460
  0
LINE
  8
0
  6
PHANTOM
 62
     1
 10
114.156120
 20
40.262451
 11
113.003937
 21
44.562454
  0
LINE
  8
0
  6
PHANTOM
 62
     1
 10
113.120842
 20
40.262466
 11
111.968658
 21
44.562454
  0
LINE
  8
0
  6
CENTER
 62
     2
 10
125.357544
 20
49.005539
 11
125.357544
 21
46.565018
  0
LINE
  8
0
  6
CENTER
 62
     2
 10
135.957550
 20
48.976135
 11
135.957550
 21
46.565018
  0
LINE
  8
0
 10
150.657547
 20
33.412460
 11
150.657547
 21
4.412460
  0
LINE
  8
0
 10
138.657547
 20
32.412460
 11
137.657547
 21
32.412460
  0
LINE
  8
0
 10
138.657547
 20
32.412460
 11
138.657547
 21
7.412460
  0
LINE
  8
0
 10
138.657547
 20
7.412460
 11
137.657547
 21
7.412460
  0
LINE
  8
0
 62
     4
 10
117.057526
 20
40.912460
 11
118.057526
 21
40.912460
  0
LINE
  8
0
 62
     4
 10
117.057526
 20
43.912460
 11
118.057541
 21
43.912460
  0
LINE
  8
0
 62
     4
 10
117.057526
 20
43.912460
 11
117.057526
 21
40.912460
  0
LINE
  8
0
  6
CENTER
 62
     2
 10
153.157547
 20
19.912460
 11
148.157547
 21
19.912460
  0
LINE
  8
0
 62
     4
 10
136.657547
 20
32.412460
 11
137.657547
 21
32.412460
  0
LINE
  8
0
 62
     4
 10
136.657547
 20
32.412460
 11
136.657547
 21
7.412460
  0
LINE
  8
0
  6
CENTER
 62
     1
 10
133.817047
 20
22.412460
 11
136.657547
 21
22.412460
  0
LINE
  8
0
 62
     4
 10
-72.257538
 20
43.912460
 11
-72.257538
 21
40.912460
  0
LINE
  8
0
 62
     4
 10
-72.257538
 20
43.912460
 11
-73.257553
 21
43.912460
  0
LINE
  8
0
 62
     4
 10
-72.257538
 20
40.912460
 11
-73.257538
 21
40.912460
  0
LINE
  8
0
 10
-93.857559
 20
7.412460
 11
-92.857559
 21
7.412460
  0
LINE
  8
0
 10
-92.857559
 20
32.412460
 11
-92.857559
 21
7.412460
  0
LINE
  8
0
 10
-93.857559
 20
32.412460
 11
-93.857559
 21
7.412460
  0
LINE
  8
0
 10
-93.857559
 20
32.412460
 11
-92.857559
 21
32.412460
  0
LINE
  8
0
 10
-105.857559
 20
33.412460
 11
-105.857559
 21
4.412460
  0
LINE
  8
0
  6
CENTER
 62
     2
 10
-91.157562
 20
48.976135
 11
-91.157562
 21
46.565018
  0
LINE
  8
0
  6
CENTER
 62
     2
 10
-80.557556
 20
49.005539
 11
-80.557556
 21
46.565018
  0
LINE
  8
0
  6
PHANTOM
 62
     1
 10
-68.320854
 20
40.262466
 11
-67.168671
 21
44.562454
  0
LINE
  8
0
  6
PHANTOM
 62
     1
 10
-69.356133
 20
40.262451
 11
-68.203949
 21
44.562458
  0
LINE
  8
0
 62
     4
 10
-75.857559
 20
27.424896
 11
-75.857559
 21
45.912460
  0
LINE
  8
0
 62
     4
 10
-73.757553
 20
45.912460
 11
-78.857559
 21
45.912460
  0
LINE
  8
0
 62
     4
 10
-61.179840
 20
42.662460
 11
-61.179840
 21
42.162460
  0
LINE
  8
0
 62
     4
 10
-64.590363
 20
42.662460
 11
-61.179840
 21
42.662460
  0
LINE
  8
0
 62
     4
 10
-64.590363
 20
42.162460
 11
-61.179840
 21
42.162460
  0
LINE
  8
0
 62
     4
 10
-67.570587
 20
43.062454
 11
-64.590363
 21
43.062454
  0
LINE
  8
0
 62
     4
 10
-67.918930
 20
41.762466
 11
-64.590363
 21
41.762466
  0
LINE
  8
0
 62
     4
 10
-64.590363
 20
43.062454
 11
-64.590363
 21
41.762451
  0
LINE
  8
0
 62
     4
 10
-81.457550
 20
48.312454
 11
-79.657562
 21
48.312454
  0
LINE
  8
0
 62
     4
 10
-90.257553
 20
48.312454
 11
-92.057556
 21
48.312454
  0
LINE
  8
0
 62
     4
 10
-89.157562
 20
47.912460
 11
-89.157562
 21
47.712463
  0
LINE
  8
0
 62
     4
 10
-89.157562
 20
47.712463
 11
-92.757553
 21
47.712463
  0
LINE
  8
0
 62
     4
 10
-73.257553
 20
45.412460
 11
-73.257553
 21
28.943390
  0
LINE
  8
0
 62
     4
 10
-72.257538
 20
41.762466
 11
-68.954193
 21
41.762466
  0
LINE
  8
0
 62
     4
 10
-72.257538
 20
43.062454
 11
-68.605865
 21
43.062454
  0
LINE
  8
0
  6
CENTER
 62
     1
 10
-73.932220
 20
42.412460
 11
-59.502396
 21
42.412460
  0
LINE
  8
0
 62
     4
 10
-75.757103
 20
27.459332
 11
-73.546249
 21
28.490269
  0
LINE
  8
0
 62
     4
 10
-92.857559
 20
46.912460
 11
-78.857559
 21
46.912460
  0
LINE
  8
0
 62
     4
 10
-79.357559
 20
47.912460
 11
-89.691864
 21
47.912460
  0
LINE
  8
0
 62
     4
 10
-92.857559
 20
47.412460
 11
-92.857559
 21
27.412460
  0
LINE
  8
0
 62
     4
 10
-78.857559
 20
47.412460
 11
-78.857559
 21
27.412460
  0
LINE
  8
0
 10
-92.857559
 20
27.412460
 11
-78.857559
 21
27.412460
  0
LINE
  8
0
 10
-92.857559
 20
7.412460
 11
-92.857559
 21
4.412460
  0
LINE
  8
0
 10
-93.857559
 20
7.412460
 11
-93.857559
 21
4.412460
  0
LINE
  8
0
 10
-79.857559
 20
22.969238
 11
-79.857559
 21
21.855682
  0
LINE
  8
0
 10
-79.857559
 20
21.855682
 11
-78.857559
 21
21.855682
  0
LINE
  8
0
 10
-79.857559
 20
22.969238
 11
-78.857559
 21
22.969238
  0
LINE
  8
0
 10
-77.757553
 20
24.212463
 11
-77.357559
 21
24.212463
  0
LINE
  8
0
 10
-77.357559
 20
24.212463
 11
-77.357559
 21
26.012466
  0
LINE
  8
0
 10
-77.757553
 20
26.012466
 11
-77.357559
 21
26.012466
  0
LINE
  8
0
  6
CENTER
 62
     2
 10
-79.257553
 20
25.112457
 11
-76.257553
 21
25.112457
  0
LINE
  8
0
 10
-77.757607
 20
27.112429
 11
-77.930809
 21
27.412424
  0
LINE
  8
0
 10
-77.936188
 20
26.267166
 11
-78.857559
 21
26.267166
  0
LINE
  8
0
 10
-77.936188
 20
23.957764
 11
-78.857559
 21
23.957764
  0
LINE
  8
0
 10
-77.757553
 20
23.112457
 11
-77.757553
 21
27.112457
  0
LINE
  8
0
 10
-77.757576
 20
23.112457
 11
-77.936203
 21
22.803066
  0
LINE
  8
0
 10
-77.936188
 20
22.803070
 11
-78.857559
 21
22.803070
  0
LINE
  8
0
 10
-83.057556
 20
5.412460
 11
-83.057556
 21
4.412460
  0
LINE
  8
0
  6
CENTER
 62
     2
 10
-80.557556
 20
6.873138
 11
-80.557556
 21
3.809189
  0
LINE
  8
0
 10
-83.057556
 20
5.412460
 11
-78.857559
 21
5.412460
  0
LINE
  8
0
  6
CENTER
 62
     2
 10
-85.857559
 20
50.678345
 11
-85.857559
 21
2.102036
  0
LINE
  8
0
 10
-92.857559
 20
4.412460
 11
-78.857559
 21
4.412460
  0
LINE
  8
0
 10
-92.857559
 20
7.412460
 11
-78.857559
 21
7.412460
  0
LINE
  8
0
 10
-78.857559
 20
27.412460
 11
-78.857559
 21
4.412460
  0
LINE
  8
0
  6
CENTER
 62
     2
 10
-103.857559
 20
25.412460
 11
-95.857559
 21
25.412460
  0
LINE
  8
0
  6
CENTER
 62
     2
 10
-99.857559
 20
29.412460
 11
-99.857559
 21
21.412460
  0
LINE
  8
0
  6
CENTER
 62
     2
 10
-103.857559
 20
13.412460
 11
-95.857559
 21
13.412460
  0
LINE
  8
0
  6
CENTER
 62
     2
 10
-99.857559
 20
17.412460
 11
-99.857559
 21
9.412460
  0
LINE
  8
0
 10
-105.857559
 20
33.412460
 11
-93.857559
 21
33.412460
  0
LINE
  8
0
 10
-93.857559
 20
33.412460
 11
-93.857559
 21
32.412460
  0
LINE
  8
0
 10
-105.857559
 20
4.412460
 11
-93.857559
 21
4.412460
  0
LINE
  8
0
 62
     4
 10
-78.857559
 20
27.412460
 11
-75.968399
 21
27.412460
  0
LINE
  8
0
  6
CENTER
 62
     2
 10
-103.357559
 20
19.912460
 11
-108.357559
 21
19.912460
  0
LINE
  8
0
 62
     4
 10
0.750000
 20
43.912460
 11
3.250000
 21
43.912460
  0
LINE
  8
0
 62
     4
 10
0.750000
 20
40.912460
 11
3.250000
 21
40.912460
  0
LINE
  8
0
  6
CENTER
 62
     2
 10
0.000000
 20
10.912460
 11
4.000000
 21
10.912460
  0
LINE
  8
0
  6
PHANTOM
 62
     2
 10
0.000000
 20
19.812454
 11
4.000000
 21
19.812454
  0
LINE
  8
0
  6
CENTER
 62
     1
 10
5.303955
 20
49.063126
 11
5.303955
 21
46.542740
  0
LINE
  8
0
  6
CENTER
 62
     1
 10
-1.303970
 20
49.063126
 11
-1.303970
 21
46.428177
  0
LINE
  8
0
 62
     4
 10
-0.403961
 20
48.312454
 11
-2.203964
 21
48.312454
  0
LINE
  8
0
 62
     4
 10
3.303970
 20
47.912460
 11
3.303970
 21
47.712463
  0
LINE
  8
0
 62
     4
 10
3.303955
 20
47.712463
 11
6.903961
 21
47.712463
  0
LINE
  8
0
 62
     4
 10
4.403961
 20
48.312454
 11
6.203964
 21
48.312454
  0
LINE
  8
0
 10
-3.000000
 20
27.412460
 11
7.000000
 21
27.412460
  0
LINE
  8
0
 62
     4
 10
-2.270004
 20
28.624863
 11
6.270004
 21
28.624863
  0
LINE
  8
0
 62
     4
 10
-2.770004
 20
45.412460
 11
-2.770004
 21
29.124863
  0
LINE
  8
0
 62
     4
 10
6.770004
 20
45.412460
 11
6.770004
 21
29.124863
  0
LINE
  8
0
 62
     4
 10
-2.500000
 20
45.912460
 11
6.500000
 21
45.912460
  0
LINE
  8
0
 62
     4
 10
-2.500000
 20
47.912460
 11
3.838272
 21
47.912460
  0
LINE
  8
0
 62
     4
 10
-3.000000
 20
46.912460
 11
7.000000
 21
46.912460
  0
LINE
  8
0
 62
     4
 10
-3.000000
 20
47.412460
 11
-3.000000
 21
27.412460
  0
LINE
  8
0
 62
     4
 10
7.000000
 20
47.412460
 11
7.000000
 21
27.412460
  0
LINE
  8
0
 10
27.599991
 20
33.412460
 11
27.399994
 21
33.412460
  0
LINE
  8
0
  6
CENTER
 62
     1
 10
48.212891
 20
22.412460
 11
44.384552
 21
22.412460
  0
LINE
  8
0
  6
CENTER
 62
     1
 10
46.299988
 20
24.418337
 11
46.299988
 21
20.470356
  0
LINE
  8
0
  6
CENTER
 62
     1
 10
39.300003
 20
24.346556
 11
39.300003
 21
20.589993
  0
LINE
  8
0
  6
PHANTOM
 62
     2
 10
8.000000
 20
22.412460
 11
3.000000
 21
22.412460
  0
LINE
  8
0
  6
CENTER
 62
     2
 10
-4.000000
 20
19.912460
 11
-9.000000
 21
19.912460
  0
LINE
  8
0
  6
CENTER
 62
     2
 10
-6.500000
 20
22.412460
 11
-6.500000
 21
17.412460
  0
LINE
  8
0
  6
CENTER
 62
     2
 10
51.299988
 20
22.412460
 11
51.299988
 21
17.412460
  0
LINE
  8
0
  6
CENTER
 62
     2
 10
48.799988
 20
19.912460
 11
53.799988
 21
19.912460
  0
LINE
  8
0
 10
-10.000000
 20
4.412460
 11
54.799988
 21
4.412460
  0
LINE
  8
0
 62
     4
 10
37.800003
 20
32.412460
 11
47.800003
 21
32.412460
  0
LINE
  8
0
 62
     4
 10
37.800003
 20
7.412460
 11
47.800003
 21
7.412460
  0
LINE
  8
0
 62
     4
 10
37.800003
 20
32.412460
 11
37.800003
 21
7.412460
  0
LINE
  8
0
 62
     4
 10
47.800003
 20
32.412460
 11
47.800003
 21
7.412460
  0
LINE
  8
0
  6
CENTER
 62
     2
 10
42.800003
 20
35.756332
 11
42.800003
 21
2.409561
  0
LINE
  8
0
  6
CENTER
 62
     2
 10
2.000000
 20
51.133530
 11
2.000000
 21
2.354614
  0
LINE
  8
0
 10
1.199982
 20
5.412460
 11
1.199982
 21
4.412460
  0
LINE
  8
0
  6
CENTER
 62
     2
 10
-1.300018
 20
6.873138
 11
-1.300018
 21
3.809189
  0
LINE
  8
0
 10
1.199982
 20
5.412460
 11
-3.000015
 21
5.412460
  0
LINE
  8
0
  6
CENTER
 62
     2
 10
5.499985
 20
24.912460
 11
5.499985
 21
19.912460
  0
LINE
  8
0
  6
CENTER
 62
     2
 10
-1.500000
 20
24.912460
 11
-1.500000
 21
19.912460
  0
LINE
  8
0
  6
CENTER
 62
     2
 10
-4.000000
 20
22.412460
 11
1.000000
 21
22.412460
  0
LINE
  8
0
  6
CENTER
 62
     2
 10
-1.000000
 20
25.112457
 11
4.999985
 21
25.112457
  0
LINE
  8
0
 10
0.000065
 20
23.957886
 11
2.000066
 21
22.803185
  0
LINE
  8
0
 10
2.000016
 20
27.421995
 11
4.000018
 21
26.267294
  0
LINE
  8
0
 10
2.000049
 20
22.802975
 11
4.000036
 21
23.957666
  0
LINE
  8
0
 10
0.000051
 20
26.267132
 11
2.000039
 21
27.421825
  0
LINE
  8
0
 10
3.999985
 20
26.267166
 11
3.999985
 21
23.957764
  0
LINE
  8
0
 10
0.000000
 20
26.267166
 11
0.000000
 21
23.957764
  0
LINE
  8
0
 10
-3.000000
 20
7.412460
 11
6.999985
 21
7.412460
  0
LINE
  8
0
 10
-3.000000
 20
27.412460
 11
-3.000000
 21
4.412460
  0
LINE
  8
0
 10
6.999985
 20
27.412460
 11
6.999985
 21
4.412460
  0
LINE
  8
0
 10
54.799988
 20
33.412460
 11
37.599991
 21
33.412460
  0
LINE
  8
0
 10
54.799988
 20
33.412460
 11
54.799988
 21
4.412460
  0
LINE
  8
0
 10
-10.000000
 20
33.412460
 11
-10.000000
 21
4.412460
  0
LINE
  8
0
 10
-2.207107
 20
23.119568
 11
-0.792894
 21
21.705355
  0
LINE
  8
0
 10
-0.792893
 20
23.119566
 11
-2.207107
 21
21.705351
  0
LINE
  8
0
 10
4.792878
 20
23.119568
 11
6.207091
 21
21.705355
  0
LINE
  8
0
 10
6.207091
 20
23.119566
 11
4.792877
 21
21.705353
  0
LINE
  8
0
  6
CENTER
 62
     1
 10
41.226166
 20
22.412460
 11
37.801651
 21
22.412460
  0
LINE
  8
0
 62
     4
 10
38.592892
 20
23.119572
 11
40.007107
 21
21.705359
  0
LINE
  8
0
 62
     4
 10
40.007118
 20
23.119560
 11
38.592903
 21
21.705347
  0
LINE
  8
0
 62
     4
 10
45.592880
 20
23.119572
 11
47.007092
 21
21.705357
  0
LINE
  8
0
 62
     4
 10
47.007092
 20
23.119572
 11
45.592880
 21
21.705360
  0
LINE
  8
0
  6
CENTER
 62
     2
 10
12.199997
 20
51.133530
 11
12.199997
 21
2.354614
  0
LINE
  8
0
  6
CENTER
 62
     2
 10
6.200000
 20
22.412460
 11
11.199997
 21
22.412460
  0
LINE
  8
0
 10
16.407084
 20
23.119560
 11
14.992869
 21
21.705347
  0
LINE
  8
0
 10
14.992869
 20
23.119560
 11
16.407084
 21
21.705347
  0
LINE
  8
0
 10
9.407105
 20
23.119568
 11
7.992893
 21
21.705353
  0
LINE
  8
0
 10
7.992893
 20
23.119568
 11
9.407106
 21
21.705355
  0
LINE
  8
0
 10
17.199982
 20
27.412460
 11
17.199982
 21
4.412460
  0
LINE
  8
0
 10
7.200000
 20
27.412460
 11
7.200000
 21
4.412460
  0
LINE
  8
0
 10
7.200000
 20
7.412460
 11
17.199982
 21
7.412460
  0
LINE
  8
0
 10
10.199997
 20
26.267166
 11
10.199997
 21
23.957764
  0
LINE
  8
0
 10
14.199982
 20
26.267166
 11
14.199982
 21
23.957764
  0
LINE
  8
0
 10
10.200046
 20
26.267130
 11
12.200034
 21
27.421824
  0
LINE
  8
0
 10
12.200043
 20
22.802973
 11
14.200030
 21
23.957664
  0
LINE
  8
0
 10
12.200017
 20
27.421997
 11
14.200018
 21
26.267298
  0
LINE
  8
0
 10
10.200065
 20
23.957886
 11
12.200066
 21
22.803185
  0
LINE
  8
0
  6
CENTER
 62
     2
 10
9.200000
 20
25.112457
 11
15.199982
 21
25.112457
  0
LINE
  8
0
  6
CENTER
 62
     2
 10
8.700000
 20
24.912460
 11
8.700000
 21
19.912460
  0
LINE
  8
0
  6
CENTER
 62
     2
 10
15.699982
 20
24.912460
 11
15.699982
 21
19.912460
  0
LINE
  8
0
 10
11.399979
 20
5.412460
 11
7.199985
 21
5.412460
  0
LINE
  8
0
  6
CENTER
 62
     2
 10
8.899981
 20
6.873138
 11
8.899981
 21
3.809189
  0
LINE
  8
0
 10
11.399979
 20
5.412460
 11
11.399979
 21
4.412460
  0
LINE
  8
0
 62
     4
 10
17.199997
 20
47.412460
 11
17.199997
 21
27.412460
  0
LINE
  8
0
 62
     4
 10
7.200000
 20
47.412460
 11
7.200000
 21
27.412460
  0
LINE
  8
0
 62
     4
 10
7.200000
 20
46.912460
 11
17.199997
 21
46.912460
  0
LINE
  8
0
 62
     4
 10
7.700000
 20
47.912460
 11
14.038269
 21
47.912460
  0
LINE
  8
0
 62
     4
 10
7.700000
 20
45.912460
 11
16.699997
 21
45.912460
  0
LINE
  8
0
 62
     4
 10
16.970001
 20
45.412460
 11
16.970001
 21
29.124863
  0
LINE
  8
0
 62
     4
 10
7.429996
 20
45.412460
 11
7.429996
 21
29.124863
  0
LINE
  8
0
 62
     4
 10
7.929996
 20
28.624863
 11
16.470001
 21
28.624863
  0
LINE
  8
0
 10
7.200000
 20
27.412460
 11
17.199997
 21
27.412460
  0
LINE
  8
0
 62
     4
 10
14.603958
 20
48.312454
 11
16.403961
 21
48.312454
  0
LINE
  8
0
 62
     4
 10
13.503952
 20
47.712463
 11
17.103958
 21
47.712463
  0
LINE
  8
0
 62
     4
 10
13.503967
 20
47.912460
 11
13.503967
 21
47.712463
  0
LINE
  8
0
 62
     4
 10
9.796036
 20
48.312454
 11
7.996036
 21
48.312454
  0
LINE
  8
0
  6
CENTER
 62
     1
 10
8.896029
 20
49.063126
 11
8.896029
 21
46.428177
  0
LINE
  8
0
  6
CENTER
 62
     1
 10
15.503952
 20
49.063126
 11
15.503952
 21
46.542740
  0
LINE
  8
0
  6
CENTER
 62
     2
 10
10.199997
 20
19.812454
 11
14.199997
 21
19.812454
  0
LINE
  8
0
  6
CENTER
 62
     2
 10
10.199997
 20
10.912460
 11
14.199997
 21
10.912460
  0
LINE
  8
0
 62
     4
 10
10.949997
 20
40.912460
 11
13.449997
 21
40.912460
  0
LINE
  8
0
 62
     4
 10
10.949997
 20
43.912460
 11
13.449997
 21
43.912460
  0
LINE
  8
0
  6
CENTER
 62
     2
 10
22.399994
 20
51.133530
 11
22.399994
 21
2.354614
  0
LINE
  8
0
 10
26.607079
 20
23.119572
 11
25.192865
 21
21.705359
  0
LINE
  8
0
 10
25.192865
 20
23.119572
 11
26.607079
 21
21.705359
  0
LINE
  8
0
 10
19.607094
 20
23.119572
 11
18.192879
 21
21.705359
  0
LINE
  8
0
 10
18.192888
 20
23.119562
 11
19.607094
 21
21.705357
  0
LINE
  8
0
 10
27.399979
 20
27.412460
 11
27.399979
 21
4.412460
  0
LINE
  8
0
 10
17.399994
 20
27.412460
 11
17.399994
 21
4.412460
  0
LINE
  8
0
 10
17.399994
 20
7.412460
 11
27.399979
 21
7.412460
  0
LINE
  8
0
 10
20.399994
 20
26.267166
 11
20.399994
 21
23.957764
  0
LINE
  8
0
 10
24.399979
 20
26.267166
 11
24.399979
 21
23.957764
  0
LINE
  8
0
 10
20.400051
 20
26.267132
 11
22.400038
 21
27.421824
  0
LINE
  8
0
 10
22.400047
 20
22.802975
 11
24.400034
 21
23.957666
  0
LINE
  8
0
 10
22.400007
 20
27.421991
 11
24.400007
 21
26.267290
  0
LINE
  8
0
 10
20.400055
 20
23.957880
 11
22.400055
 21
22.803179
  0
LINE
  8
0
  6
CENTER
 62
     2
 10
19.399994
 20
25.112457
 11
25.399979
 21
25.112457
  0
LINE
  8
0
  6
CENTER
 62
     2
 10
18.899994
 20
24.912460
 11
18.899994
 21
19.912460
  0
LINE
  8
0
  6
PHANTOM
 62
     2
 10
25.899979
 20
24.912460
 11
25.899979
 21
19.912460
  0
LINE
  8
0
 10
21.599976
 20
5.412460
 11
17.399979
 21
5.412460
  0
LINE
  8
0
  6
CENTER
 62
     2
 10
19.099976
 20
6.873138
 11
19.099976
 21
3.809189
  0
LINE
  8
0
 10
21.599976
 20
5.412460
 11
21.599976
 21
4.412460
  0
LINE
  8
0
 62
     4
 10
27.399994
 20
47.412460
 11
27.399994
 21
27.412460
  0
LINE
  8
0
 62
     4
 10
17.399994
 20
47.412460
 11
17.399994
 21
27.412460
  0
LINE
  8
0
 62
     4
 10
17.399994
 20
46.912460
 11
27.399994
 21
46.912460
  0
LINE
  8
0
 62
     4
 10
17.899994
 20
47.912460
 11
24.238266
 21
47.912460
  0
LINE
  8
0
 62
     4
 10
17.899994
 20
45.912460
 11
26.899994
 21
45.912460
  0
LINE
  8
0
 62
     4
 10
27.169998
 20
45.412460
 11
27.169998
 21
29.124863
  0
LINE
  8
0
 62
     4
 10
17.629990
 20
45.412460
 11
17.629990
 21
29.124863
  0
LINE
  8
0
 62
     4
 10
18.129990
 20
28.624863
 11
26.669998
 21
28.624863
  0
LINE
  8
0
 10
17.399994
 20
27.412460
 11
27.399994
 21
27.412460
  0
LINE
  8
0
 62
     4
 10
24.803955
 20
48.312454
 11
26.603958
 21
48.312454
  0
LINE
  8
0
 62
     4
 10
23.703949
 20
47.712463
 11
27.303955
 21
47.712463
  0
LINE
  8
0
 62
     4
 10
23.703964
 20
47.912460
 11
23.703964
 21
47.712463
  0
LINE
  8
0
 62
     4
 10
19.996033
 20
48.312454
 11
18.196030
 21
48.312454
  0
LINE
  8
0
  6
CENTER
 62
     1
 10
19.096024
 20
49.063126
 11
19.096024
 21
46.428177
  0
LINE
  8
0
  6
CENTER
 62
     1
 10
25.703949
 20
49.063126
 11
25.703949
 21
46.542740
  0
LINE
  8
0
  6
CENTER
 62
     2
 10
20.399994
 20
19.812454
 11
24.399994
 21
19.812454
  0
LINE
  8
0
  6
CENTER
 62
     2
 10
20.399994
 20
10.912460
 11
24.399994
 21
10.912460
  0
LINE
  8
0
 62
     4
 10
21.149994
 20
40.912460
 11
23.649994
 21
40.912460
  0
LINE
  8
0
 62
     4
 10
21.149994
 20
43.912460
 11
23.649994
 21
43.912460
  0
LINE
  8
0
  6
CENTER
 62
     2
 10
32.599991
 20
51.133530
 11
32.599991
 21
2.354614
  0
LINE
  8
0
 10
36.807076
 20
23.119562
 11
35.392860
 21
21.705349
  0
LINE
  8
0
 10
35.392872
 20
23.119570
 11
36.807087
 21
21.705357
  0
LINE
  8
0
 10
29.807098
 20
23.119572
 11
28.392885
 21
21.705359
  0
LINE
  8
0
 10
28.392887
 20
23.119572
 11
29.807100
 21
21.705359
  0
LINE
  8
0
 10
37.599976
 20
27.412460
 11
37.599976
 21
4.412460
  0
LINE
  8
0
 10
27.599991
 20
27.412460
 11
27.599991
 21
4.412460
  0
LINE
  8
0
 10
27.599991
 20
7.412460
 11
37.599976
 21
7.412460
  0
LINE
  8
0
 10
30.599991
 20
26.267166
 11
30.599991
 21
23.957764
  0
LINE
  8
0
 10
34.599976
 20
26.267166
 11
34.599976
 21
23.957764
  0
LINE
  8
0
 10
30.600044
 20
26.267128
 11
32.600033
 21
27.421822
  0
LINE
  8
0
 10
32.600037
 20
22.802979
 11
34.600025
 21
23.957670
  0
LINE
  8
0
 10
32.600002
 20
27.422001
 11
34.600002
 21
26.267302
  0
LINE
  8
0
 10
30.600052
 20
23.957891
 11
32.600052
 21
22.803190
  0
LINE
  8
0
  6
CENTER
 62
     2
 10
29.599991
 20
25.112457
 11
35.599976
 21
25.112457
  0
LINE
  8
0
  6
PHANTOM
 62
     2
 10
29.099991
 20
24.912460
 11
29.099991
 21
19.912460
  0
LINE
  8
0
  6
CENTER
 62
     2
 10
36.099976
 20
24.912460
 11
36.099976
 21
19.912460
  0
LINE
  8
0
 10
31.799973
 20
5.412460
 11
27.599976
 21
5.412460
  0
LINE
  8
0
  6
CENTER
 62
     2
 10
29.299973
 20
6.873138
 11
29.299973
 21
3.809189
  0
LINE
  8
0
 10
31.799973
 20
5.412460
 11
31.799973
 21
4.412460
  0
LINE
  8
0
  6
PHANTOM
 62
     2
 10
37.698624
 20
22.412460
 11
33.599991
 21
22.412460
  0
LINE
  8
0
 62
     4
 10
37.599991
 20
47.412460
 11
37.599991
 21
27.412460
  0
LINE
  8
0
 62
     4
 10
27.599991
 20
47.412460
 11
27.599991
 21
27.412460
  0
LINE
  8
0
 62
     4
 10
27.599991
 20
46.912460
 11
37.599991
 21
46.912460
  0
LINE
  8
0
 62
     4
 10
28.099991
 20
47.912460
 11
34.438263
 21
47.912460
  0
LINE
  8
0
 62
     4
 10
28.099991
 20
45.912460
 11
37.099991
 21
45.912460
  0
LINE
  8
0
 62
     4
 10
37.369995
 20
45.412460
 11
37.369995
 21
29.124863
  0
LINE
  8
0
 62
     4
 10
27.829987
 20
45.412460
 11
27.829987
 21
29.124863
  0
LINE
  8
0
 62
     4
 10
28.329987
 20
28.624863
 11
36.869995
 21
28.624863
  0
LINE
  8
0
 10
27.599991
 20
27.412460
 11
37.599991
 21
27.412460
  0
LINE
  8
0
 62
     4
 10
35.003952
 20
48.312454
 11
36.803955
 21
48.312454
  0
LINE
  8
0
 62
     4
 10
33.903946
 20
47.712463
 11
37.503952
 21
47.712463
  0
LINE
  8
0
 62
     4
 10
33.903961
 20
47.912460
 11
33.903961
 21
47.712463
  0
LINE
  8
0
 62
     4
 10
30.196030
 20
48.312454
 11
28.396027
 21
48.312454
  0
LINE
  8
0
  6
CENTER
 62
     1
 10
29.296021
 20
49.063126
 11
29.296021
 21
46.428177
  0
LINE
  8
0
  6
CENTER
 62
     1
 10
35.903946
 20
49.063126
 11
35.903946
 21
46.542740
  0
LINE
  8
0
  6
CENTER
 62
     2
 10
30.599991
 20
19.812454
 11
34.599991
 21
19.812454
  0
LINE
  8
0
  6
CENTER
 62
     2
 10
30.599991
 20
10.912460
 11
34.599991
 21
10.912460
  0
LINE
  8
0
 62
     4
 10
31.349991
 20
40.912460
 11
33.849991
 21
40.912460
  0
LINE
  8
0
 62
     4
 10
31.349991
 20
43.912460
 11
33.849991
 21
43.912460
  0
LINE
  8
0
 10
17.399994
 20
33.412460
 11
17.199997
 21
33.412460
  0
LINE
  8
0
 10
-3.000000
 20
33.412460
 11
-10.000000
 21
33.412460
  0
LINE
  8
0
 10
7.200000
 20
33.412460
 11
7.000000
 21
33.412460
  0
LINE
  8
0
  6
PHANTOM
 62
     2
 10
23.399994
 20
22.412460
 11
31.599991
 21
22.412460
  0
LINE
  8
0
  6
CENTER
 62
     2
 10
13.199997
 20
22.412460
 11
21.399994
 21
22.412460
  0
LINE
  8
0
 10
-115.681442
 20
17.210678
 11
-115.681442
 21
-124.198929
  0
LINE
  8
0
 10
-136.894638
 20
17.210678
 11
-136.894638
 21
-124.198929
  0
LINE
  8
0
 10
-158.107681
 20
17.210678
 11
-158.107681
 21
-124.198929
  0
LINE
  8
0
 10
-184.249985
 20
17.210693
 11
-184.249985
 21
-124.198929
  0
LINE
  8
0
 10
-184.249985
 20
-46.428940
 11
-115.681442
 21
-46.428940
  0
LINE
  8
0
 10
-184.249985
 20
-39.357864
 11
-115.681442
 21
-39.357864
  0
LINE
  8
0
 10
-184.249985
 20
-32.286804
 11
-115.681442
 21
-32.286804
  0
LINE
  8
0
 10
-184.249985
 20
-25.215729
 11
-115.681442
 21
-25.215729
  0
LINE
  8
0
 10
-184.249985
 20
-18.144653
 11
-115.681442
 21
-18.144653
  0
LINE
  8
0
 10
-184.249985
 20
-11.073594
 11
-115.681442
 21
-11.073594
  0
LINE
  8
0
 10
-184.249985
 20
-4.002525
 11
-115.681442
 21
-4.002525
  0
LINE
  8
0
 10
-184.249985
 20
3.068542
 11
-115.681442
 21
3.068542
  0
LINE
  8
0
 10
-184.249985
 20
10.139621
 11
-115.681442
 21
10.139621
  0
LINE
  8
0
 10
-184.249985
 20
17.210693
 11
-115.681442
 21
17.210693
  0
LINE
  8
0
 10
-184.249985
 20
-53.498932
 11
-115.681442
 21
-53.498932
  0
LINE
  8
0
 10
-184.249985
 20
-60.568939
 11
-115.681442
 21
-60.568939
  0
LINE
  8
0
 10
-184.249985
 20
-67.638931
 11
-115.681442
 21
-67.638931
  0
LINE
  8
0
 10
-184.249985
 20
-74.708939
 11
-115.681442
 21
-74.708939
  0
LINE
  8
0
 10
-184.249985
 20
-81.778931
 11
-115.681442
 21
-81.778931
  0
LINE
  8
0
 10
-184.249985
 20
-88.848938
 11
-115.681442
 21
-88.848938
  0
LINE
  8
0
 10
-184.249985
 20
-95.918930
 11
-115.681442
 21
-95.918930
  0
LINE
  8
0
 10
-184.249985
 20
-102.988937
 11
-115.681442
 21
-102.988937
  0
LINE
  8
0
 10
-184.249985
 20
-110.058929
 11
-115.681442
 21
-110.058929
  0
LINE
  8
0
 10
-184.249985
 20
-117.128937
 11
-115.681442
 21
-117.128937
  0
LINE
  8
0
 10
-184.249985
 20
-124.198929
 11
-115.681442
 21
-124.198929
  0
LINE
  8
0
 10
-109.250000
 20
132.600006
 11
-109.250000
 21
117.600006
  0
LINE
  8
0
 10
-194.250000
 20
117.600006
 11
-109.250000
 21
117.600006
  0
LINE
  8
0
 10
109.800003
 20
117.600006
 11
194.800003
 21
117.600006
  0
LINE
  8
0
 10
109.800003
 20
132.600006
 11
109.800003
 21
117.600006
  0
LINE
  8
0
 10
109.800003
 20
-118.500000
 11
194.800003
 21
-118.500000
  0
LINE
  8
0
 10
109.800003
 20
-118.500000
 11
109.800003
 21
-133.500000
  0
LINE
  8
0
 10
-194.250000
 20
-133.500000
 11
194.800003
 21
-133.500000
  0
LINE
  8
0
 10
-194.250000
 20
132.600006
 11
-194.250000
 21
-133.500000
  0
LINE
  8
0
 10
194.800003
 20
132.600006
 11
194.800003
 21
-133.500000
  0
LINE
  8
0
 10
-194.250000
 20
132.600006
 11
194.800003
 21
132.600006
  0
CIRCLE
  8
0
 62
     4
 10
0.750000
 20
42.412460
 40
0.650000
  0
CIRCLE
  8
0
 62
     4
 10
3.250000
 20
42.412460
 40
0.650000
  0
ARC
  8
0
 62
     4
 10
3.250000
 20
42.412460
 40
1.500000
 50
270.000031
 51
89.999985
  0
ARC
  8
0
 62
     4
 10
0.750000
 20
42.412460
 40
1.500000
 50
89.999985
 51
270.000000
  0
CIRCLE
  8
0
 62
     4
 10
46.299988
 20
22.412460
 40
1.500000
  0
CIRCLE
  8
0
 62
     4
 10
39.300003
 20
22.412460
 40
1.500000
  0
CIRCLE
  8
0
 10
5.499985
 20
22.412460
 40
1.500000
  0
CIRCLE
  8
0
 10
-1.500000
 20
22.412460
 40
1.500000
  0
CIRCLE
  8
0
 10
2.000000
 20
19.812454
 40
1.229500
  0
CIRCLE
  8
0
 10
2.000000
 20
10.912460
 40
1.229500
  0
CIRCLE
  8
0
 62
     2
 10
2.000000
 20
10.912460
 40
1.500000
  0
CIRCLE
  8
0
 62
     2
 10
2.000000
 20
19.812454
 40
1.500000
  0
ARC
  8
0
 62
     4
 10
-2.500000
 20
47.412460
 40
0.500000
 50
89.999969
 51
180.000000
  0
ARC
  8
0
 62
     4
 10
6.500000
 20
47.412460
 40
0.500000
 50
0.000000
 51
53.853489
  0
ARC
  8
0
 62
     4
 10
-2.270004
 20
29.124863
 40
0.500000
 50
180.000000
 51
270.000000
  0
ARC
  8
0
 62
     4
 10
6.270004
 20
29.124863
 40
0.500000
 50
270.000000
 51
0.000000
  0
ARC
  8
0
 62
     4
 10
6.270004
 20
45.412460
 40
0.500000
 50
0.000000
 51
90.000000
  0
ARC
  8
0
 62
     4
 10
-2.270004
 20
45.412460
 40
0.500000
 50
89.999969
 51
180.000000
  0
ARC
  8
0
 62
     4
 10
-2.500000
 20
45.412460
 40
0.500000
 50
89.999969
 51
180.000000
  0
ARC
  8
0
 62
     4
 10
6.500000
 20
45.412460
 40
0.500000
 50
0.000000
 51
90.000000
  0
ARC
  8
0
 62
     4
 10
6.203964
 20
47.712463
 40
0.600000
 50
0.000000
 51
90.000000
  0
ARC
  8
0
 62
     4
 10
4.403961
 20
47.712463
 40
0.599998
 50
90.000000
 51
180.000000
  0
ARC
  8
0
 62
     4
 10
-0.403961
 20
47.712463
 40
0.600000
 50
19.471287
 51
89.999985
  0
ARC
  8
0
 62
     4
 10
-2.203964
 20
47.712463
 40
0.599998
 50
89.999977
 51
170.041977
  0
CIRCLE
  8
0
 10
-6.500000
 20
19.912460
 40
1.599999
  0
CIRCLE
  8
0
 10
51.299988
 20
19.912460
 40
1.599999
  0
ARC
  8
0
 10
-2.266678
 20
5.483292
 40
0.533333
 50
187.632492
 51
253.808716
  0
ARC
  8
0
 10
-1.300018
 20
8.812454
 40
4.000000
 50
253.808701
 51
286.191345
  0
ARC
  8
0
 10
-0.333344
 20
5.483292
 40
0.533334
 50
286.191315
 51
352.367493
  0
ARC
  8
0
 10
-1.500000
 20
22.412460
 40
1.599999
 50
200.364136
 51
0.000000
  0
CIRCLE
  8
0
 10
2.000000
 20
25.112457
 40
0.900000
  0
CIRCLE
  8
0
 10
2.000000
 20
25.112457
 40
2.000000
  0
ARC
  8
0
 10
-1.500000
 20
22.412460
 40
1.599999
 50
0.000000
 51
159.635864
  0
ARC
  8
0
 10
5.499985
 20
22.412460
 40
1.599999
 50
20.364128
 51
339.635864
  0
ARC
  8
0
 10
15.699982
 20
22.412460
 40
1.600000
 50
20.364122
 51
339.635864
  0
ARC
  8
0
 10
8.700000
 20
22.412460
 40
1.599999
 50
0.000000
 51
159.635864
  0
CIRCLE
  8
0
 10
12.199997
 20
25.112457
 40
2.000000
  0
CIRCLE
  8
0
 10
12.199997
 20
25.112457
 40
0.900000
  0
ARC
  8
0
 10
8.700000
 20
22.412460
 40
1.599999
 50
200.364136
 51
0.000000
  0
ARC
  8
0
 10
9.866653
 20
5.483292
 40
0.533334
 50
286.191345
 51
352.367493
  0
ARC
  8
0
 10
8.899981
 20
8.812454
 40
4.000000
 50
253.808701
 51
286.191345
  0
ARC
  8
0
 10
7.933322
 20
5.483292
 40
0.533333
 50
187.632492
 51
253.808716
  0
ARC
  8
0
 62
     4
 10
7.996036
 20
47.712463
 40
0.599998
 50
90.000000
 51
170.041977
  0
ARC
  8
0
 62
     4
 10
9.796036
 20
47.712463
 40
0.600000
 50
19.471294
 51
90.000000
  0
ARC
  8
0
 62
     4
 10
14.603958
 20
47.712463
 40
0.599998
 50
90.000000
 51
180.000000
  0
ARC
  8
0
 62
     4
 10
16.403961
 20
47.712463
 40
0.600000
 50
0.000000
 51
90.000000
  0
ARC
  8
0
 62
     4
 10
16.699997
 20
45.412460
 40
0.500000
 50
0.000000
 51
90.000000
  0
ARC
  8
0
 62
     4
 10
7.700000
 20
45.412460
 40
0.500000
 50
90.000000
 51
180.000000
  0
ARC
  8
0
 62
     4
 10
7.929996
 20
45.412460
 40
0.500000
 50
90.000000
 51
180.000000
  0
ARC
  8
0
 62
     4
 10
16.470001
 20
45.412460
 40
0.500000
 50
0.000000
 51
90.000000
  0
ARC
  8
0
 62
     4
 10
16.470001
 20
29.124863
 40
0.500000
 50
270.000000
 51
0.000000
  0
ARC
  8
0
 62
     4
 10
7.929996
 20
29.124863
 40
0.500000
 50
180.000000
 51
270.000000
  0
ARC
  8
0
 62
     4
 10
16.699997
 20
47.412460
 40
0.500000
 50
0.000000
 51
53.853489
  0
ARC
  8
0
 62
     4
 10
7.700000
 20
47.412460
 40
0.500000
 50
90.000000
 51
180.000000
  0
CIRCLE
  8
0
 62
     2
 10
12.199997
 20
19.812454
 40
1.500000
  0
CIRCLE
  8
0
 62
     2
 10
12.199997
 20
10.912460
 40
1.500000
  0
CIRCLE
  8
0
 10
12.199997
 20
10.912460
 40
1.229500
  0
CIRCLE
  8
0
 10
12.199997
 20
19.812454
 40
1.229500
  0
CIRCLE
  8
0
 10
8.700000
 20
22.412460
 40
1.500000
  0
CIRCLE
  8
0
 10
15.699982
 20
22.412460
 40
1.500000
  0
ARC
  8
0
 62
     4
 10
10.949997
 20
42.412460
 40
1.500000
 50
90.000000
 51
270.000000
  0
ARC
  8
0
 62
     4
 10
13.449997
 20
42.412460
 40
1.500000
 50
270.000000
 51
90.000000
  0
CIRCLE
  8
0
 62
     4
 10
13.449997
 20
42.412460
 40
0.650000
  0
CIRCLE
  8
0
 62
     4
 10
10.949997
 20
42.412460
 40
0.650000
  0
ARC
  8
0
 10
25.899979
 20
22.412460
 40
1.600000
 50
20.364122
 51
339.635864
  0
ARC
  8
0
 10
18.899994
 20
22.412460
 40
1.599998
 50
0.000000
 51
159.635880
  0
CIRCLE
  8
0
 10
22.399994
 20
25.112457
 40
2.000000
  0
CIRCLE
  8
0
 10
22.399994
 20
25.112457
 40
0.900000
  0
ARC
  8
0
 10
18.899994
 20
22.412460
 40
1.600000
 50
200.364120
 51
0.000000
  0
ARC
  8
0
 10
20.066650
 20
5.483292
 40
0.533334
 50
286.191345
 51
352.367493
  0
ARC
  8
0
 10
19.099976
 20
8.812454
 40
4.000000
 50
253.808701
 51
286.191345
  0
ARC
  8
0
 10
18.133316
 20
5.483292
 40
0.533333
 50
187.632492
 51
253.808670
  0
ARC
  8
0
 62
     4
 10
18.196030
 20
47.712463
 40
0.599998
 50
90.000000
 51
170.041992
  0
ARC
  8
0
 62
     4
 10
19.996033
 20
47.712463
 40
0.600000
 50
19.471294
 51
90.000000
  0
ARC
  8
0
 62
     4
 10
24.803955
 20
47.712463
 40
0.599998
 50
90.000000
 51
180.000000
  0
ARC
  8
0
 62
     4
 10
26.603958
 20
47.712463
 40
0.600000
 50
0.000000
 51
90.000000
  0
ARC
  8
0
 62
     4
 10
26.899994
 20
45.412460
 40
0.500000
 50
0.000000
 51
90.000000
  0
ARC
  8
0
 62
     4
 10
17.899994
 20
45.412460
 40
0.500000
 50
90.000000
 51
180.000000
  0
ARC
  8
0
 62
     4
 10
18.129990
 20
45.412460
 40
0.500000
 50
90.000000
 51
180.000000
  0
ARC
  8
0
 62
     4
 10
26.669998
 20
45.412460
 40
0.500000
 50
0.000000
 51
90.000000
  0
ARC
  8
0
 62
     4
 10
26.669998
 20
29.124863
 40
0.500000
 50
270.000000
 51
0.000000
  0
ARC
  8
0
 62
     4
 10
18.129990
 20
29.124863
 40
0.500000
 50
180.000000
 51
270.000000
  0
ARC
  8
0
 62
     4
 10
26.899994
 20
47.412460
 40
0.500000
 50
0.000000
 51
53.853489
  0
ARC
  8
0
 62
     4
 10
17.899994
 20
47.412460
 40
0.500000
 50
90.000000
 51
180.000000
  0
CIRCLE
  8
0
 62
     2
 10
22.399994
 20
19.812454
 40
1.500000
  0
CIRCLE
  8
0
 62
     2
 10
22.399994
 20
10.912460
 40
1.500000
  0
CIRCLE
  8
0
 10
22.399994
 20
10.912460
 40
1.229500
  0
CIRCLE
  8
0
 10
22.399994
 20
19.812454
 40
1.229500
  0
CIRCLE
  8
0
 10
18.899994
 20
22.412460
 40
1.500000
  0
CIRCLE
  8
0
 10
25.899979
 20
22.412460
 40
1.500000
  0
ARC
  8
0
 62
     4
 10
21.149994
 20
42.412460
 40
1.500000
 50
90.000000
 51
270.000000
  0
ARC
  8
0
 62
     4
 10
23.649994
 20
42.412460
 40
1.500000
 50
270.000000
 51
90.000000
  0
CIRCLE
  8
0
 62
     4
 10
23.649994
 20
42.412460
 40
0.650000
  0
CIRCLE
  8
0
 62
     4
 10
21.149994
 20
42.412460
 40
0.650000
  0
ARC
  8
0
 10
36.099976
 20
22.412460
 40
1.600000
 50
20.364122
 51
339.635864
  0
ARC
  8
0
 10
29.099991
 20
22.412460
 40
1.599998
 50
0.000000
 51
159.635880
  0
CIRCLE
  8
0
 10
32.599991
 20
25.112457
 40
2.000000
  0
CIRCLE
  8
0
 10
32.599991
 20
25.112457
 40
0.900000
  0
ARC
  8
0
 10
29.099991
 20
22.412460
 40
1.600000
 50
200.364120
 51
0.000000
  0
ARC
  8
0
 10
30.266647
 20
5.483292
 40
0.533334
 50
286.191345
 51
352.367493
  0
ARC
  8
0
 10
29.299973
 20
8.812454
 40
4.000000
 50
253.808701
 51
286.191345
  0
ARC
  8
0
 10
28.333313
 20
5.483292
 40
0.533333
 50
187.632492
 51
253.808670
  0
ARC
  8
0
 62
     4
 10
28.396027
 20
47.712463
 40
0.599998
 50
90.000000
 51
170.041992
  0
ARC
  8
0
 62
     4
 10
30.196030
 20
47.712463
 40
0.600000
 50
19.471294
 51
90.000000
  0
ARC
  8
0
 62
     4
 10
35.003952
 20
47.712463
 40
0.599998
 50
90.000000
 51
180.000000
  0
ARC
  8
0
 62
     4
 10
36.803955
 20
47.712463
 40
0.599998
 50
0.000000
 51
90.000000
  0
ARC
  8
0
 62
     4
 10
37.099991
 20
45.412460
 40
0.500000
 50
0.000000
 51
90.000000
  0
ARC
  8
0
 62
     4
 10
28.099991
 20
45.412460
 40
0.500000
 50
90.000000
 51
180.000000
  0
ARC
  8
0
 62
     4
 10
28.329987
 20
45.412460
 40
0.500000
 50
90.000000
 51
180.000000
  0
ARC
  8
0
 62
     4
 10
36.869995
 20
45.412460
 40
0.500000
 50
0.000000
 51
90.000000
  0
ARC
  8
0
 62
     4
 10
36.869995
 20
29.124863
 40
0.500000
 50
270.000000
 51
0.000000
  0
ARC
  8
0
 62
     4
 10
28.329987
 20
29.124863
 40
0.500000
 50
180.000000
 51
270.000000
  0
ARC
  8
0
 62
     4
 10
37.099991
 20
47.412460
 40
0.500000
 50
0.000000
 51
53.853489
  0
ARC
  8
0
 62
     4
 10
28.099991
 20
47.412460
 40
0.500000
 50
90.000000
 51
180.000000
  0
CIRCLE
  8
0
 62
     2
 10
32.599991
 20
19.812454
 40
1.500000
  0
CIRCLE
  8
0
 62
     2
 10
32.599991
 20
10.912460
 40
1.500000
  0
CIRCLE
  8
0
 10
32.599991
 20
10.912460
 40
1.229500
  0
CIRCLE
  8
0
 10
32.599991
 20
19.812454
 40
1.229500
  0
CIRCLE
  8
0
 10
29.099991
 20
22.412460
 40
1.500000
  0
CIRCLE
  8
0
 10
36.099976
 20
22.412460
 40
1.500000
  0
ARC
  8
0
 62
     4
 10
31.349991
 20
42.412460
 40
1.500000
 50
90.000000
 51
270.000000
  0
ARC
  8
0
 62
     4
 10
33.849991
 20
42.412460
 40
1.500000
 50
270.000000
 51
90.000000
  0
CIRCLE
  8
0
 62
     4
 10
33.849991
 20
42.412460
 40
0.650000
  0
CIRCLE
  8
0
 62
     4
 10
31.349991
 20
42.412460
 40
0.650000
  0
CIRCLE
  8
0
 10
5.300003
 20
-68.872696
 40
1.750000
  0
CIRCLE
  8
0
 10
-1.300003
 20
-58.272690
 40
1.750000
  0
ARC
  8
0
 62
     4
 10
45.226654
 20
-69.615479
 40
0.426666
 50
112.768974
 51
174.244751
  0
ARC
  8
0
 62
     4
 10
47.373322
 20
-69.615479
 40
0.426666
 50
0.000000
 51
67.231026
  0
ARC
  8
0
 62
     4
 10
46.299988
 20
-72.172691
 40
3.200002
 50
67.230804
 51
112.769066
  0
ARC
  8
0
 62
     4
 10
38.226669
 20
-69.615479
 40
0.426666
 50
112.768974
 51
180.000000
  0
ARC
  8
0
 62
     4
 10
40.373337
 20
-69.615479
 40
0.426665
 50
5.755245
 51
67.231026
  0
ARC
  8
0
 62
     4
 10
39.300003
 20
-72.172691
 40
3.200002
 50
67.230804
 51
112.769066
  0
ARC
  8
0
 62
     4
 10
6.314362
 20
-51.472702
 40
0.500000
 50
4.999704
 51
89.999947
  0
ARC
  8
0
 62
     4
 10
-2.314362
 20
-51.472702
 40
0.500000
 50
89.999916
 51
174.999863
  0
ARC
  8
0
 10
1.000000
 20
-58.361053
 40
2.888355
 50
69.743774
 51
110.256020
  0
ARC
  8
0
 10
3.000000
 20
-58.361053
 40
2.888354
 50
69.743828
 51
110.256073
  0
CIRCLE
  8
0
 10
8.899997
 20
-58.272690
 40
1.750000
  0
ARC
  8
0
 62
     4
 10
7.885638
 20
-51.472702
 40
0.500000
 50
89.999947
 51
174.999863
  0
ARC
  8
0
 10
13.199997
 20
-58.361053
 40
2.888354
 50
69.743820
 51
110.256065
  0
ARC
  8
0
 10
11.199997
 20
-58.361053
 40
2.888355
 50
69.743782
 51
110.256012
  0
ARC
  8
0
 62
     4
 10
16.514359
 20
-51.472702
 40
0.499999
 50
4.999714
 51
90.000000
  0
CIRCLE
  8
0
 10
15.500000
 20
-68.872696
 40
1.750000
  0
CIRCLE
  8
0
 10
19.099991
 20
-58.272690
 40
1.750000
  0
ARC
  8
0
 62
     4
 10
18.085632
 20
-51.472702
 40
0.500000
 50
90.000000
 51
174.999847
  0
ARC
  8
0
 10
23.399994
 20
-58.361053
 40
2.888354
 50
69.743835
 51
110.256065
  0
ARC
  8
0
 10
21.399994
 20
-58.361053
 40
2.888355
 50
69.743767
 51
110.256035
  0
ARC
  8
0
 62
     4
 10
26.714355
 20
-51.472702
 40
0.499999
 50
4.999714
 51
90.000000
  0
CIRCLE
  8
0
 10
25.699997
 20
-68.872696
 40
1.750000
  0
CIRCLE
  8
0
 10
29.299988
 20
-58.272690
 40
1.750000
  0
ARC
  8
0
 62
     4
 10
28.285629
 20
-51.472702
 40
0.500000
 50
90.000000
 51
174.999847
  0
ARC
  8
0
 10
33.599991
 20
-58.361053
 40
2.888354
 50
69.743835
 51
110.256065
  0
ARC
  8
0
 10
31.599991
 20
-58.361053
 40
2.888355
 50
69.743767
 51
110.256035
  0
ARC
  8
0
 62
     4
 10
36.914352
 20
-51.472702
 40
0.499999
 50
4.999714
 51
90.000000
  0
CIRCLE
  8
0
 10
35.899994
 20
-68.872696
 40
1.750000
  0
CIRCLE
  8
0
 62
     2
 10
144.657547
 20
13.412460
 40
2.500000
  0
CIRCLE
  8
0
 10
144.657547
 20
13.412460
 40
2.066999
  0
CIRCLE
  8
0
 10
144.657547
 20
25.412460
 40
2.066999
  0
CIRCLE
  8
0
 62
     2
 10
144.657547
 20
25.412460
 40
2.500000
  0
ARC
  8
0
 10
123.579880
 20
23.380417
 40
1.022330
 50
145.615753
 51
205.615875
  0
ARC
  8
0
 10
126.378922
 20
25.112457
 40
3.821371
 50
162.412079
 51
197.587921
  0
ARC
  8
0
 10
123.579880
 20
26.844513
 40
1.022326
 50
154.384125
 51
214.384171
  0
ARC
  8
0
 10
135.957550
 20
8.812454
 40
4.000001
 50
253.808624
 51
286.191376
  0
ARC
  8
0
 10
134.990875
 20
5.483292
 40
0.533335
 50
187.632462
 51
253.809250
  0
ARC
  8
0
 10
136.924210
 20
5.483292
 40
0.533332
 50
286.190735
 51
352.367523
  0
ARC
  8
0
 62
     4
 10
124.457550
 20
47.712463
 40
0.599998
 50
90.000000
 51
180.000000
  0
ARC
  8
0
 62
     4
 10
135.057541
 20
47.712463
 40
0.599998
 50
90.000000
 51
160.529175
  0
ARC
  8
0
 62
     4
 10
136.857544
 20
47.712463
 40
0.600003
 50
10.276566
 51
90.000000
  0
ARC
  8
0
 62
     4
 10
118.557541
 20
45.412460
 40
0.500000
 50
90.000000
 51
180.000000
  0
ARC
  8
0
 62
     4
 10
118.557541
 20
28.943390
 40
0.500000
 50
180.000000
 51
244.999756
  0
ARC
  8
0
 62
     4
 10
126.257538
 20
47.712463
 40
0.599998
 50
0.000000
 51
90.000000
  0
ARC
  8
0
 62
     4
 10
124.157547
 20
47.412460
 40
0.500002
 50
125.503120
 51
180.000000
  0
ARC
  8
0
 62
     4
 10
137.157547
 20
47.412460
 40
0.500000
 50
0.000000
 51
90.000000
  0
ARC
  8
0
 10
120.768387
 20
27.912460
 40
0.500001
 50
244.999756
 51
270.000000
  0
ARC
  8
0
 62
     4
 10
120.768387
 20
27.912460
 40
0.500001
 50
244.999756
 51
270.000000
  0
ARC
  8
0
 62
     4
 10
136.700333
 20
21.339127
 40
0.426667
 50
202.769211
 51
264.244781
  0
ARC
  8
0
 62
     4
 10
139.257553
 20
22.412460
 40
3.199994
 50
157.230789
 51
202.769043
  0
ARC
  8
0
 62
     4
 10
136.700333
 20
23.485792
 40
0.426667
 50
95.755219
 51
157.230789
  0
ARC
  8
0
 10
-75.968399
 20
27.912460
 40
0.500000
 50
270.000000
 51
295.000244
  0
ARC
  8
0
 62
     4
 10
-92.357559
 20
47.412460
 40
0.499999
 50
125.503380
 51
180.000000
  0
ARC
  8
0
 62
     4
 10
-79.357559
 20
47.412460
 40
0.500000
 50
0.000000
 51
90.000000
  0
ARC
  8
0
 62
     4
 10
-75.968399
 20
27.912460
 40
0.500000
 50
270.000000
 51
295.000244
  0
ARC
  8
0
 62
     4
 10
-81.457550
 20
47.712463
 40
0.599998
 50
90.000000
 51
160.528824
  0
ARC
  8
0
 62
     4
 10
-73.757553
 20
28.943390
 40
0.500001
 50
295.000244
 51
0.000000
  0
ARC
  8
0
 62
     4
 10
-73.757553
 20
45.412460
 40
0.500000
 50
0.000000
 51
90.000000
  0
ARC
  8
0
 62
     4
 10
-92.057556
 20
47.712463
 40
0.599998
 50
90.000000
 51
180.000000
  0
ARC
  8
0
 62
     4
 10
-90.257553
 20
47.712463
 40
0.599998
 50
0.000000
 51
90.000000
  0
ARC
  8
0
 62
     4
 10
-79.657562
 20
47.712463
 40
0.600003
 50
10.276566
 51
90.000000
  0
ARC
  8
0
 10
-79.590897
 20
5.483292
 40
0.533334
 50
286.191528
 51
352.367523
  0
ARC
  8
0
 10
-81.524231
 20
5.483292
 40
0.533335
 50
187.632462
 51
253.808472
  0
ARC
  8
0
 10
-80.557556
 20
8.812454
 40
3.999999
 50
253.808731
 51
286.191376
  0
ARC
  8
0
 10
-78.779892
 20
26.844513
 40
1.022330
 50
325.615753
 51
25.615780
  0
ARC
  8
0
 10
-81.578934
 20
25.112457
 40
3.821371
 50
342.412079
 51
17.587891
  0
ARC
  8
0
 10
-78.779892
 20
23.380417
 40
1.022326
 50
334.384125
 51
34.384167
  0
CIRCLE
  8
0
 62
     2
 10
-99.857559
 20
25.412460
 40
2.500000
  0
CIRCLE
  8
0
 10
-99.857559
 20
25.412460
 40
2.066999
  0
CIRCLE
  8
0
 10
-99.857559
 20
13.412460
 40
2.066999
  0
CIRCLE
  8
0
 62
     2
 10
-99.857559
 20
13.412460
 40
2.500000
  0
CIRCLE
  8
0
 62
     4
 10
0.750000
 20
42.412460
 40
0.650000
  0
CIRCLE
  8
0
 62
     4
 10
3.250000
 20
42.412460
 40
0.650000
  0
ARC
  8
0
 62
     4
 10
3.250000
 20
42.412460
 40
1.500000
 50
270.000031
 51
89.999985
  0
ARC
  8
0
 62
     4
 10
0.750000
 20
42.412460
 40
1.500000
 50
89.999985
 51
270.000000
  0
CIRCLE
  8
0
 62
     4
 10
46.299988
 20
22.412460
 40
1.500000
  0
CIRCLE
  8
0
 62
     4
 10
39.300003
 20
22.412460
 40
1.500000
  0
CIRCLE
  8
0
 10
5.499985
 20
22.412460
 40
1.500000
  0
CIRCLE
  8
0
 10
-1.500000
 20
22.412460
 40
1.500000
  0
CIRCLE
  8
0
 10
2.000000
 20
19.812454
 40
1.229500
  0
CIRCLE
  8
0
 10
2.000000
 20
10.912460
 40
1.229500
  0
CIRCLE
  8
0
 62
     2
 10
2.000000
 20
10.912460
 40
1.500000
  0
CIRCLE
  8
0
 62
     2
 10
2.000000
 20
19.812454
 40
1.500000
  0
ARC
  8
0
 62
     4
 10
-2.500000
 20
47.412460
 40
0.500000
 50
89.999969
 51
180.000000
  0
ARC
  8
0
 62
     4
 10
6.500000
 20
47.412460
 40
0.500000
 50
0.000000
 51
53.853489
  0
ARC
  8
0
 62
     4
 10
-2.270004
 20
29.124863
 40
0.500000
 50
180.000000
 51
270.000000
  0
ARC
  8
0
 62
     4
 10
6.270004
 20
29.124863
 40
0.500000
 50
270.000000
 51
0.000000
  0
ARC
  8
0
 62
     4
 10
6.270004
 20
45.412460
 40
0.500000
 50
0.000000
 51
90.000000
  0
ARC
  8
0
 62
     4
 10
-2.270004
 20
45.412460
 40
0.500000
 50
89.999969
 51
180.000000
  0
ARC
  8
0
 62
     4
 10
-2.500000
 20
45.412460
 40
0.500000
 50
89.999969
 51
180.000000
  0
ARC
  8
0
 62
     4
 10
6.500000
 20
45.412460
 40
0.500000
 50
0.000000
 51
90.000000
  0
ARC
  8
0
 62
     4
 10
6.203964
 20
47.712463
 40
0.600000
 50
0.000000
 51
90.000000
  0
ARC
  8
0
 62
     4
 10
4.403961
 20
47.712463
 40
0.599998
 50
90.000000
 51
180.000000
  0
ARC
  8
0
 62
     4
 10
-0.403961
 20
47.712463
 40
0.600000
 50
19.471287
 51
89.999985
  0
ARC
  8
0
 62
     4
 10
-2.203964
 20
47.712463
 40
0.599998
 50
89.999977
 51
170.041977
  0
CIRCLE
  8
0
 10
-6.500000
 20
19.912460
 40
1.599999
  0
CIRCLE
  8
0
 10
51.299988
 20
19.912460
 40
1.599999
  0
ARC
  8
0
 10
-2.266678
 20
5.483292
 40
0.533333
 50
187.632492
 51
253.808716
  0
ARC
  8
0
 10
-1.300018
 20
8.812454
 40
4.000000
 50
253.808701
 51
286.191345
  0
ARC
  8
0
 10
-0.333344
 20
5.483292
 40
0.533334
 50
286.191315
 51
352.367493
  0
ARC
  8
0
 10
-1.500000
 20
22.412460
 40
1.599999
 50
200.364136
 51
0.000000
  0
CIRCLE
  8
0
 10
2.000000
 20
25.112457
 40
0.900000
  0
CIRCLE
  8
0
 10
2.000000
 20
25.112457
 40
2.000000
  0
ARC
  8
0
 10
-1.500000
 20
22.412460
 40
1.599999
 50
0.000000
 51
159.635864
  0
ARC
  8
0
 10
5.499985
 20
22.412460
 40
1.599999
 50
20.364128
 51
339.635864
  0
ARC
  8
0
 10
15.699982
 20
22.412460
 40
1.600000
 50
20.364122
 51
339.635864
  0
ARC
  8
0
 10
8.700000
 20
22.412460
 40
1.599999
 50
0.000000
 51
159.635864
  0
CIRCLE
  8
0
 10
12.199997
 20
25.112457
 40
2.000000
  0
CIRCLE
  8
0
 10
12.199997
 20
25.112457
 40
0.900000
  0
ARC
  8
0
 10
8.700000
 20
22.412460
 40
1.599999
 50
200.364136
 51
0.000000
  0
ARC
  8
0
 10
9.866653
 20
5.483292
 40
0.533334
 50
286.191345
 51
352.367493
  0
ARC
  8
0
 10
8.899981
 20
8.812454
 40
4.000000
 50
253.808701
 51
286.191345
  0
ARC
  8
0
 10
7.933322
 20
5.483292
 40
0.533333
 50
187.632492
 51
253.808716
  0
ARC
  8
0
 62
     4
 10
7.996036
 20
47.712463
 40
0.599998
 50
90.000000
 51
170.041977
  0
ARC
  8
0
 62
     4
 10
9.796036
 20
47.712463
 40
0.600000
 50
19.471294
 51
90.000000
  0
ARC
  8
0
 62
     4
 10
14.603958
 20
47.712463
 40
0.599998
 50
90.000000
 51
180.000000
  0
ARC
  8
0
 62
     4
 10
16.403961
 20
47.712463
 40
0.600000
 50
0.000000
 51
90.000000
  0
ARC
  8
0
 62
     4
 10
16.699997
 20
45.412460
 40
0.500000
 50
0.000000
 51
90.000000
  0
ARC
  8
0
 62
     4
 10
7.700000
 20
45.412460
 40
0.500000
 50
90.000000
 51
180.000000
  0
ARC
  8
0
 62
     4
 10
7.929996
 20
45.412460
 40
0.500000
 50
90.000000
 51
180.000000
  0
ARC
  8
0
 62
     4
 10
16.470001
 20
45.412460
 40
0.500000
 50
0.000000
 51
90.000000
  0
ARC
  8
0
 62
     4
 10
16.470001
 20
29.124863
 40
0.500000
 50
270.000000
 51
0.000000
  0
ARC
  8
0
 62
     4
 10
7.929996
 20
29.124863
 40
0.500000
 50
180.000000
 51
270.000000
  0
ARC
  8
0
 62
     4
 10
16.699997
 20
47.412460
 40
0.500000
 50
0.000000
 51
53.853489
  0
ARC
  8
0
 62
     4
 10
7.700000
 20
47.412460
 40
0.500000
 50
90.000000
 51
180.000000
  0
CIRCLE
  8
0
 62
     2
 10
12.199997
 20
19.812454
 40
1.500000
  0
CIRCLE
  8
0
 62
     2
 10
12.199997
 20
10.912460
 40
1.500000
  0
CIRCLE
  8
0
 10
12.199997
 20
10.912460
 40
1.229500
  0
CIRCLE
  8
0
 10
12.199997
 20
19.812454
 40
1.229500
  0
CIRCLE
  8
0
 10
8.700000
 20
22.412460
 40
1.500000
  0
CIRCLE
  8
0
 10
15.699982
 20
22.412460
 40
1.500000
  0
ARC
  8
0
 62
     4
 10
10.949997
 20
42.412460
 40
1.500000
 50
90.000000
 51
270.000000
  0
ARC
  8
0
 62
     4
 10
13.449997
 20
42.412460
 40
1.500000
 50
270.000000
 51
90.000000
  0
CIRCLE
  8
0
 62
     4
 10
13.449997
 20
42.412460
 40
0.650000
  0
CIRCLE
  8
0
 62
     4
 10
10.949997
 20
42.412460
 40
0.650000
  0
ARC
  8
0
 10
25.899979
 20
22.412460
 40
1.600000
 50
20.364122
 51
339.635864
  0
ARC
  8
0
 10
18.899994
 20
22.412460
 40
1.599998
 50
0.000000
 51
159.635880
  0
CIRCLE
  8
0
 10
22.399994
 20
25.112457
 40
2.000000
  0
CIRCLE
  8
0
 10
22.399994
 20
25.112457
 40
0.900000
  0
ARC
  8
0
 10
18.899994
 20
22.412460
 40
1.600000
 50
200.364120
 51
0.000000
  0
ARC
  8
0
 10
20.066650
 20
5.483292
 40
0.533334
 50
286.191345
 51
352.367493
  0
ARC
  8
0
 10
19.099976
 20
8.812454
 40
4.000000
 50
253.808701
 51
286.191345
  0
ARC
  8
0
 10
18.133316
 20
5.483292
 40
0.533333
 50
187.632492
 51
253.808670
  0
ARC
  8
0
 62
     4
 10
18.196030
 20
47.712463
 40
0.599998
 50
90.000000
 51
170.041992
  0
ARC
  8
0
 62
     4
 10
19.996033
 20
47.712463
 40
0.600000
 50
19.471294
 51
90.000000
  0
ARC
  8
0
 62
     4
 10
24.803955
 20
47.712463
 40
0.599998
 50
90.000000
 51
180.000000
  0
ARC
  8
0
 62
     4
 10
26.603958
 20
47.712463
 40
0.600000
 50
0.000000
 51
90.000000
  0
ARC
  8
0
 62
     4
 10
26.899994
 20
45.412460
 40
0.500000
 50
0.000000
 51
90.000000
  0
ARC
  8
0
 62
     4
 10
17.899994
 20
45.412460
 40
0.500000
 50
90.000000
 51
180.000000
  0
ARC
  8
0
 62
     4
 10
18.129990
 20
45.412460
 40
0.500000
 50
90.000000
 51
180.000000
  0
ARC
  8
0
 62
     4
 10
26.669998
 20
45.412460
 40
0.500000
 50
0.000000
 51
90.000000
  0
ARC
  8
0
 62
     4
 10
26.669998
 20
29.124863
 40
0.500000
 50
270.000000
 51
0.000000
  0
ARC
  8
0
 62
     4
 10
18.129990
 20
29.124863
 40
0.500000
 50
180.000000
 51
270.000000
  0
ARC
  8
0
 62
     4
 10
26.899994
 20
47.412460
 40
0.500000
 50
0.000000
 51
53.853489
  0
ARC
  8
0
 62
     4
 10
17.899994
 20
47.412460
 40
0.500000
 50
90.000000
 51
180.000000
  0
CIRCLE
  8
0
 62
     2
 10
22.399994
 20
19.812454
 40
1.500000
  0
CIRCLE
  8
0
 62
     2
 10
22.399994
 20
10.912460
 40
1.500000
  0
CIRCLE
  8
0
 10
22.399994
 20
10.912460
 40
1.229500
  0
CIRCLE
  8
0
 10
22.399994
 20
19.812454
 40
1.229500
  0
CIRCLE
  8
0
 10
18.899994
 20
22.412460
 40
1.500000
  0
CIRCLE
  8
0
 10
25.899979
 20
22.412460
 40
1.500000
  0
ARC
  8
0
 62
     4
 10
21.149994
 20
42.412460
 40
1.500000
 50
90.000000
 51
270.000000
  0
ARC
  8
0
 62
     4
 10
23.649994
 20
42.412460
 40
1.500000
 50
270.000000
 51
90.000000
  0
CIRCLE
  8
0
 62
     4
 10
23.649994
 20
42.412460
 40
0.650000
  0
CIRCLE
  8
0
 62
     4
 10
21.149994
 20
42.412460
 40
0.650000
  0
ARC
  8
0
 10
36.099976
 20
22.412460
 40
1.600000
 50
20.364122
 51
339.635864
  0
ARC
  8
0
 10
29.099991
 20
22.412460
 40
1.599998
 50
0.000000
 51
159.635880
  0
CIRCLE
  8
0
 10
32.599991
 20
25.112457
 40
2.000000
  0
CIRCLE
  8
0
 10
32.599991
 20
25.112457
 40
0.900000
  0
ARC
  8
0
 10
29.099991
 20
22.412460
 40
1.600000
 50
200.364120
 51
0.000000
  0
ARC
  8
0
 10
30.266647
 20
5.483292
 40
0.533334
 50
286.191345
 51
352.367493
  0
ARC
  8
0
 10
29.299973
 20
8.812454
 40
4.000000
 50
253.808701
 51
286.191345
  0
ARC
  8
0
 10
28.333313
 20
5.483292
 40
0.533333
 50
187.632492
 51
253.808670
  0
ARC
  8
0
 62
     4
 10
28.396027
 20
47.712463
 40
0.599998
 50
90.000000
 51
170.041992
  0
ARC
  8
0
 62
     4
 10
30.196030
 20
47.712463
 40
0.600000
 50
19.471294
 51
90.000000
  0
ARC
  8
0
 62
     4
 10
35.003952
 20
47.712463
 40
0.599998
 50
90.000000
 51
180.000000
  0
ARC
  8
0
 62
     4
 10
36.803955
 20
47.712463
 40
0.599998
 50
0.000000
 51
90.000000
  0
ARC
  8
0
 62
     4
 10
37.099991
 20
45.412460
 40
0.500000
 50
0.000000
 51
90.000000
  0
ARC
  8
0
 62
     4
 10
28.099991
 20
45.412460
 40
0.500000
 50
90.000000
 51
180.000000
  0
ARC
  8
0
 62
     4
 10
28.329987
 20
45.412460
 40
0.500000
 50
90.000000
 51
180.000000
  0
ARC
  8
0
 62
     4
 10
36.869995
 20
45.412460
 40
0.500000
 50
0.000000
 51
90.000000
  0
ARC
  8
0
 62
     4
 10
36.869995
 20
29.124863
 40
0.500000
 50
270.000000
 51
0.000000
  0
ARC
  8
0
 62
     4
 10
28.329987
 20
29.124863
 40
0.500000
 50
180.000000
 51
270.000000
  0
ARC
  8
0
 62
     4
 10
37.099991
 20
47.412460
 40
0.500000
 50
0.000000
 51
53.853489
  0
ARC
  8
0
 62
     4
 10
28.099991
 20
47.412460
 40
0.500000
 50
90.000000
 51
180.000000
  0
CIRCLE
  8
0
 62
     2
 10
32.599991
 20
19.812454
 40
1.500000
  0
CIRCLE
  8
0
 62
     2
 10
32.599991
 20
10.912460
 40
1.500000
  0
CIRCLE
  8
0
 10
32.599991
 20
10.912460
 40
1.229500
  0
CIRCLE
  8
0
 10
32.599991
 20
19.812454
 40
1.229500
  0
CIRCLE
  8
0
 10
29.099991
 20
22.412460
 40
1.500000
  0
CIRCLE
  8
0
 10
36.099976
 20
22.412460
 40
1.500000
  0
ARC
  8
0
 62
     4
 10
31.349991
 20
42.412460
 40
1.500000
 50
90.000000
 51
270.000000
  0
ARC
  8
0
 62
     4
 10
33.849991
 20
42.412460
 40
1.500000
 50
270.000000
 51
90.000000
  0
CIRCLE
  8
0
 62
     4
 10
33.849991
 20
42.412460
 40
0.650000
  0
CIRCLE
  8
0
 62
     4
 10
31.349991
 20
42.412460
 40
0.650000
  0
TEXT
  8
0
 10
-127.649834
 20
11.792005
 40
3.200000
  1
L
 50
0.100000
 41
1.052632
 51
0.000000
  7
STANDARD
  0
TEXT
  8
0
 10
-149.304977
 20
11.792020
 40
3.200000
  1
P
 50
0.100000
 41
1.052632
 51
0.000000
  7
STANDARD
  0
TEXT
  8
0
 10
-180.707916
 20
19.160692
 40
4.500000
  1
DIMENSION LIST
 50
0.000000
 41
1.052632
 51
0.000000
  7
STANDARD
  0
TEXT
  8
0
 10
-176.678833
 20
11.795161
 40
3.199995
  1
TYPE
 50
0.000000
 41
1.052632
 51
0.000000
  7
STANDARD
  0
TEXT
  8
0
 10
-184.078827
 20
4.724085
 40
3.199995
  1
010MB 2F
 50
0.000000
 41
1.052632
 51
0.000000
  7
STANDARD
  0
TEXT
  8
0
 10
-184.078827
 20
-2.346988
 40
3.199995
  1
010MB 3F
 50
0.000000
 41
1.052632
 51
0.000000
  7
STANDARD
  0
TEXT
  8
0
 10
-184.078827
 20
-9.418060
 40
3.199995
  1
010MB 4F
 50
0.000000
 41
1.052632
 51
0.000000
  7
STANDARD
  0
TEXT
  8
0
 10
-184.078827
 20
-16.489134
 40
3.199995
  1
010MB 5F
 50
0.000000
 41
1.052632
 51
0.000000
  7
STANDARD
  0
TEXT
  8
0
 10
-184.078827
 20
-23.560202
 40
3.199995
  1
010MB 6F
 50
0.000000
 41
1.052632
 51
0.000000
  7
STANDARD
  0
TEXT
  8
0
 10
-184.078827
 20
-30.631277
 40
3.199995
  1
010MB 7F
 50
0.000000
 41
1.052632
 51
0.000000
  7
STANDARD
  0
TEXT
  8
0
 10
-184.078827
 20
-37.702354
 40
3.199995
  1
010MB 8F
 50
0.000000
 41
1.052632
 51
0.000000
  7
STANDARD
  0
TEXT
  8
0
 10
-184.078827
 20
-44.773430
 40
3.199995
  1
010MB 9F
 50
0.000000
 41
1.052632
 51
0.000000
  7
STANDARD
  0
TEXT
  8
0
 10
-184.078827
 20
-51.844490
 40
3.199995
  1
010MB10F
 50
0.000000
 41
1.052632
 51
0.000000
  7
STANDARD
  0
TEXT
  8
0
 10
-154.351151
 20
4.724086
 40
3.199995
  1
27.2
 50
0.000000
 41
1.052632
 51
0.000000
  7
STANDARD
  0
TEXT
  8
0
 10
-154.351151
 20
-2.346988
 40
3.199995
  1
37.4
 50
0.000000
 41
1.052632
 51
0.000000
  7
STANDARD
  0
TEXT
  8
0
 10
-154.351151
 20
-9.418060
 40
3.199995
  1
47.6
 50
0.000000
 41
1.052632
 51
0.000000
  7
STANDARD
  0
TEXT
  8
0
 10
-154.351151
 20
-16.489134
 40
3.199995
  1
57.8
 50
0.000000
 41
1.052632
 51
0.000000
  7
STANDARD
  0
TEXT
  8
0
 10
-154.351151
 20
-23.560202
 40
3.199995
  1
68.0
 50
0.000000
 41
1.052632
 51
0.000000
  7
STANDARD
  0
TEXT
  8
0
 10
-154.351151
 20
-30.631277
 40
3.199995
  1
78.2
 50
0.000000
 41
1.052632
 51
0.000000
  7
STANDARD
  0
TEXT
  8
0
 10
-154.351151
 20
-37.702354
 40
3.199995
  1
88.4
 50
0.000000
 41
1.052632
 51
0.000000
  7
STANDARD
  0
TEXT
  8
0
 10
-154.351151
 20
-44.773430
 40
3.199995
  1
98.6
 50
0.000000
 41
1.052632
 51
0.000000
  7
STANDARD
  0
TEXT
  8
0
 10
-157.551147
 20
-51.844490
 40
3.199995
  1
108.8
 50
0.000000
 41
1.052632
 51
0.000000
  7
STANDARD
  0
TEXT
  8
0
 10
-133.138031
 20
4.724086
 40
3.199995
  1
34.2
 50
0.000000
 41
1.052632
 51
0.000000
  7
STANDARD
  0
TEXT
  8
0
 10
-133.138031
 20
-2.346988
 40
3.199995
  1
44.4
 50
0.000000
 41
1.052632
 51
0.000000
  7
STANDARD
  0
TEXT
  8
0
 10
-133.138031
 20
-9.418056
 40
3.199995
  1
54.6
 50
0.000000
 41
1.052632
 51
0.000000
  7
STANDARD
  0
TEXT
  8
0
 10
-133.138031
 20
-16.489124
 40
3.199995
  1
64.8
 50
0.000000
 41
1.052632
 51
0.000000
  7
STANDARD
  0
TEXT
  8
0
 10
-133.138031
 20
-23.560186
 40
3.199995
  1
75.0
 50
0.000000
 41
1.052632
 51
0.000000
  7
STANDARD
  0
TEXT
  8
0
 10
-133.138031
 20
-30.631262
 40
3.199995
  1
85.2
 50
0.000000
 41
1.052632
 51
0.000000
  7
STANDARD
  0
TEXT
  8
0
 10
-133.138031
 20
-37.702324
 40
3.199995
  1
95.4
 50
0.000000
 41
1.052632
 51
0.000000
  7
STANDARD
  0
TEXT
  8
0
 10
-136.338028
 20
-44.773399
 40
3.199995
  1
105.6
 50
0.000000
 41
1.052632
 51
0.000000
  7
STANDARD
  0
TEXT
  8
0
 10
-136.338028
 20
-51.844460
 40
3.199995
  1
115.8
 50
0.000000
 41
1.052632
 51
0.000000
  7
STANDARD
  0
TEXT
  8
0
 10
-184.078827
 20
-58.913933
 40
3.199995
  1
010MB11F
 50
0.000000
 41
1.052632
 51
0.000000
  7
STANDARD
  0
TEXT
  8
0
 10
-184.078827
 20
-65.983940
 40
3.199995
  1
010MB12F
 50
0.000000
 41
1.052632
 51
0.000000
  7
STANDARD
  0
TEXT
  8
0
 10
-184.078827
 20
-73.053932
 40
3.199995
  1
010MB13F
 50
0.000000
 41
1.052632
 51
0.000000
  7
STANDARD
  0
TEXT
  8
0
 10
-184.078827
 20
-80.123940
 40
3.199995
  1
010MB14F
 50
0.000000
 41
1.052632
 51
0.000000
  7
STANDARD
  0
TEXT
  8
0
 10
-184.078827
 20
-87.193932
 40
3.199995
  1
010MB15F
 50
0.000000
 41
1.052632
 51
0.000000
  7
STANDARD
  0
TEXT
  8
0
 10
-184.078827
 20
-94.263939
 40
3.199995
  1
010MB16F
 50
0.000000
 41
1.052632
 51
0.000000
  7
STANDARD
  0
TEXT
  8
0
 10
-184.078827
 20
-101.333931
 40
3.199995
  1
010MB17F
 50
0.000000
 41
1.052632
 51
0.000000
  7
STANDARD
  0
TEXT
  8
0
 10
-184.078827
 20
-108.403938
 40
3.199995
  1
010MB18F
 50
0.000000
 41
1.052632
 51
0.000000
  7
STANDARD
  0
TEXT
  8
0
 10
-184.078827
 20
-115.473930
 40
3.199995
  1
010MB19F
 50
0.000000
 41
1.052632
 51
0.000000
  7
STANDARD
  0
TEXT
  8
0
 10
-184.078827
 20
-122.543938
 40
3.199995
  1
010MB20F
 50
0.000000
 41
1.052632
 51
0.000000
  7
STANDARD
  0
TEXT
  8
0
 10
-157.551147
 20
-58.913933
 40
3.199995
  1
119.0
 50
0.000000
 41
1.052632
 51
0.000000
  7
STANDARD
  0
TEXT
  8
0
 10
-136.338028
 20
-58.913933
 40
3.199995
  1
126.0
 50
0.000000
 41
1.052632
 51
0.000000
  7
STANDARD
  0
TEXT
  8
0
 10
-157.551147
 20
-65.983940
 40
3.199995
  1
129.2
 50
0.000000
 41
1.052632
 51
0.000000
  7
STANDARD
  0
TEXT
  8
0
 10
-157.686722
 20
-73.521431
 40
3.199995
  1
139.4
 50
0.000000
 41
1.052632
 51
0.000000
  7
STANDARD
  0
TEXT
  8
0
 10
-157.551147
 20
-80.123940
 40
3.199995
  1
149.6
 50
0.000000
 41
1.052632
 51
0.000000
  7
STANDARD
  0
TEXT
  8
0
 10
-157.551147
 20
-87.193932
 40
3.199995
  1
159.8
 50
0.000000
 41
1.052632
 51
0.000000
  7
STANDARD
  0
TEXT
  8
0
 10
-157.551147
 20
-94.263939
 40
3.199995
  1
170.0
 50
0.000000
 41
1.052632
 51
0.000000
  7
STANDARD
  0
TEXT
  8
0
 10
-157.551147
 20
-101.333931
 40
3.199995
  1
180.2
 50
0.000000
 41
1.052632
 51
0.000000
  7
STANDARD
  0
TEXT
  8
0
 10
-157.551147
 20
-108.403938
 40
3.199995
  1
190.4
 50
0.000000
 41
1.052632
 51
0.000000
  7
STANDARD
  0
TEXT
  8
0
 10
-157.551147
 20
-115.473930
 40
3.199995
  1
200.6
 50
0.000000
 41
1.052632
 51
0.000000
  7
STANDARD
  0
TEXT
  8
0
 10
-157.551147
 20
-122.543938
 40
3.199995
  1
210.8
 50
0.000000
 41
1.052632
 51
0.000000
  7
STANDARD
  0
TEXT
  8
0
 10
-136.338028
 20
-65.983940
 40
3.199995
  1
136.2
 50
0.000000
 41
1.052632
 51
0.000000
  7
STANDARD
  0
TEXT
  8
0
 10
-136.338028
 20
-73.053932
 40
3.199995
  1
146.4
 50
0.000000
 41
1.052632
 51
0.000000
  7
STANDARD
  0
TEXT
  8
0
 10
-136.338028
 20
-80.123940
 40
3.199995
  1
156.6
 50
0.000000
 41
1.052632
 51
0.000000
  7
STANDARD
  0
TEXT
  8
0
 10
-136.338028
 20
-87.193932
 40
3.199995
  1
166.8
 50
0.000000
 41
1.052632
 51
0.000000
  7
STANDARD
  0
TEXT
  8
0
 10
-136.338028
 20
-94.263939
 40
3.199995
  1
177.0
 50
0.000000
 41
1.052632
 51
0.000000
  7
STANDARD
  0
TEXT
  8
0
 10
-136.338028
 20
-101.333931
 40
3.199995
  1
187.2
 50
0.000000
 41
1.052632
 51
0.000000
  7
STANDARD
  0
TEXT
  8
0
 10
-136.338028
 20
-108.403938
 40
3.199995
  1
197.4
 50
0.000000
 41
1.052632
 51
0.000000
  7
STANDARD
  0
TEXT
  8
0
 10
-136.338028
 20
-115.473930
 40
3.199995
  1
207.6
 50
0.000000
 41
1.052632
 51
0.000000
  7
STANDARD
  0
TEXT
  8
0
 10
-136.338028
 20
-122.543938
 40
3.199995
  1
217.8
 50
0.000000
 41
1.052632
 51
0.000000
  7
STANDARD
  0
TEXT
  8
0
 62
     2
 10
54.645309
 20
-47.852684
 40
3.199995
  1
010MBA-BP
 50
0.000000
 41
1.052632
 51
0.000000
  7
STANDARD
  0
TEXT
  8
0
 62
     2
 10
47.292496
 20
-28.252676
 40
3.199995
  1
A010-4E1
 50
0.000000
 41
1.052632
 51
0.000000
  7
STANDARD
  0
TEXT
  8
0
 10
113.700287
 20
-130.669998
 40
6.300000
  1
KOGANEI CORP.
 50
0.000000
 41
1.052632
 51
0.000000
  7
STANDARD
  0
TEXT
  8
0
 10
136.157150
 20
122.050003
 40
4.500000
  1
Ver.2.0
 50
0.000000
 41
1.052632
 51
0.000000
  7
STANDARD
  0
TEXT
  8
0
 10
-186.892654
 20
104.550003
 40
4.500000
  1
MODEL:010MB5F
 50
0.000000
 41
1.052632
 51
0.000000
  7
STANDARD
  0
TEXT
  8
0
 10
-174.642654
 20
122.050003
 40
4.500000
  1
010 SERIES
 50
0.000000
 41
1.052632
 51
0.000000
  7
STANDARD
  0
TEXT
  8
0
 62
     2
 10
20.592995
 20
87.695969
 40
3.200000
  1
L
 50
0.000000
 41
1.052632
 51
0.000000
  7
STANDARD
  0
LINE
  8
0
 62
     2
 10
-10.000000
 20
86.695969
 11
54.799988
 21
86.695969
  0
LINE
  8
0
 62
     2
 10
-10.000000
 20
86.695969
 11
-7.102222
 21
87.472427
  0
LINE
  8
0
 62
     2
 10
-10.000000
 20
86.695969
 11
-7.102222
 21
85.919510
  0
LINE
  8
0
 62
     2
 10
54.799988
 20
86.695969
 11
51.902210
 21
85.919510
  0
LINE
  8
0
 62
     2
 10
54.799988
 20
86.695969
 11
51.902210
 21
87.472427
  0
LINE
  8
0
 62
     2
 10
-10.000000
 20
33.412460
 11
-10.000000
 21
88.195969
  0
LINE
  8
0
 62
     2
 10
54.799988
 20
33.412460
 11
54.799988
 21
88.195969
  0
TEXT
  8
0
 62
     2
 10
57.550556
 20
80.299835
 40
3.200000
  1
3.5
 50
0.000000
 41
1.052632
 51
0.000000
  7
STANDARD
  0
LINE
  8
0
 62
     2
 10
54.799988
 20
79.299835
 11
66.900558
 21
79.299835
  0
LINE
  8
0
 62
     2
 10
51.299988
 20
79.299835
 11
54.799988
 21
79.299835
  0
LINE
  8
0
 62
     2
 10
51.299988
 20
79.299835
 11
48.402210
 21
78.523376
  0
LINE
  8
0
 62
     2
 10
51.299988
 20
79.299835
 11
48.402210
 21
80.076294
  0
LINE
  8
0
 62
     2
 10
51.299988
 20
79.299835
 11
45.299988
 21
79.299835
  0
LINE
  8
0
 62
     2
 10
54.799988
 20
79.299835
 11
57.697765
 21
80.076294
  0
LINE
  8
0
 62
     2
 10
54.799988
 20
79.299835
 11
57.697765
 21
78.523376
  0
LINE
  8
0
 62
     2
 10
54.799988
 20
79.299835
 11
60.799988
 21
79.299835
  0
LINE
  8
0
 62
     2
 10
51.299988
 20
22.412445
 11
51.299988
 21
80.799835
  0
LINE
  8
0
 62
     2
 10
54.799988
 20
33.412460
 11
54.799988
 21
80.799835
  0
TEXT
  8
0
 62
     2
 10
20.592995
 20
80.299835
 40
3.200000
  1
P
 50
0.000000
 41
1.052632
 51
0.000000
  7
STANDARD
  0
LINE
  8
0
 62
     2
 10
-6.500000
 20
79.299835
 11
51.299988
 21
79.299835
  0
LINE
  8
0
 62
     2
 10
-6.500000
 20
79.299835
 11
-3.602222
 21
80.076294
  0
LINE
  8
0
 62
     2
 10
-6.500000
 20
79.299835
 11
-3.602222
 21
78.523376
  0
LINE
  8
0
 62
     2
 10
51.299988
 20
79.299835
 11
48.402210
 21
78.523376
  0
LINE
  8
0
 62
     2
 10
51.299988
 20
79.299835
 11
48.402210
 21
80.076294
  0
LINE
  8
0
 62
     2
 10
-6.500000
 20
19.912445
 11
-6.500000
 21
80.799835
  0
LINE
  8
0
 62
     2
 10
51.299988
 20
20.786392
 11
51.299988
 21
80.799835
  0
TEXT
  8
0
 62
     2
 10
-23.302547
 20
80.299835
 40
3.200000
  1
3.5
 50
0.000000
 41
1.052632
 51
0.000000
  7
STANDARD
  0
LINE
  8
0
 62
     2
 10
-10.000000
 20
79.299835
 11
-22.638548
 21
79.299835
  0
LINE
  8
0
 62
     2
 10
-10.000000
 20
79.299835
 11
-6.500000
 21
79.299835
  0
LINE
  8
0
 62
     2
 10
-10.000000
 20
79.299835
 11
-12.897778
 21
78.523376
  0
LINE
  8
0
 62
     2
 10
-10.000000
 20
79.299835
 11
-12.897778
 21
80.076294
  0
LINE
  8
0
 62
     2
 10
-10.000000
 20
79.299835
 11
-16.000000
 21
79.299835
  0
LINE
  8
0
 62
     2
 10
-6.500000
 20
79.299835
 11
-3.602222
 21
80.076294
  0
LINE
  8
0
 62
     2
 10
-6.500000
 20
79.299835
 11
-3.602222
 21
78.523376
  0
LINE
  8
0
 62
     2
 10
-6.500000
 20
79.299835
 11
-0.500000
 21
79.299835
  0
LINE
  8
0
 62
     2
 10
-10.000000
 20
33.412460
 11
-10.000000
 21
80.799835
  0
LINE
  8
0
 62
     2
 10
-6.500000
 20
19.912445
 11
-6.500000
 21
80.799835
  0
ENDSEC
  0
EOF
